Site menu:

    

Browse: 0-9 A B C D E F G H I J K L N O P Q R S T U V W X Y Z

chivalric bastard - dream entity:



Title: Dream Entity
Artist: 
Album: 
Author: wartorntroll/solo by Eccentricity


Track 1: Untitled

E|---------------------------------|---------------------2-----------|---------------------------------|
B|-----------------------------2---|-----------------2-------2-------|-----------------------------2---|
G|-----------------4-------4-------|-------------4---------------4---|-----------------4-------4-------|
D|---------4---4-------4-----------|---------4-----------------------|---------4---4-------4-----------|
A|-----4---------------------------|-----4---------------------------|-----4---------------------------|
E|-2-------------------------------|-2-------------------------------|-2-------------------------------|


E|-2---------------4---------------|---------------------------------|---------------------2-----------|
B|-----2---------------2-----------|-----------------------------2---|-----------------2-------2-------|
G|---------4---4-----------4-------|-----------------4-------4-------|-------------4---------------4---|
D|-----------------------------4---|---------4---4-------4-----------|---------4-----------------------|
A|---------------------------------|-----4---------------------------|-----4---------------------------|
E|---------------------------------|-2-------------------------------|-2-------------------------------|


E|---------------------------------|-2---------------4---------------|---------------------------------|
B|-----------------------------2---|-----2---------------2-----------|-----------------------------2---|
G|-----------------4-------4-------|---------4---4-----------4-------|-----------------4-------4-------|
D|---------4---4-------4-----------|-----------------------------4---|---------4---4-------4-----------|
A|-----4---------------------------|---------------------------------|-----4---------------------------|
E|-2-------------------------------|---------------------------------|-2-------------------------------|


E|---------------------2-----------|---------------------------------|-2---------------4---------------|
B|-----------------2-------2-------|-----------------------------2---|-----2---------------2-----------|
G|-------------4---------------4---|-----------------4-------4-------|---------4---4-----------4-------|
D|---------4-----------------------|---------4---4-------4-----------|-----------------------------4---|
A|-----4---------------------------|-----4---------------------------|---------------------------------|
E|-2-------------------------------|-2-------------------------------|---------------------------------|


E|---------------------------------|---------------------2-----------|---------------------------------|
B|-----------------------------2---|-----------------2-------2-------|-----------------------------2---|
G|-----------------4-------4-------|-------------4---------------4---|-----------------4-------4-------|
D|---------4---4-------4-----------|---------4-----------------------|---------4---4-------4-----------|
A|-----4---------------------------|-----4---------------------------|-----4---------------------------|
E|-2-------------------------------|-2-------------------------------|-2-------------------------------|


E|-2---------------4---------------|---------------------------------|---------------------2-----------|
B|-----2---------------2-----------|-----------------------------2---|-----------------2-------2-------|
G|---------4---4-----------4-------|-----------------4-------4-------|-------------4---------------4---|
D|-----------------------------4---|---------4---4-------4-----------|---------4-----------------------|
A|---------------------------------|-----4---------------------------|-----4---------------------------|
E|---------------------------------|-2-------------------------------|-2-------------------------------|


E|---------------------------------|-2---------------4---------------|---------------------------------|
B|-----------------------------2---|-----2---------------2-----------|-----------------------------2---|
G|-----------------4-------4-------|---------4---4-----------4-------|-----------------4-------4-------|
D|---------4---4-------4-----------|-----------------------------4---|---------4---4-------4-----------|
A|-----4---------------------------|---------------------------------|-----4---------------------------|
E|-2-------------------------------|---------------------------------|-2-------------------------------|


E|---------------------2-----------|---------------------------------|-2---------------4---------------|
B|-----------------2-------2-------|-----------------------------2---|-----2---------------2-----------|
G|-------------4---------------4---|-----------------4-------4-------|---------4---4-----------4-------|
D|---------4-----------------------|---------4---4-------4-----------|-----------------------------4---|
A|-----4---------------------------|-----4---------------------------|---------------------------------|
E|-2-------------------------------|-2-------------------------------|---------------------------------|


E|---------------------------------|---------------------2-----------|---------------------------------|
B|-----------------------------2---|-----------------2-------2-------|-----------------------------2---|
G|-----------------4-------4-------|-------------4---------------4---|-----------------4-------4-------|
D|---------4---4-------4-----------|---------4-----------------------|---------4---4-------4-----------|
A|-----4---------------------------|-----4---------------------------|-----4---------------------------|
E|-2-------------------------------|-2-------------------------------|-2-------------------------------|


E|-2---------------4---------------|---------------------------------|---------------------2-----------|
B|-----2---------------2-----------|-----------------------------2---|-----------------2-------2-------|
G|---------4---4-----------4-------|-----------------4-------4-------|-------------4---------------4---|
D|-----------------------------4---|---------4---4-------4-----------|---------4-----------------------|
A|---------------------------------|-----4---------------------------|-----4---------------------------|
E|---------------------------------|-2-------------------------------|-2-------------------------------|


E|---------------------------------|-2---------------4---------------|---------------------------------|
B|-----------------------------2---|-----2---------------2-----------|-----------------------------2---|
G|-----------------4-------4-------|---------4---4-----------4-------|-----------------4-------4-------|
D|---------4---4-------4-----------|-----------------------------4---|---------4---4-------4-----------|
A|-----4---------------------------|---------------------------------|-----4---------------------------|
E|-2-------------------------------|---------------------------------|-2-------------------------------|


E|---------------------2-----------|---------------------------------|-2---------------4---------------|
B|-----------------2-------2-------|-----------------------------2---|-----2---------------2-----------|
G|-------------4---------------4---|-----------------4-------4-------|---------4---4-----------4-------|
D|---------4-----------------------|---------4---4-------4-----------|-----------------------------4---|
A|-----4---------------------------|-----4---------------------------|---------------------------------|
E|-2-------------------------------|-2-------------------------------|---------------------------------|


E|---------------------------------|---------------------2-----------|---------------------------------|
B|-----------------------------2---|-----------------2-------2-------|-----------------------------2---|
G|-----------------4-------4-------|-------------4---------------4---|-----------------4-------4-------|
D|---------4---4-------4-----------|---------4-----------------------|---------4---4-------4-----------|
A|-----4---------------------------|-----4---------------------------|-----4---------------------------|
E|-2-------------------------------|-2-------------------------------|-2-------------------------------|


E|-2---------------4---------------|---------------------------------|---------------------2-----------|
B|-----2---------------2-----------|-----------------------------2---|-----------------2-------2-------|
G|---------4---4-----------4-------|-----------------4-------4-------|-------------4---------------4---|
D|-----------------------------4---|---------4---4-------4-----------|---------4-----------------------|
A|---------------------------------|-----4---------------------------|-----4---------------------------|
E|---------------------------------|-2-------------------------------|-2-------------------------------|


E|---------------------------------|-2---------------4---------------|---------------------------------|
B|-----------------------------2---|-----2---------------2-----------|-----------------------------2---|
G|-----------------4-------4-------|---------4---4-----------4-------|-----------------4-------4-------|
D|---------4---4-------4-----------|-----------------------------4---|---------4---4-------4-----------|
A|-----4---------------------------|---------------------------------|-----4---------------------------|
E|-2-------------------------------|---------------------------------|-2-------------------------------|


E|---------------------2-----------|---------------------------------|-2---------------4---------------|
B|-----------------2-------2-------|-----------------------------2---|-----2---------------2-----------|
G|-------------4---------------4---|-----------------4-------4-------|---------4---4-----------4-------|
D|---------4-----------------------|---------4---4-------4-----------|-----------------------------4---|
A|-----4---------------------------|-----4---------------------------|---------------------------------|
E|-2-------------------------------|-2-------------------------------|---------------------------------|


E|-----------------------------------|-------------------------------2---|-2------|
B|-----------------------------------|-------------------------------2---|-2------|
G|-----------------------------------|-------------------------------4---|-4------|
D|-----------------------------------|-------------------------------4---|-4------|
A|-4---4-------------------------4---|-4---4-------------------------4---|-4------|
E|-2---2---2---2---4--6--4---2-------|-2---2---2---2---4--6--4---4---2---|-2------|





Track 2: Untitled

E|--------|--------|--------|--------|--------|--------|--------|--------|-11--9---7-------------|
B|--------|--------|--------|--------|--------|--------|--------|--------|-------------7---7-----|
G|--------|--------|--------|--------|--------|--------|--------|--------|-----------------------|
D|--------|--------|--------|--------|--------|--------|--------|--------|-----------------------|
A|--------|--------|--------|--------|--------|--------|--------|--------|-----------------------|
E|--------|--------|--------|--------|--------|--------|--------|--------|-----------------------|


E|---------7---11--11----|-7---13--14--13--13----|-16-----|-----------------------------------|
B|-7---9-----------------|-----------------------|--------|-----------------------------------|
G|-----------------------|-----------------------|--------|-----------------------------------|
D|-----------------------|-----------------------|--------|-----------------------------------|
A|-----------------------|-----------------------|--------|-4---4-------------------------4---|
E|-----------------------|-----------------------|--------|-2---2---2---2---4--6--4---2-------|


E|-----------------------------------|---------------------------------|------------------------------|
B|-----------------------------------|---------------------------------|------------------------------|
G|-----------------------------------|---------------------------------|------------------------------|
D|-6---8---9---8---------------------|-3---1---------------------------|------------------------------|
A|-----------------4--6--4-----------|---------2---1---4---4-----------|-2---4--------4---2-----------|
E|---------------------------2---2---|-----------------2---2---2---4---|---------4------------4---2---|


E|------------------------------|-----------------------------------|-----------------------------------|
B|------------------------------|-----------------------------------|-----------------------------------|
G|------------------------------|-----------------------------------|-----------------------------------|
D|-4---6---1--------------------|-----------------------------------|-----------------------------------|
A|--------------4---4---6---4---|-4---4-------------------------4---|-4---4-----------------------------|
E|--------------2---2-----------|-2---2---2---2---4--6--4---2-------|-2---2---2---2---4--6--4---4---2---|


E|--------|-----------------------------------|-----------------------------------|
B|--------|-----------------------------------|-----------------------------------|
G|--------|-----------------------------------|-----------------------------------|
D|--------|-----------------------------------|-----------------------------------|
A|--------|-4---4-------------------------4---|-4---4-----------------------------|
E|--------|-2---2---2---2---4--6--4---2-------|-2---2---2---2---4--6--4---4---2---|


E|-----------------------------------|-----------------------------------|-----------------------------------|
B|-----------------------------------|-----------------------------------|-----------------------------------|
G|-----------------------------------|-----------------------------------|-----------------------------------|
D|-----------------------------------|-----------------------------------|-----------------------------------|
A|-4---4-------------------------4---|-4---4-----------------------------|-4---4-------------------------4---|
E|-2---2---2---2---4--6--4---2-------|-2---2---2---2---4--6--4---4---2---|-2---2---2---2---4--6--4---2-------|


E|-----------------------------------|-----------------------------------|--------------------------------|
B|-----------------------------------|-----------------------------------|--------------------------------|
G|-----------------------------------|-----------------------------------|--------------------------------|
D|-----------------------------------|-----------------------------------|--------------------------------|
A|-4---4-----------------------------|-4---4-------------------------4---|-------------------4---4---6----|
E|-2---2---2---2---4--6--4---4---2---|-2---2---2---2---4--6--4---2-------|-4--6--4---2---2----------------|


E|-------------------------------------|-----------------------------------------|
B|-------------------------------------|---------------------6-------------------|
G|-------------------------------------|------------------------4----------------|
D|---------------------------6---------|-------6---------6---------4-------------|
A|-------------------4---4------4------|----4---------4---------------6----------|
E|-4--6--4---2---2-----------------2---|-2---------2---------------------2---2---|


E|---------------------------------|-------------------------------------|-------------------------------------|
B|---------------------------------|-------------------------------------|-------------------------------------|
G|---------------------------------|-------------------------------------|-------------------------------------|
D|-6---6-----------6---6-----------|-------------------------6-----------|---------------------------6---------|
A|-4---4---4---4---4---4---4---4---|-----------4---4------4--------------|-------------------4---4------4------|
E|---------2---2-----------2---2---|-4--6--4---2---2---2---------2---2---|-4--6--4---2---2-----------------2---|


E|-----------------------------------------|---------------------------------|-------------------------------------|
B|---------------------6-------------------|---------------------------------|-------------------------------------|
G|------------------------4----------------|---------------------------------|-------------------------------------|
D|-------6---------6---------4-------------|-6---6-----------6---6-----------|-------------------------6-----------|
A|----4---------4---------------6----------|-4---4---4---4---4---4---4---4---|-----------4---4------4--------------|
E|-2---------2---------------------2---2---|---------2---2-----------2---2---|-4--6--4---2---2---2---------2---2---|


E|---------------------------------|---------------------6-----------|---------------------------------|
B|-----------------------------6---|-----------------6-------6-------|-----------------------------6---|
G|-----------------8-------8-------|-------------8---------------8---|-----------------8-------8-------|
D|---------8---8-------8-----------|---------8-----------------------|---------8---8-------8-----------|
A|-----8---------------------------|-----8---------------------------|-----8---------------------------|
E|-6-------------------------------|-6-------------------------------|-6-------------------------------|


E|-6---------------8---------------|-----------------------------------|-----------------------------------|
B|-----6---------------6-----------|-----------------------------------|-----------------------------------|
G|---------8---8-----------8-------|-----------------------------------|-----------------------------------|
D|-----------------------------8---|-----------------------------------|-----------------------------------|
A|---------------------------------|---------6---8-----------------4---|-6---4-------6---------------------|
E|---------------------------------|-4---6-----------4--6--4---2-------|---------6-------4--6--4---4---2---|


E|--------------------------------|--------------------------------|-----------------------------------|
B|--------------------------------|--------------------------------|-----------------------------------|
G|--------------------------------|--------------------------------|-----------------------------------|
D|--------------------------------|--------------------------------|-----------------------------------|
A|-6---8---4------------------4---|-2---4--------------------------|---------6---8-----------------4---|
E|--------------4--6--4---2-------|---------4----4--6--4---4---2---|-4---6-----------4--6--4---2-------|


E|-----------------------------------|--------------------------------|--------------------------------|
B|-----------------------------------|--------------------------------|--------------------------------|
G|-----------------------------------|--------------------------------|--------------------------------|
D|-----------------------------------|--------------------------------|--------------------------------|
A|-6---4-------6---------------------|-6---8---4------------------4---|-2---4--------------------------|
E|---------6-------4--6--4---4---2---|--------------4--6--4---2-------|---------4----4--6--4---4---2---|


E|--------|--------|--------|
B|--------|--------|--------|
G|--------|--------|--------|
D|--------|--------|--------|
A|--------|--------|--------|
E|--------|--------|--------|





Track 3: Untitled

E|--------|--------|--------|--------|--------|--------|--------|--------|-----------------------|
B|--------|--------|--------|--------|--------|--------|--------|--------|-12--9---9-------------|
G|--------|--------|--------|--------|--------|--------|--------|--------|-------------6---6-----|
D|--------|--------|--------|--------|--------|--------|--------|--------|-----------------------|
A|--------|--------|--------|--------|--------|--------|--------|--------|-----------------------|
E|--------|--------|--------|--------|--------|--------|--------|--------|-----------------------|


E|-----------------------|-----------------------|--------|--------|--------|--------|
B|---------9---12--12----|-9---14--16--14--14----|-16-----|--------|--------|--------|
G|-6---8-----------------|-----------------------|--------|--------|--------|--------|
D|-----------------------|-----------------------|--------|--------|--------|--------|
A|-----------------------|-----------------------|--------|--------|--------|--------|
E|-----------------------|-----------------------|--------|--------|--------|--------|


E|--------|--------|--------|--------|--------|--------|--------|--------|--------|
B|--------|--------|--------|--------|--------|--------|--------|--------|--------|
G|--------|--------|--------|--------|--------|--------|--------|--------|--------|
D|--------|--------|--------|--------|--------|--------|--------|--------|--------|
A|--------|--------|--------|--------|--------|--------|--------|--------|--------|
E|--------|--------|--------|--------|--------|--------|--------|--------|--------|


E|--------|--------|--------|--------|--------|--------|--------|--------|--------|
B|--------|--------|--------|--------|--------|--------|--------|--------|--------|
G|--------|--------|--------|--------|--------|--------|--------|--------|--------|
D|--------|--------|--------|--------|--------|--------|--------|--------|--------|
A|--------|--------|--------|--------|--------|--------|--------|--------|--------|
E|--------|--------|--------|--------|--------|--------|--------|--------|--------|


E|--------|--------|--------|--------|--------|--------|--------|--------|--------|
B|--------|--------|--------|--------|--------|--------|--------|--------|--------|
G|--------|--------|--------|--------|--------|--------|--------|--------|--------|
D|--------|--------|--------|--------|--------|--------|--------|--------|--------|
A|--------|--------|--------|--------|--------|--------|--------|--------|--------|
E|--------|--------|--------|--------|--------|--------|--------|--------|--------|


E|--------|--------|--------|--------|--------|--------|--------|--------|--------|
B|--------|--------|--------|--------|--------|--------|--------|--------|--------|
G|--------|--------|--------|--------|--------|--------|--------|--------|--------|
D|--------|--------|--------|--------|--------|--------|--------|--------|--------|
A|--------|--------|--------|--------|--------|--------|--------|--------|--------|
E|--------|--------|--------|--------|--------|--------|--------|--------|--------|





Track 4: Untitled

E|--------|--------|--------|--------|--------|--------|--------|--------|--------|
B|--------|--------|--------|--------|--------|--------|--------|--------|--------|
G|--------|--------|--------|--------|--------|--------|--------|--------|--------|
D|--------|--------|--------|--------|--------|--------|--------|--------|--------|
A|--------|--------|--------|--------|--------|--------|--------|--------|--------|
E|--------|--------|--------|--------|--------|--------|--------|--------|--------|


E|--------|--------|--------|--------|-----------------------|-13--11----------------|
B|--------|--------|--------|--------|-9---11--12--11--11----|---------12--11--11----|
G|--------|--------|--------|--------|-----------------------|-----------------------|
D|--------|--------|--------|--------|-----------------------|-----------------------|
A|--------|--------|--------|--------|-----------------------|-----------------------|
E|--------|--------|--------|--------|-----------------------|-----------------------|


E|----------------|--------------------|--------|--------|--------|--------|--------|
B|-12--14--9------|-7---9---4----4-----|--------|--------|--------|--------|--------|
G|----------------|--------------------|--------|--------|--------|--------|--------|
D|----------------|--------------------|--------|--------|--------|--------|--------|
A|----------------|--------------------|--------|--------|--------|--------|--------|
E|----------------|--------------------|--------|--------|--------|--------|--------|


E|--------|--------|--------|--------|--------|-2------|-1--4--6----------|-14-----|
B|--------|--------|--------|--------|--------|--------|------------------|--------|
G|--------|--------|--------|--------|--------|--------|------------------|--------|
D|--------|--------|--------|--------|--------|--------|------------------|--------|
A|--------|--------|--------|--------|--------|--------|------------------|--------|
E|--------|--------|--------|--------|--------|--------|------------------|--------|


E|-18----16---11----|-9------|-1--4--6----------|-14-----|-18----16---11----|-9------|
B|------------------|--------|------------------|--------|------------------|--------|
G|------------------|--------|------------------|--------|------------------|--------|
D|------------------|--------|------------------|--------|------------------|--------|
A|------------------|--------|------------------|--------|------------------|--------|
E|------------------|--------|------------------|--------|------------------|--------|


E|-11--13--11------11--13--14--13--|-16-----|-------------|--------|---------11--13--13----|
B|-------------11------------------|--------|-9-----7-----|-4------|-9---11----------------|
G|---------------------------------|--------|-------------|--------|-----------------------|
D|---------------------------------|--------|-------------|--------|-----------------------|
A|---------------------------------|--------|-------------|--------|-----------------------|
E|---------------------------------|--------|-------------|--------|-----------------------|


E|-11--9-------11--11----|-11--13--9----9-----|-7---9---4----4-----|---------11--13--13----|
B|---------11------------|--------------------|--------------------|-9---11----------------|
G|-----------------------|--------------------|--------------------|-----------------------|
D|-----------------------|--------------------|--------------------|-----------------------|
A|-----------------------|--------------------|--------------------|-----------------------|
E|-----------------------|--------------------|--------------------|-----------------------|


E|-11--9-------11--11----|-11--13--9----9-----|-7---9---4----4-----|--------|--------|
B|---------11------------|--------------------|--------------------|--------|--------|
G|-----------------------|--------------------|--------------------|--------|--------|
D|-----------------------|--------------------|--------------------|--------|--------|
A|-----------------------|--------------------|--------------------|--------|--------|
E|-----------------------|--------------------|--------------------|--------|--------|


E|--------|
B|--------|
G|--------|
D|--------|
A|--------|
E|--------|





Track 5: Untitled

G|--------|--------|--------|--------|--------|--------|--------|--------|--------|
D|--------|--------|--------|--------|--------|--------|--------|--------|--------|
A|--------|--------|--------|--------|--------|--------|--------|--------|--------|
E|--------|--------|--------|--------|--------|--------|--------|--------|--------|


G|--------|--------|--------|--------|--------|--------|--------|--------|--------|
D|--------|--------|--------|--------|--------|--------|--------|--------|--------|
A|--------|--------|--------|--------|--------|--------|--------|--------|--------|
E|--------|--------|--------|--------|--------|--------|--------|--------|--------|


G|--------|--------|--------|--------|--------|--------|--------|--------|--------|
D|--------|--------|--------|--------|--------|--------|--------|--------|--------|
A|--------|--------|--------|--------|--------|--------|--------|--------|--------|
E|--------|--------|--------|--------|--------|--------|--------|--------|--------|


G|--------|--------|--------|--------|--------|--------|--------|--------|--------|
D|--------|--------|--------|--------|--------|--------|--------|--------|--------|
A|--------|--------|--------|--------|--------|--------|--------|--------|--------|
E|--------|--------|--------|--------|--------|--------|--------|--------|--------|


G|--------|--------|--------|--------|--------|--------|--------|--------|--------|
D|--------|--------|--------|--------|--------|--------|--------|--------|--------|
A|--------|--------|--------|--------|--------|--------|--------|--------|--------|
E|--------|--------|--------|--------|--------|--------|--------|--------|--------|


G|--------|--------|--------|--------|--------|--------|
D|--------|--------|--------|--------|--------|--------|
A|--------|--------|--------|--------|--------|--------|
E|--------|--------|--------|--------|--------|--------|