Site menu:

    

Browse: 0-9 A B C D E F G H I J K L N O P Q R S T U V W X Y Z

chivalric bastard - classic rock:



Title: Classic Rock
Artist: 
Album: 
Author: Wartorntroll


Track 1: Piano

E|-3---------------|---------------------------|-3---------------|----------------------7---5-------|
B|------0----------|-----------------5----0----|------0----------|-----------------8------------5---|
G|-----------2-----|-------------7-------------|-----------2-----|---------7------------------------|
D|-----------------|-----5---7-----------------|-----------------|-7---5-------7--------------------|
A|-----------------|-8-------------------------|-----------------|----------------------------------|
E|-----------------|---------------------------|-----------------|----------------------------------|


E|--------|--------|--------|--------|--------|--------|--------|--------|--------|
B|--------|--------|--------|--------|--------|--------|--------|--------|--------|
G|--------|--------|--------|--------|--------|--------|--------|--------|--------|
D|--------|--------|--------|--------|--------|--------|--------|--------|--------|
A|--------|--------|--------|--------|--------|--------|--------|--------|--------|
E|--------|--------|--------|--------|--------|--------|--------|--------|--------|


E|--------|--------|--------|--------|--------|--------|--------|--------|--------|
B|--------|--------|--------|--------|--------|--------|--------|--------|--------|
G|--------|--------|--------|--------|--------|--------|--------|--------|--------|
D|--------|--------|--------|--------|--------|--------|--------|--------|--------|
A|--------|--------|--------|--------|--------|--------|--------|--------|--------|
E|--------|--------|--------|--------|--------|--------|--------|--------|--------|


E|--------|--------|--------|--------|--------|--------|--------|--------|--------|
B|--------|--------|--------|--------|--------|--------|--------|--------|--------|
G|--------|--------|--------|--------|--------|--------|--------|--------|--------|
D|--------|--------|--------|--------|--------|--------|--------|--------|--------|
A|--------|--------|--------|--------|--------|--------|--------|--------|--------|
E|--------|--------|--------|--------|--------|--------|--------|--------|--------|


E|--------|--------|--------|--------|--------|--------|--------|--------|--------|
B|--------|--------|--------|--------|--------|--------|--------|--------|--------|
G|--------|--------|--------|--------|--------|--------|--------|--------|--------|
D|--------|--------|--------|--------|--------|--------|--------|--------|--------|
A|--------|--------|--------|--------|--------|--------|--------|--------|--------|
E|--------|--------|--------|--------|--------|--------|--------|--------|--------|


E|--------|--------|
B|--------|--------|
G|--------|--------|
D|--------|--------|
A|--------|--------|
E|--------|--------|





Track 2: Guitar

E|--------|--------|--------|--------|------------------------------|-------8--10-12---15---17---|
B|--------|--------|--------|--------|------------------------------|----5-----------------------|
G|--------|--------|--------|--------|-------------------------5----|-7--------------------------|
D|--------|--------|--------|--------|-----2-----------5---7--------|----------------------------|
A|--------|--------|--------|--------|-0-------2---3----------------|----------------------------|
E|--------|--------|--------|--------|------------------------------|----------------------------|


E|-19--17--19--17---------------|--------|--------------------------------|---------------------------|
B|-----------------17---15--12--|--------|---------17-----------12-10-----|---------------------------|
G|------------------------------|-12-----|-14--16------16--16---------10--|-2---2---7----2---2---7----|
D|------------------------------|--------|--------------------------------|-2---2--------2---2--------|
A|------------------------------|--------|--------------------------------|-0---0--------0---0--------|
E|------------------------------|--------|--------------------------------|---------------------------|


E|------------------------|------------------------|------------------------|------------------------|
B|-------------------3----|------------------------|-------------------3----|------------------------|
G|-5----5-----------------|-5----5------------2----|-5----5-----------------|-5----5------------2----|
D|-5----5----7---7---2----|-5----5----7---7---2----|-5----5----7---7---2----|-5----5----7---7---2----|
A|-7----7----5---5---0----|-7----7----5---5---5----|-7----7----5---5---0----|-7----7----5---5---5----|
E|-5----5-----------------|-5----5------------5----|-5----5-----------------|-5----5------------5----|


E|------------------------|------------------------|------------------------|------------------------|
B|-------------------3----|------------------------|-------------------3----|------------------------|
G|-5----5-----------------|-5----5------------2----|-5----5-----------------|-5----5------------2----|
D|-5----5----7---7---2----|-5----5----7---7---2----|-5----5----7---7---2----|-5----5----7---7---2----|
A|-7----7----5---5---0----|-7----7----5---5---5----|-7----7----5---5---0----|-7----7----5---5---5----|
E|-5----5-----------------|-5----5------------5----|-5----5-----------------|-5----5------------5----|


E|----------------------------|---------------------|-----------------------|--------|
B|----------------------------|---------------------|-----------------------|--------|
G|----------------------------|---------------------|-----------------------|--------|
D|-----------------------2----|-5----7--------------|-----------------------|--------|
A|-0--0--0--0--5----0---------|-----------8----7----|-5---5---5---5---3-----|--------|
E|----------------------------|---------------------|-----------------------|--------|


E|------------------------|------------------------|------------------------|------------------------|
B|-------------------3----|------------------------|-------------------3----|------------------------|
G|-5----5-----------------|-5----5------------2----|-5----5-----------------|-5----5------------2----|
D|-5----5----7---7---2----|-5----5----7---7---2----|-5----5----7---7---2----|-5----5----7---7---2----|
A|-7----7----5---5---0----|-7----7----5---5---5----|-7----7----5---5---0----|-7----7----5---5---5----|
E|-5----5-----------------|-5----5------------5----|-5----5-----------------|-5----5------------5----|


E|------------------------|------------------------|------------------------|------------------------|
B|-------------------3----|------------------------|-------------------3----|------------------------|
G|-5----5-----------------|-5----5------------2----|-5----5-----------------|-5----5------------2----|
D|-5----5----7---7---2----|-5----5----7---7---2----|-5----5----7---7---2----|-5----5----7---7---2----|
A|-7----7----5---5---0----|-7----7----5---5---5----|-7----7----5---5---0----|-7----7----5---5---5----|
E|-5----5-----------------|-5----5------------5----|-5----5-----------------|-5----5------------5----|


E|------------------------|------------------------|---------------------------|---------------------------|
B|------------------------|------------------------|-5---5---5----3----3---3---|-5---5---5----3----3---3---|
G|-5-----------------7----|-5-----------------7----|-4---4---4----2----2---2---|-4---4---4----2----2---2---|
D|-7----7---7---7----5----|-7----7---7---7----5----|-2---2---2----2----2---2---|-2---2---2----2----2---2---|
A|-7----7---7---5---------|-7----7---7---5---------|-0---0---0----0----0---0---|-0---0---0----0----0---0---|
E|-5----5---5-------------|-5----5---5-------------|---------------------------|---------------------------|


E|---------------------------|---------------------------|---------------------------|
B|-5---5---5----3----3---3---|-5---5---5----3----3---3---|-5---5---5----3----3---3---|
G|-4---4---4----2----2---2---|-4---4---4----2----2---2---|-4---4---4----2----2---2---|
D|-2---2---2----2----2---2---|-2---2---2----2----2---2---|-2---2---2----2----2---2---|
A|-0---0---0----0----0---0---|-0---0---0----0----0---0---|-0---0---0----0----0---0---|
E|---------------------------|---------------------------|---------------------------|


E|---------------------------|---------------------------|---------------------------|
B|-5---5---5----3----3---3---|-5---5---5----3----3---3---|-5---5---5----3----3---3---|
G|-4---4---4----2----2---2---|-4---4---4----2----2---2---|-4---4---4----2----2---2---|
D|-2---2---2----2----2---2---|-2---2---2----2----2---2---|-2---2---2----2----2---2---|
A|-0---0---0----0----0---0---|-0---0---0----0----0---0---|-0---0---0----0----0---0---|
E|---------------------------|---------------------------|---------------------------|


E|-----------------0---------------|-0------|
B|---------0-----------------------|-1------|
G|-------------2-------2-----------|-2------|
D|-----2-------------------3---5---|-2------|
A|-0-------------------------------|-0------|
E|---------------------------------|-0------|





Track 3: Bass

G|---------------------------------|---------------------------------|---------------------------------|
D|---------------------------------|-7---7---5---5-------------------|---------------------------------|
A|-----------------7---7---5---5---|-----------------8---8---5---5---|-----------------7---7---5---5---|
E|-5---5---7---8-------------------|---------------------------------|-5---5---7---8-------------------|


G|---------------------------------|---------------------------------|---------------------------------|
D|-7---7---5---5-------------------|---------------------------------|-7---7---5---5-------------------|
A|-----------------8---8---5---5---|-----------------7---7---5---5---|-----------------8---8---5---5---|
E|---------------------------------|-5---5---7---8-------------------|---------------------------------|


G|---------------------------------|---------------------------------|---------------------------------|
D|---------------------------------|-7---7---5---5-------------------|---------------------------------|
A|-----------------7---7---5---5---|-----------------8---8---5---5---|-----------------7---7---5---5---|
E|-5---5---7---8-------------------|---------------------------------|-5---5---7---8-------------------|


G|---------------------------------|---------------------------------|---------------------------------|
D|-7---7---5---5-------------------|-------------------------2---2---|---------------------------------|
A|-----------------8---8---5---5---|-----------------5---5-----------|-----------------5---5-----------|
E|---------------------------------|-5---5---5---5-------------------|-5---5---5---5-----------3---3---|


G|---------------------------------|---------------------------------|---------------------------------|
D|-------------------------2---2---|---------------------------------|-------------------------2---2---|
A|-----------------5---5-----------|-----------------5---5-----------|-----------------5---5-----------|
E|-5---5---5---5-------------------|-5---5---5---5-----------3---3---|-5---5---5---5-------------------|


G|---------------------------------|---------------------------------|---------------------------------|
D|---------------------------------|-------------------------2---2---|---------------------------------|
A|-----------------5---5-----------|-----------------5---5-----------|-----------------5---5-----------|
E|-5---5---5---5-----------3---3---|-5---5---5---5-------------------|-5---5---5---5-----------3---3---|


G|---------------------------------|---------------------------------|---------------------------------|
D|-----------------7---7-----------|---------------------------------|-----------------7---7-----------|
A|---------7---7-----------8---8---|---------7---7---5---5-----------|---------7---7-----------8---8---|
E|-5---5---------------------------|-8---8-------------------3---3---|-5---5---------------------------|


G|------------------7---5---7---5---|---------------------------------|---------------------------------|
D|-------------7--------------------|-------------------------2---2---|---------------------------------|
A|-------5--7-----------------------|-----------------5---5-----------|-----------------5---5-----------|
E|-5--7-----------------------------|-5---5---5---5-------------------|-5---5---5---5-----------3---3---|


G|---------------------------------|---------------------------------|---------------------------------|
D|-------------------------2---2---|---------------------------------|-------------------------2---2---|
A|-----------------5---5-----------|-----------------5---5-----------|-----------------5---5-----------|
E|-5---5---5---5-------------------|-5---5---5---5-----------3---3---|-5---5---5---5-------------------|


G|---------------------------------|---------------------------------|---------------------------------|
D|---------------------------------|-------------------------2---2---|---------------------------------|
A|-----------------5---5-----------|-----------------5---5-----------|-----------------5---5-----------|
E|-5---5---5---5-----------3---3---|-5---5---5---5-------------------|-5---5---5---5-----------3---3---|


G|---------------------------------|---------------------------------|-----------------|
D|-----------------0---2---3---3---|-----------------0---2---3---3---|------------7----|
A|-0---0---2---3-------------------|-0---0---2---3-------------------|-----------------|
E|---------------------------------|---------------------------------|-5-----5---------|


G|-----------------|-----------------|-----------------|-----------------|-----------------|
D|------------5----|------------7----|------------5----|------------7----|------------5----|
A|-7-----8---------|-----------------|-7-----8---------|-----------------|-7-----8---------|
E|-----------------|-5-----5---------|-----------------|-5-----5---------|-----------------|


G|-----------------|-----------------|--------|--------|
D|------------7----|------------5----|--------|--------|
A|-----------------|-7-----8---------|--------|--------|
E|-5-----5---------|-----------------|--------|--------|