Site menu:

    

Browse: 0-9 A B C D E F G H I J K L N O P Q R S T U V W X Y Z

charlie christian - till tom special:



Title: Till Tom Special
Artist: 
Album: Charlie Christian - The Genius of the Electric Guitar
Author: B. Goodman - L. Hampton


Track 1: Mr. Christian

E|---------------------------------|-----------------------|---------------------------------|
B|---------------------------------|-----------------------|---------------------------------|
G|---------4-------6---4-----------|-----------------------|---------4-------6---4-----------|
D|-----5-------------------5-------|----------5------------|-----5-------------------5-------|
A|-7-------------------------------|-7-----7---------------|-7-------------------------------|
E|---------------------------------|-----------------------|---------------------------------|


E|-----------------------|---------------------------------|---------------------------------|
B|-----------------------|---------------------------------|---------------------------------|
G|-----------------------|---------4-------6---4-----------|---------4-------6---4-----------|
D|----------5------------|-----5-------------------5-------|-----5-------------------5-------|
A|-7-----7---------------|-7-------------------------------|-7-------------------------------|
E|-----------------------|---------------------------------|---------------------------------|


E|---------------------------------|-----------------------|---------------------------------|
B|---------------------------------|-----------------------|---------------------------------|
G|---------4-------6---4-----------|-----------------------|---------4-------6---4-----------|
D|-----5-------------------5-------|----------5------------|-----5-------------------5-------|
A|-7-------------------------------|-7-----7---------------|-7-------------------------------|
E|---------------------------------|-----------------------|---------------------------------|


E|-----------------------|---------------------------------|-----------------------|
B|-----------------------|---------------------------------|-----------------------|
G|-----------------------|---------4-------6---4-----------|-----------------------|
D|----------5------------|-----5-------------------5-------|----------5------------|
A|-7-----7---------------|-7-------------------------------|-7-----7---------------|
E|-----------------------|---------------------------------|-----------------------|


E|---------------------------------|---------------------------------|---------------------------------|
B|---------------------------------|---------------------------------|---------------------------------|
G|---------4-------6---4-----------|---------4-------6---4-----------|---------4-------6---4-----------|
D|-----5-------------------5-------|-----5-------------------5-------|-----5-------------------5-------|
A|-7-------------------------------|-7-------------------------------|-7-------------------------------|
E|---------------------------------|---------------------------------|---------------------------------|


E|-----------------------|-4----4----4----4----|-4----4----4----4----|-4----4----4----4----|
B|-----------------------|-5----5----5----5----|-5----5----5----5----|-5----5----5----5----|
G|-----------------------|-6----6----6----6----|-5----5----5----5----|-4----4----4----4----|
D|----------5------------|-6----6----6----6----|-6----6----6----6----|-6----6----6----6----|
A|-7-----7---------------|-4----4----4----4----|-4----4----4----4----|-4----4----4----4----|
E|-----------------------|---------------------|---------------------|---------------------|


E|-4----4----4----4----|-2------|-2------|-2----2----2----2----|-3-----2-----2---|
B|-5----5----5----5----|-2------|-2------|-2----2----2----2----|-3-----2-----2---|
G|-5----5----6----6----|-3------|-3------|-2----2----2----2----|-3-----2-----2---|
D|-6----6----6----6----|-4------|-4------|-1----1----1----1----|-2-----1-----1---|
A|-4----4----4----4----|-4------|-4------|-2----2----2----2----|-3-----2-----2---|
E|---------------------|-2------|-2------|---------------------|-----------------|


E|---------------------------------|-----------------------|---------------------------------|
B|---------------------------------|-----------------------|---------------------------------|
G|---------4-------6---4-----------|-----------------------|---------4-------6---4-----------|
D|-----5-------------------5-------|----------5------------|-----5-------------------5-------|
A|-7-------------------------------|-7-----7---------------|-7-------------------------------|
E|---------------------------------|-----------------------|---------------------------------|


E|-----------------------|---------------------------------|---------------------------------|
B|-----------------------|---------------------------------|---------------------------------|
G|-----------------------|---------4-------6---4-----------|---------4-------6---4-----------|
D|----------5------------|-----5-------------------5-------|-----5-------------------5-------|
A|-7-----7---------------|-7-------------------------------|-7-------------------------------|
E|-----------------------|---------------------------------|---------------------------------|


E|---------------------------------|-----------------------|---------------------------|
B|---------------------------------|-----------------------|---------------------------|
G|---------4-------6---4-----------|-----------------------|-------------0---4----0----|
D|-----5-------------------5-------|----------5------------|---------2-----------------|
A|-7-------------------------------|-7-----7---------------|-----2---------------------|
E|---------------------------------|-----------------------|---------------------------|


E|------------------------|----------------|--------------------|---------------------------|
B|------------------------|----------------|--------------------|---------------------------|
G|-3----0----2----2---2---|-2--------------|-0------------------|-------------0---4----0----|
D|------------------------|-----2------2---|-----2--------------|---------2-----------------|
A|------------------------|----------------|--------------------|-----2---------------------|
E|------------------------|----------------|--------------------|---------------------------|


E|------------------------|----------------|--------------------|---------------------------|
B|------------------------|----------------|--------------------|---------------------------|
G|-3----0----2----2---2---|-2--------------|--------------------|-------------0---4----0----|
D|------------------------|-----2------2---|-----2--------------|---------2-----------------|
A|------------------------|----------------|-2------------------|-----2---------------------|
E|------------------------|----------------|--------------------|---------------------------|


E|------------------------|----------------|--------------------|---------------------------|
B|------------------------|----------------|--------------------|---------------------------|
G|-3----0----2----2---2---|-2--------------|-0------------------|-------------0---4----0----|
D|------------------------|-----2------2---|-----2--------------|---------2-----------------|
A|------------------------|----------------|--------------------|-----2---------------------|
E|------------------------|----------------|--------------------|---------------------------|


E|------------------------|----------------|--------------------|-4----4----4----4----|
B|------------------------|----------------|--------------------|-5----5----5----5----|
G|-3----0----2----2---2---|-2--------------|--------------------|-6----6----6----6----|
D|------------------------|-----2------2---|-----2--------------|-6----6----6----6----|
A|------------------------|----------------|-2------------------|-4----4----4----4----|
E|------------------------|----------------|--------------------|---------------------|


E|-4----4----4----4----|-4----4----4----4----|-4----4----4----4----|-2------|-2------|
B|-5----5----5----5----|-5----5----5----5----|-5----5----5----5----|-2------|-2------|
G|-5----5----5----5----|-4----4----4----4----|-5----5----6----6----|-3------|-3------|
D|-6----6----6----6----|-6----6----6----6----|-6----6----6----6----|-4------|-4------|
A|-4----4----4----4----|-4----4----4----4----|-4----4----4----4----|-4------|-4------|
E|---------------------|---------------------|---------------------|-2------|-2------|


E|-2----2----2----2----|-3-----2-----2---|---------------------------|------------------------|
B|-2----2----2----2----|-3-----2-----2---|---------------------------|------------------------|
G|-2----2----2----2----|-3-----2-----2---|-------------0---4----0----|-3----0----2----2---2---|
D|-1----1----1----1----|-2-----1-----1---|---------2-----------------|------------------------|
A|-2----2----2----2----|-3-----2-----2---|-----2---------------------|------------------------|
E|---------------------|-----------------|---------------------------|------------------------|


E|----------------|--------------------|---------------------------|------------------------|
B|----------------|--------------------|---------------------------|------------------------|
G|-2--------------|-0------------------|-------------0---4----0----|-3----0----2----2---2---|
D|-----2------2---|-----2--------------|---------2-----------------|------------------------|
A|----------------|--------------------|-----2---------------------|------------------------|
E|----------------|--------------------|---------------------------|------------------------|


E|----------------|-----------------------|--------------------|-----------------------|
B|----------------|-----------------------|--------------------|-----------------------|
G|-2--------------|-----------------------|-9---11--12---11----|-11----9---11--9-------|
D|-----2------2---|-----2-------------9---|--------------------|-------------------9---|
A|----------------|-2---------------------|--------------------|-----------------------|
E|----------------|-----------------------|--------------------|-----------------------|


E|------------------------|--------|---------------------------|--------------------|
B|------------------------|--------|---------------------------|--------------------|
G|------------------------|--------|---------------------------|--------------------|
D|------------------------|--------|-8----7----5---8-------7---|-5---8----7---------|
A|-10-----------------10--|--------|---------------------------|--------------------|
E|-----12---12--12--------|--------|---------------------------|--------------------|


E|---------------------------|------------------------------|---------------------|
B|---------------------------|------------------------------|-7---------5---------|
G|---------------------------|--------------------------4---|-----4---------4-----|
D|-8----7----5---8-------7---|-5--------------------5-------|---------------------|
A|---------------------------|-----7--------6---7-----------|---------------------|
E|---------------------------|---------7--------------------|---------------------|


E|------------------------------|----------------|------9-----------------------|---------------------------|
B|-5---7---8---7---5---7---8----|-10---------12--|-12-------12------------------|---------------------------|
G|------------------------------|----------------|--------------12--9-----------|---------------------------|
D|------------------------------|----------------|----------------------11--9---|-11---11--9---11---11--9---|
A|------------------------------|----------------|------------------------------|---------------------------|
E|------------------------------|----------------|------------------------------|---------------------------|


E|---------------------------------|------------------------------|---------------------------|
B|-------------12------------------|------------------------------|-----------------12--------|
G|-----9---12------12--9-----------|----------9---12--11--9-------|---------9---12------------|
D|-11----------------------11--9---|-11---11------------------11--|-----9---------------------|
A|---------------------------------|------------------------------|---------------------------|
E|---------------------------------|------------------------------|---------------------------|


E|-4----4----4----4----|-4----4----4----4----|-4----4----4----4----|-4----4----4----4----|
B|-5----5----5----5----|-5----5----5----5----|-5----5----5----5----|-5----5----5----5----|
G|-6----6----6----6----|-5----5----5----5----|-4----4----4----4----|-5----5----6----6----|
D|-6----6----6----6----|-6----6----6----6----|-6----6----6----6----|-6----6----6----6----|
A|-4----4----4----4----|-4----4----4----4----|-4----4----4----4----|-4----4----4----4----|
E|---------------------|---------------------|---------------------|---------------------|


E|-2------|-2------|-2----2----2----2----|-3-----2-------------|--------|-----------------|
B|-2------|-2------|-2----2----2----2----|-3-----2-------------|--------|-----------------|
G|-3------|-3------|-2----2----2----2----|-3-----2----6---6----|-6------|-6-----6-----6---|
D|-4------|-4------|-1----1----1----1----|-2-----1-------------|--------|-----------------|
A|-4------|-4------|-2----2----2----2----|-3-----2-------------|--------|-----------------|
E|-2------|-2------|---------------------|---------------------|--------|-----------------|


E|------------------------|-------------------------|-------------------------------|
B|------------------------|-------------------------|-------------------------------|
G|-6-----4----------------|-------------------------|-9----9---11--9----------------|
D|-----------5------------|-------5-----------------|------------------9------------|
A|---------------7--------|-7-----------7---9---10--|----------------------10-------|
E|-------------------7----|-------------------------|--------------------------12---|


E|------------------------|------------------------------|---------------------------|
B|------------------------|------------------------------|---------------------------|
G|------------------------|------------------------------|----------------------6----|
D|------------9---10--9---|------------------------------|------------------9--------|
A|-10---------------------|-12--10--9---10--12--10-------|------6---7---7------------|
E|------------------------|-------------------------12---|-7-------------------------|


E|---------------------|------------------------------|---------------------|------------------------------|
B|---------------------|-8------------7---------------|---------------------|-8------------7---------------|
G|-9--------------6----|---------6------------6----9--|-9--------------6----|---------6------------6----9--|
D|------------9--------|-----9------------9-----------|------------9--------|-----9------------9-----------|
A|---------------------|------------------------------|---------------------|------------------------------|
E|---------------------|------------------------------|---------------------|------------------------------|


E|---------------------|------------------------------|------------------------|--------------------|
B|---------------------|-8------------7---------------|------------------------|--------------------|
G|-9--------------6----|---------6------------6----9--|-9--------------6---9---|---------------6----|
D|------------9--------|-----9------------9-----------|------------9-----------|-----------9--------|
A|---------------------|------------------------------|------------------------|--------------------|
E|---------------------|------------------------------|------------------------|--------------------|


E|---------------------|------------------------------|---------------------|------------------------------|
B|---------------------|-8------------7---------------|---------------------|-8------------7---------------|
G|-9--------------6----|---------6------------6----9--|-9--------------6----|---------6------------6----9--|
D|------------9--------|-----9------------9-----------|------------9--------|-----9------------9-----------|
A|---------------------|------------------------------|---------------------|------------------------------|
E|---------------------|------------------------------|---------------------|------------------------------|


E|---------------------|------------------------------|------------------------|-4----4----4----4----|
B|---------------------|-8------------7---------------|------------------------|-5----5----5----5----|
G|-9--------------6----|---------6------------6----9--|-9--------------6---9---|-6----6----6----6----|
D|------------9--------|-----9------------9-----------|------------9-----------|-6----6----6----6----|
A|---------------------|------------------------------|------------------------|-4----4----4----4----|
E|---------------------|------------------------------|------------------------|---------------------|


E|-4----4----4----4----|-4----4----4----4----|-4----4----4----4----|-2------|-2------|
B|-5----5----5----5----|-5----5----5----5----|-5----5----5----5----|-2------|-2------|
G|-5----5----5----5----|-4----4----4----4----|-5----5----6----6----|-3------|-3------|
D|-6----6----6----6----|-6----6----6----6----|-6----6----6----6----|-4------|-4------|
A|-4----4----4----4----|-4----4----4----4----|-4----4----4----4----|-4------|-4------|
E|---------------------|---------------------|---------------------|-2------|-2------|


E|-2----2----2----2----|-3-----2-------------|---------------------|------------------------------|
B|-2----2----2----2----|-3-----2-------------|---------------------|-8------------7---------------|
G|-2----2----2----2----|-3-----2--------6----|-9--------------6----|---------6------------6----9--|
D|-1----1----1----1----|-2-----1----9--------|------------9--------|-----9------------9-----------|
A|-2----2----2----2----|-3-----2-------------|---------------------|------------------------------|
E|---------------------|---------------------|---------------------|------------------------------|


E|---------------------|------------------------------|---------------------|------------------------------|
B|---------------------|-8------------7---------------|---------------------|-8------------7---------------|
G|-9--------------6----|---------6------------6----9--|-9--------------6----|---------6------------6----9--|
D|------------9--------|-----9------------9-----------|------------9--------|-----9------------9-----------|
A|---------------------|------------------------------|---------------------|------------------------------|
E|---------------------|------------------------------|---------------------|------------------------------|


E|------------------------|--------|---------------------------|------------------------|
B|------------------------|--------|---------------------------|------------------------|
G|-9--------------6---9---|--------|-------------0---4----0----|-3----0----2----2---2---|
D|------------9-----------|--------|---------2-----------------|------------------------|
A|------------------------|--------|-----2---------------------|------------------------|
E|------------------------|--------|---------------------------|------------------------|


E|----------------|--------------------|
B|----------------|--------------------|
G|-2--------------|--------------------|
D|-----2------2---|-----2--------------|
A|----------------|-2------------------|
E|----------------|--------------------|





Track 2: Untitled

G|--------|--------|--------|--------|--------|--------|--------|--------|--------|
D|--------|--------|--------|--------|--------|--------|--------|--------|--------|
A|--------|--------|--------|--------|--------|--------|--------|--------|--------|
E|--------|--------|--------|--------|--------|--------|--------|--------|--------|


G|--------|--------|--------|--------|--------|--------|--------|--------|--------|
D|--------|--------|--------|--------|--------|--------|--------|--------|--------|
A|--------|--------|--------|--------|--------|--------|--------|--------|--------|
E|--------|--------|--------|--------|--------|--------|--------|--------|--------|


G|--------|--------|--------|--------|--------|--------|--------|--------|--------|
D|--------|--------|--------|--------|--------|--------|--------|--------|--------|
A|--------|--------|--------|--------|--------|--------|--------|--------|--------|
E|--------|--------|--------|--------|--------|--------|--------|--------|--------|


G|--------|--------|--------|--------|--------|--------|--------|--------|--------|
D|--------|--------|--------|--------|--------|--------|--------|--------|--------|
A|--------|--------|--------|--------|--------|--------|--------|--------|--------|
E|--------|--------|--------|--------|--------|--------|--------|--------|--------|


G|--------|--------|--------|--------|--------|--------|--------|--------|--------|
D|--------|--------|--------|--------|--------|--------|--------|--------|--------|
A|--------|--------|--------|--------|--------|--------|--------|--------|--------|
E|--------|--------|--------|--------|--------|--------|--------|--------|--------|


G|--------|--------|--------|--------|--------|--------|--------|--------|--------|
D|--------|--------|--------|--------|--------|--------|--------|--------|--------|
A|--------|--------|--------|--------|--------|--------|--------|--------|--------|
E|--------|--------|--------|--------|--------|--------|--------|--------|--------|


G|--------|--------|--------|--------|--------|--------|--------|--------|--------|
D|--------|--------|--------|--------|--------|--------|--------|--------|--------|
A|--------|--------|--------|--------|--------|--------|--------|--------|--------|
E|--------|--------|--------|--------|--------|--------|--------|--------|--------|


G|--------|--------|--------|--------|--------|--------|--------|--------|--------|
D|--------|--------|--------|--------|--------|--------|--------|--------|--------|
A|--------|--------|--------|--------|--------|--------|--------|--------|--------|
E|--------|--------|--------|--------|--------|--------|--------|--------|--------|


G|--------|--------|--------|--------|--------|--------|--------|--------|--------|
D|--------|--------|--------|--------|--------|--------|--------|--------|--------|
A|--------|--------|--------|--------|--------|--------|--------|--------|--------|
E|--------|--------|--------|--------|--------|--------|--------|--------|--------|


G|--------|--------|--------|--------|--------|--------|--------|--------|--------|
D|--------|--------|--------|--------|--------|--------|--------|--------|--------|
A|--------|--------|--------|--------|--------|--------|--------|--------|--------|
E|--------|--------|--------|--------|--------|--------|--------|--------|--------|


G|--------|--------|--------|--------|--------|--------|--------|--------|--------|
D|--------|--------|--------|--------|--------|--------|--------|--------|--------|
A|--------|--------|--------|--------|--------|--------|--------|--------|--------|
E|--------|--------|--------|--------|--------|--------|--------|--------|--------|


G|--------|--------|--------|--------|--------|--------|--------|--------|--------|
D|--------|--------|--------|--------|--------|--------|--------|--------|--------|
A|--------|--------|--------|--------|--------|--------|--------|--------|--------|
E|--------|--------|--------|--------|--------|--------|--------|--------|--------|


G|--------|--------|--------|--------|--------|--------|--------|--------|--------|
D|--------|--------|--------|--------|--------|--------|--------|--------|--------|
A|--------|--------|--------|--------|--------|--------|--------|--------|--------|
E|--------|--------|--------|--------|--------|--------|--------|--------|--------|


G|--------|--------|--------|--------|--------|--------|--------|--------|--------|
D|--------|--------|--------|--------|--------|--------|--------|--------|--------|
A|--------|--------|--------|--------|--------|--------|--------|--------|--------|
E|--------|--------|--------|--------|--------|--------|--------|--------|--------|


G|--------|--------|--------|--------|--------|
D|--------|--------|--------|--------|--------|
A|--------|--------|--------|--------|--------|
E|--------|--------|--------|--------|--------|