Site menu:

    

Browse: 0-9 A B C D E F G H I J K L N O P Q R S T U V W X Y Z

charlie christian - solo flight:



Title: Solo Flight (alternate take solos) 03/04/1941
Artist: 
Album: 
Author: Benny Goodman


Track 1: Untitled

E|-----4---5---4---5---------------|---------------------------------|---------------------------|
B|---------------------4---5-------|-5-------------------------------|---------------------------|
G|---------------------------------|-----4---5-------5---5-------7---|------------------5---5----|
D|---------------------------------|---------------------------------|-----5---5----7------------|
A|---------------------------------|---------------------------------|---------------------------|
E|---------------------------------|---------------------------------|---------------------------|


E|---------------------------|---------------------------------|---------------------------|
B|---------------------------|-----6---5-----------------------|-------------------3---4---|
G|----------6-------6---6----|-7-----------7---5---4-----------|---------------4-----------|
D|---------------------------|-------------------------7---6---|-5----4----3---------------|
A|---------------------------|---------------------------------|---------------------------|
E|---------------------------|---------------------------------|---------------------------|


E|------------------------------|-----6---9------------6---5---|---------------------------------|
B|-5----------------------------|-------------8----------------|-6-----------------------8-------|
G|-----5-----------5---5---5----|-----------------9------------|-----7---4-----------------------|
D|---------7---5----------------|------------------------------|-------------7---6---5-------5---|
A|------------------------------|------------------------------|---------------------------------|
E|------------------------------|------------------------------|---------------------------------|


E|---------------------------------|---------------------------|---------------8-------7---|
B|-7-------6---5-------------------|---------------------------|------5--------------------|
G|-----------------5---------------|---------------------------|---------------------------|
D|-----5---------------7---6---5---|-5---5---5----5--------5---|-5-------------------------|
A|---------------------------------|---------------------------|---------------------------|
E|---------------------------------|---------------------------|---------------------------|


E|-----5---7---8---5---7---8----|-7---5--------5---7---8---7---|-5-------------------------------|
B|------------------------------|------------------------------|-----6---------------------------|
G|------------------------------|------------------------------|---------7---4-------------------|
D|------------------------------|------------------------------|-----------------7---6---5---4---|
A|------------------------------|------------------------------|---------------------------------|
E|------------------------------|------------------------------|---------------------------------|


E|---------------------5---5----|--------------------------8---|-10---------------10--12------|
B|---------3---5---6------------|-5------------------------8---|-8----------------10--10------|
G|-----4------------------------|-----4---3----------------9---|-9----------------9---10------|
D|-3----------------------------|------------------7---7---7---|-8----------------8---9-------|
A|------------------------------|------------------------------|------------------------------|
E|------------------------------|------------------------------|------------------------------|


E|-8-----------|-8---11--------------------------|---------------------9---12--10--|
B|-8-----------|---------10--9---8---------------|-8---------------11--------------|
G|-9-----------|---------------------10--8---9---|---------9---12------------------|
D|-10----------|---------------------------------|-----11--------------------------|
A|-10----------|---------------------------------|---------------------------------|
E|-------------|---------------------------------|---------------------------------|


E|-----------------------------------|-12--12----------------11--|-11-10-8---------------8---8-------|
B|-10-----------------------------10-|-----------------------10--|-10--------10--9---8---------------|
G|-----10----------------------10----|---------------------------|-----------------------------------|
D|---------12--11--10--9---12--------|---------------------------|-----------------------------------|
A|-----------------------------------|---------------------------|-----------------------------------|
E|-----------------------------------|---------------------------|-----------------------------------|


E|-9----------------------------|------------------------------|------------------------------|
B|-----11-----------------------|--------------5---6---8---6---|-5----------------------------|
G|---------12-------------------|------6---7-------------------|-----7---5---4----------------|
D|-------------9-------9---9----|------------------------------|-----------------7---6---5----|
A|------------------------------|------------------------------|------------------------------|
E|------------------------------|------------------------------|------------------------------|


E|-------------8-------------------|------------------------|---------------------------|
B|---------8-------7---------------|------------------------|------6----6---6-------6---|
G|-----9---------------7-----------|-------------------7----|-5-------------------------|
D|-10----------------------9---8---|-7-----7---6---9--------|---------------------------|
A|---------------------------------|------------------------|---------------------------|
E|---------------------------------|------------------------|---------------------------|


E|---------------------------------|---------------------|---------------------------|
B|-----6-------6-------6-------6---|-6----5--------------|---------------------------|
G|---------------------------------|-----------7----5----|-4---------------------5---|
D|---------------------------------|---------------------|-----7-------5---5---------|
A|---------------------------------|---------------------|---------------------------|
E|---------------------------------|---------------------|---------------------------|


E|--------------------------8---|-10-------10----------12------|---------8-----------------------|
B|--------------------------8---|-8--------10----------10------|-----8-------11--10--8-----------|
G|-5---4---3----------------9---|-9--------10----------10--9---|-9-----------------------10--8---|
D|------------------7---7---6---|-9--------10----------9-------|---------------------------------|
A|------------------------------|------------------------------|---------------------------------|
E|------------------------------|------------------------------|---------------------------------|


E|-------------------------9---12--|-12---10----------------------|---------------------------|
B|-----8---------------11----------|----------10------------------|---------------------------|
G|-9-----------9---12--------------|--------------10--------------|---------------------------|
D|---------11----------------------|------------------12--11--10--|-9-------------------------|
A|---------------------------------|------------------------------|-----12--11--10--10--------|
E|---------------------------------|------------------------------|---------------------------|


E|---------8---8---8--------9---|-----9---9----9--------10--|-10-----------------10--|
B|-----8------------------------|---------------------------|-----------10---10------|
G|-9----------------------------|-----------------------7---|-7----------------------|
D|------------------------------|---------------------------|------------------------|
A|------------------------------|---------------------------|------------------------|
E|------------------------------|---------------------------|------------------------|


E|-----12--------------12--12--10--|-8-----------------------------|-------------------5---8---|
B|-------------10------------------|-----8-----------7-------------|-5-------------6-----------|
G|---------------------------------|---------9-----------5---------|-----------5---------------|
D|---------------------------------|-------------10----------------|---------------------------|
A|---------------------------------|-------------------------------|---------------------------|
E|---------------------------------|-------------------------------|---------------------------|


E|-7----7----6----6----|-5---------10--8----|-5-------------------------------|---------------------------------|
B|---------------------|--------------------|-----6---------------------------|---------3---4---5---------------|
G|---------------------|--------------------|---------7---4-------------------|-----4---------------5-----------|
D|---------------------|--------------------|-----------------7---6---5---4---|-3-----------------------7---5---|
A|---------------------|--------------------|---------------------------------|---------------------------------|
E|---------------------|--------------------|---------------------------------|---------------------------------|


E|------------------------------|---------------------------------|-5--------5------------5---7---8---|
B|----------------------5-------|-----------------------------5---|-6----6------6-----6-------6---10--|
G|-5---5-------5---5--------5---|-----5---4---5---6---7---7-------|-7-----------7-----7-------14--10--|
D|------------------------------|---------------------------------|-7-----------5-----6-------12--12--|
A|------------------------------|---------------------------------|---------------------------12--12--|
E|------------------------------|---------------------------------|-----------------------------------|


E|-----------8-------8---|-----8-------8-------8--------|-----8---10---13--------|
B|-------10------10------|-10------10------10------10---|-10---------------------|
G|-----------------------|------------------------------|--------------10--------|
D|-----------------------|------------------------------|------------------------|
A|-----------------------|------------------------------|------------------------|
E|-----------------------|------------------------------|------------------------|


E|-5--------5------------5---7---8---|-----4-------4-------4-------4---|-3---1---------------------------|
B|-6----6------6-----6-------6---10--|-----3-------3-------3-------3---|---------3---2---1---------------|
G|-7-----------7-----7-------14--10--|---------------------------------|---------------------3---1---2---|
D|-7-----------5-----6-------12--12--|---------------------------------|---------------------------------|
A|---------------------------12--12--|---------------------------------|---------------------------------|
E|-----------------------------------|---------------------------------|---------------------------------|


E|---------------------------------|------------------------------|------------------------------|
B|-1-------------------------------|--------------------------8---|-6----------------------------|
G|---------------------------------|----------------------8-------|-----6------------------------|
D|-----3---3---2---3-----------10--|-10---9---8---7---10----------|---------8---7---6---5---5----|
A|---------------------------------|------------------------------|------------------------------|
E|---------------------------------|------------------------------|------------------------------|


E|-4-------------------------------|-----------------5---------|-5--------5------------5---7---8---|
B|-----4---------------------------|-------------3-------------|-6----6------6-----6-------6---10--|
G|---------4-----------------------|---------3-----------------|-7-----------7-----7-------14--10--|
D|-------------6---5---4---3-------|-2---5---------------------|-7-----------5-----6-------12--12--|
A|-----------------------------5---|---------------------------|---------------------------12--12--|
E|---------------------------------|---------------------------|-----------------------------------|


E|---------------------------|------------------------|------------------------------|
B|--------------6----6-------|------6----9---10-------|-9---10-----------------------|
G|-----10--10------------10--|-10---------------------|---------10-------------------|
D|---------------------------|------------------------|-------------12--11--10--10---|
A|---------------------------|------------------------|------------------------------|
E|---------------------------|------------------------|------------------------------|


E|------------------------|------------------------------|------------------------------|
B|------------------------|------------------------------|------------------------------|
G|------------------------|------------------------------|------------------------------|
D|----------10--10--------|-----11------11--11-------11--|-12---10--9-------------------|
A|------------------------|------------------------------|--------------12--11--10--12--|
E|------------------------|------------------------------|------------------------------|


E|-----------------12--10--8----|-8----------------------------|-----------------9---12--12------|
B|-------------10---------------|-----8------------------------|-------------11------------------|
G|---------10-------------------|---------9--------------------|-----9---12----------------------|
D|-9---12-----------------------|-------------10--7---10--10---|-11------------------------------|
A|------------------------------|------------------------------|---------------------------------|
E|------------------------------|------------------------------|---------------------------------|


E|-----9---10----------------------|---------------------------------|---------------------------|
B|-------------9---10----------9---|-10------------------------------|------8-------7---7--------|
G|---------------------------------|-----9---10--12------10----------|-0--------0-----------0----|
D|---------------------------------|-------------------------12--10--|---------------------------|
A|---------------------------------|---------------------------------|---------------------------|
E|---------------------------------|---------------------------------|---------------------------|


E|------------------------------|---------------------------------|-----------------5---3--------|
B|-6---5-------------------5----|-5-----------3-------------------|-------------3----------------|
G|---------7---5---4---7--------|-----5-----------3---------------|---------3--------------------|
D|------------------------------|---------------------5---4---3---|-2---5------------------------|
A|------------------------------|---------------------------------|------------------------------|
E|------------------------------|---------------------------------|------------------------------|


E|-----------------------|-----------------------|------------------------|-----------------12--10------8---|
B|-----------------------|-----------------------|------------------------|-------------10------------------|
G|-----------------------|-----------------------|---------7----7---------|---------10----------------------|
D|-----10------10--10----|-----11------11--11----|-----11-------------10--|-9---12--------------------------|
A|-----------------------|-----------------------|------------------------|---------------------------------|
E|-----------------------|-----------------------|------------------------|---------------------------------|


E|-----8---8----------------9---|-----9---9----9----9---10--|----------12--10--------------|
B|--------------8---------------|---------------------------|------------------10----------|
G|------------------9-----------|---------------------------|----------------------10------|
D|------------------------------|---------------------------|--------------------------12--|
A|------------------------------|---------------------------|------------------------------|
E|------------------------------|---------------------------|------------------------------|


E|------------------------------|---------------------------|---------------------------------|
B|---------------------10-------|-8---10--10------10---9----|-10--9-------10------------------|
G|-----------------10-----------|-7-------14--14--14---13---|-14----------14------14------14--|
D|-11--10--9---12---------------|-9-------------------------|---------------------------------|
A|------------------------------|-8-------------------------|---------------------------------|
E|------------------------------|---------------------------|---------------------------------|


E|------------------------|------------------------|-----12--12------------8---|-8------|
B|-10------------10--10---|-10--10------------10---|-----------------8-----5---|-5------|
G|-14---------------------|-14------14-------------|-14--------------9-----5---|-5------|
D|------------------------|------------------------|-----------------9-----5---|-5------|
A|------------------------|------------------------|-----------------8---------|--------|
E|------------------------|------------------------|---------------------------|--------|


E|-8-----------|-8-----------|
B|-5-----------|-5-----------|
G|-5-----------|-5-----------|
D|-5-----------|-5-----------|
A|-------------|-------------|
E|-------------|-------------|





Track 2: Untitled

G|--------|--------|--------|--------|--------|--------|--------|--------|--------|
D|--------|--------|--------|--------|--------|--------|--------|--------|--------|
A|--------|--------|--------|--------|--------|--------|--------|--------|--------|
E|--------|--------|--------|--------|--------|--------|--------|--------|--------|


G|--------|--------|--------|--------|--------|--------|--------|--------|--------|
D|--------|--------|--------|--------|--------|--------|--------|--------|--------|
A|--------|--------|--------|--------|--------|--------|--------|--------|--------|
E|--------|--------|--------|--------|--------|--------|--------|--------|--------|


G|--------|--------|--------|--------|--------|--------|--------|--------|--------|
D|--------|--------|--------|--------|--------|--------|--------|--------|--------|
A|--------|--------|--------|--------|--------|--------|--------|--------|--------|
E|--------|--------|--------|--------|--------|--------|--------|--------|--------|


G|--------|--------|--------|--------|--------|--------|--------|--------|--------|
D|--------|--------|--------|--------|--------|--------|--------|--------|--------|
A|--------|--------|--------|--------|--------|--------|--------|--------|--------|
E|--------|--------|--------|--------|--------|--------|--------|--------|--------|


G|--------|--------|--------|--------|--------|--------|--------|--------|--------|
D|--------|--------|--------|--------|--------|--------|--------|--------|--------|
A|--------|--------|--------|--------|--------|--------|--------|--------|--------|
E|--------|--------|--------|--------|--------|--------|--------|--------|--------|


G|--------|--------|--------|--------|--------|--------|--------|--------|--------|
D|--------|--------|--------|--------|--------|--------|--------|--------|--------|
A|--------|--------|--------|--------|--------|--------|--------|--------|--------|
E|--------|--------|--------|--------|--------|--------|--------|--------|--------|


G|--------|--------|--------|--------|--------|--------|--------|--------|--------|
D|--------|--------|--------|--------|--------|--------|--------|--------|--------|
A|--------|--------|--------|--------|--------|--------|--------|--------|--------|
E|--------|--------|--------|--------|--------|--------|--------|--------|--------|


G|--------|--------|--------|--------|--------|--------|--------|--------|--------|
D|--------|--------|--------|--------|--------|--------|--------|--------|--------|
A|--------|--------|--------|--------|--------|--------|--------|--------|--------|
E|--------|--------|--------|--------|--------|--------|--------|--------|--------|


G|--------|--------|--------|--------|--------|--------|--------|--------|--------|
D|--------|--------|--------|--------|--------|--------|--------|--------|--------|
A|--------|--------|--------|--------|--------|--------|--------|--------|--------|
E|--------|--------|--------|--------|--------|--------|--------|--------|--------|


G|--------|--------|--------|--------|--------|--------|--------|--------|--------|
D|--------|--------|--------|--------|--------|--------|--------|--------|--------|
A|--------|--------|--------|--------|--------|--------|--------|--------|--------|
E|--------|--------|--------|--------|--------|--------|--------|--------|--------|


G|--------|--------|--------|--------|--------|
D|--------|--------|--------|--------|--------|
A|--------|--------|--------|--------|--------|
E|--------|--------|--------|--------|--------|