Site menu:

    

Browse: 0-9 A B C D E F G H I J K L N O P Q R S T U V W X Y Z

charlie christian - dinah:



Title: Dinah
Artist: 
Album: 
Author: Benny Goodman


Track 1: Charlie solo

E|---------------------------|---------------------------------|------------------------------|
B|-----9---8----9------------|-------------6---------------4---|------------------------------|
G|-8----------------8---6----|-8---8---5-----------4---5-------|-5----------------------------|
D|---------------------------|---------------------------------|-----6---3------------5---6---|
A|---------------------------|---------------------------------|-------------5---6------------|
E|---------------------------|---------------------------------|------------------------------|


E|---------------------------|---------------------------------|-----------------8----6---4---|
B|---------------------------|-------------8---6---------------|-8-----------6----------------|
G|---------------------------|---------6-----------8---7---6---|-----7---8--------------------|
D|-6------------8---7---6----|-5---8---------------------------|------------------------------|
A|---------------------------|---------------------------------|------------------------------|
E|---------------------------|---------------------------------|------------------------------|


E|------------------------------|---------------------------|---------------------------|
B|-5-------------------4--------|---------------------------|-----9--------9----9-------|
G|-----6---3-------5------------|----------8-------8--------|-8-------------------------|
D|-------------6----------------|---------------------------|---------------------------|
A|------------------------------|---------------------------|---------------------------|
E|------------------------------|---------------------------|---------------------------|


E|---------------------------|-----------------6---------|-6-----------7---6---4--------|
B|-----11-------11-----------|-----9---9------------9----|-----9-------------------6----|
G|-8---------------------8---|---------------------------|------------------------------|
D|---------------------------|---------------------------|------------------------------|
A|---------------------------|---------------------------|------------------------------|
E|---------------------------|---------------------------|------------------------------|


E|------------------------------|-4----------------------------|------------------------------|
B|-4----4---6---------------4---|-----7---6---4----------------|------------------------------|
G|------------------4---5-------|-----------------4---5--------|-------------5---5------------|
D|------------------------------|-------------------------6----|-6---6------------------------|
A|------------------------------|------------------------------|------------------------------|
E|------------------------------|------------------------------|------------------------------|


E|--------------------------8---|---------------------8-----------|-8---12--13---12---11--11--|
B|----------8---9---8---9-------|-----------------9-----------9---|---------------------------|
G|------10----------------------|-10--8---7---10----------10------|---------------------------|
D|------------------------------|---------------------------------|---------------------------|
A|------------------------------|---------------------------------|---------------------------|
E|------------------------------|---------------------------------|---------------------------|


E|-10---9----8---8-------10--|-8----------------------|--------------8---------------|
B|---------------------------|-----9------------------|---------9--------9-----------|
G|---------------------------|---------10---7----7----|-7---10---------------10------|
D|---------------------------|------------------------|------------------------------|
A|---------------------------|------------------------|------------------------------|
E|---------------------------|------------------------|------------------------------|


E|---------------------------------|---------------------------|-8---8--------------------8---|
B|-9---9---9---9-------8-----------|---------8------------6----|----------------------9-------|
G|-------------------------10--8---|-7---6--------6---8--------|------------------8-----------|
D|---------------------------------|---------------------------|------------------------------|
A|---------------------------------|---------------------------|------------------------------|
E|---------------------------------|---------------------------|------------------------------|


E|-11---8---11--10---7---10--|-9--------7---8------------|---------------------------|
B|---------------------------|------------------9--------|-9----9----------------7---|
G|---------------------------|----------------------10---|---------------------------|
D|---------------------------|---------------------------|---------------------------|
A|---------------------------|---------------------------|---------------------------|
E|---------------------------|---------------------------|---------------------------|


E|------------------------------|------------------------------|------------------------------|
B|-7---6---4---6-----------4----|-6---4-------4---4----4---6---|-------------4----------------|
G|-----------------4---5--------|------------------------------|-----4---5-------5------------|
D|------------------------------|------------------------------|---------------------6---3----|
A|------------------------------|------------------------------|------------------------------|
E|------------------------------|------------------------------|------------------------------|


E|------------------4------------|------------------------------|-------------|
B|--------------4-------6---6----|-4------------------------5---|-------------|
G|----------5--------------------|----------6---4---6---5-------|-5-----------|
D|-6----6------------------------|------------------------------|-------------|
A|-------------------------------|------------------------------|-------------|
E|-------------------------------|------------------------------|-------------|





Track 2: Charlie Rhythm

E|--------------------|------------------------------|--------------------|---------------------------|
B|-6------------------|----------6-------4-------6---|-6------------------|-6--------6--------5---4---|
G|-5------------------|----------7-------6-------5---|-5------------------|-5--------7--------7---6---|
D|-6------------------|----------6-------5-------6---|-6------------------|-6--------6--------6---5---|
A|--------------------|------------------------------|--------------------|---------------------------|
E|--------------------|------------------------------|--------------------|---------------------------|


E|---------------------------|---------------------------|---------------------------------|
B|-4---------------------7---|-----6-----------------6---|-5-----------5---5-----------6---|
G|-6---------------------7---|-----6-----------------5---|-4-----------4---4-----------5---|
D|-5---------------------6---|-----6-----------------6---|-5-----------5---5-----------6---|
A|---------------------------|---------------------------|---------------------------------|
E|---------------------------|---------------------------|---------------------------------|


E|---------------------------------|--------------------|---------------------------------|
B|-5-----------4---4-----------6---|-6------------------|-----6---6-------6---6-------6---|
G|-4-----------6---6-----------5---|-5------------------|-----5---5-------5---5-------5---|
D|-5-----------5---5-----------6---|-6------------------|-----6---6-------6---6-------6---|
A|---------------------------------|--------------------|---------------------------------|
E|---------------------------------|--------------------|---------------------------------|


E|-----------------|---------------------------|--------------------|--------------------|
B|-6---------------|-6--------6--------5---4---|-4------------------|------------4---6---|
G|-5---------------|-5--------7--------7---6---|-6------------------|------------6---5---|
D|-6---------------|-6--------6--------6---5---|-5------------------|------------5---6---|
A|-----------------|---------------------------|--------------------|--------------------|
E|-----------------|---------------------------|--------------------|--------------------|


E|--------------------|--------------------|--------------------|------------------------|
B|-6------------------|-------5----6---6---|-6------------------|-5------------------4---|
G|-5------------------|-------3----5---5---|-5------------------|-5------------------5---|
D|-6------------------|-------5----6---7---|-7------------------|-6------------------6---|
A|--------------------|-------5----6---7---|-7------------------|-7------------------6---|
E|--------------------|--------------------|--------------------|------------------------|


E|---------------------------|------------------------|------------------------------|
B|-4-----------------4---3---|-3------------------6---|--------------------------5---|
G|-5-----------------5---5---|-5------------------5---|-----5---5----------------5---|
D|-6-----------------6---6---|-6------------------6---|-----6---6----------------6---|
A|-6-----------------6-------|------------------------|-----6---6--------------------|
E|---------------------------|------------------------|------------------------------|


E|--------------------|--------------------|---------------------------|--------------------|
B|------------5---4---|-4------------------|----------4--------6---6---|-6------------------|
G|------------7---6---|-6------------------|----------6--------4---5---|-5------------------|
D|------------6---5---|-5------------------|----------5--------5---6---|-6------------------|
A|--------------------|--------------------|---------------------------|--------------------|
E|--------------------|--------------------|---------------------------|--------------------|


E|---------------------------|-----------------|---------------------------|---------------------------|
B|----------6--------4---6---|-6---------------|-6----6----6-----------4---|-4---------------------6---|
G|----------5--------6---5---|-5---------------|-5----5----7---8-------6---|-6---------------------6---|
D|----------6--------5---6---|-6---------------|-6----6----6-----------5---|-5---------------------6---|
A|---------------------------|-----------------|---------------------------|---------------------------|
E|---------------------------|-----------------|---------------------------|---------------------------|


E|------------------------------|--------------------|------------------------------|
B|-6-----------4---4------------|-6---6--------------|------4---4---4---4---4-------|
G|-6-----------6---6------------|-5---5--------------|------6---6---6---6-----------|
D|-6-----------5---5------------|-6---6--------------|------5---5---5-----------5---|
A|------------------------------|--------------------|------------------------------|
E|------------------------------|--------------------|------------------------------|


E|-6-----------|
B|-6-----------|
G|-5-----------|
D|-------------|
A|-------------|
E|-------------|





Track 3: Untitled

G|--------|--------|--------|--------|--------|--------|--------|--------|--------|
D|--------|--------|--------|--------|--------|--------|--------|--------|--------|
A|--------|--------|--------|--------|--------|--------|--------|--------|--------|
E|--------|--------|--------|--------|--------|--------|--------|--------|--------|


G|--------|--------|--------|--------|--------|--------|--------|--------|--------|
D|--------|--------|--------|--------|--------|--------|--------|--------|--------|
A|--------|--------|--------|--------|--------|--------|--------|--------|--------|
E|--------|--------|--------|--------|--------|--------|--------|--------|--------|


G|--------|--------|--------|--------|--------|--------|--------|--------|--------|
D|--------|--------|--------|--------|--------|--------|--------|--------|--------|
A|--------|--------|--------|--------|--------|--------|--------|--------|--------|
E|--------|--------|--------|--------|--------|--------|--------|--------|--------|


G|--------|--------|--------|--------|--------|--------|
D|--------|--------|--------|--------|--------|--------|
A|--------|--------|--------|--------|--------|--------|
E|--------|--------|--------|--------|--------|--------|