Site menu:

    

Browse: 0-9 A B C D E F G H I J K L N O P Q R S T U V W X Y Z

carcass - carnal forge:



/---------------------------------------------------------------------------
/ The following is the author's own interpretation of the song, to be used -
/ for studying or private use only, removal of any part of this ten line  -
/ header is illegal!!!  Removal of the transcribers name or anything -
/ relevant to the transcriber is also illegal, as so is the removal of the -
/ place inwhich the tab was downloaded. Publishing as well as printing of  -
/ the tab is illegal without permission of the transcriber and copyright -
/ owner of the song. Failure to apply to these laws result will in legal -
/ action from the appropriate parties. -
/---------------------------------------------------------------------------


Carcass: Carnal Forge

Originally Tabbed By: ?
Corrections By: death8699@prodigy.net

(Tune down 2.5 steps to B)
 
 riff 1                 1,2 
|--------------------------------------| 
|----8-----8------8h9p8----8-----------| 
|-----------------------10---10-9-7----| 
|0------0-----0---------------------10-|      
 
 3
|-------------|
|---8---------|
|10---10-9-7~-|
|-------------|

 riff 2    
|----------------------------|
|----------------------------|
|----------------1-----3-----|
|0-00000-00000-0---0h1---2p1-|

                                 
 riff 3                         
|-----------------------------|
|-------------2-3-4-5-9\8-8\7-|
|000000333333-0-1-2-3-7\6-6\5-|
|-----------------------------|
 

 riff 4
|---------------------------|
|---------------------------|
|---------------3-----5-----|
|3-33333-33333-3--4h5---4p3-|


 riff 5 (2 guitars)
|----------------4---3---2---|
|--------------5---5---4---3-|
|----------------------------|
|0-00000-00000---------------|
 
 riff 5a
|-----4---3---2---|
|---5---5---4---3-|
|-----------------|
|0----------------|

   riff 6 
G |---3--------|
D |2--3--2--6--|
A |2--1--2--6--|
E |0-----0--4--|
 

 riff 7 
|---------------|----------------|
|-----4---5p4-2-|-----8---9p8-6--|
|---2---2-------|---6---6--------|
|00-------------|44--------------|

 
 riff 8
|-----------|23459\88\7-|
|23459\88\7-|01237\66\5-|
|01237\66\5-|-----------|
|-----------|-----------|


 riff 9 
|-----------------------------------------------------------|
|-----2p1-2p1------5p4-5p4-------8---8---8h9p8----8---------|
|----------------------------------------------10---10-9-7~-|
|0000---------0000---------00000---0----0-------------------|


 played under this is riff 10
 E G B C# , then, on the second time = E D B G


 riff 11 (under this is E, G#, E, highEb)


 riff 12              riff 13
g|----------------| g|----------------|
d|----------------| d|2-3-4-5-9\8-8\7-|
a|2-3-4-5-9\8-8\7-| a|0-1-2-3-7\6-6\5-|
e|0-1-2-3-7\6-6\5-| e|----------------|


 riff 14
|-----444444------111111|
|333333-----222222------|

  
  riff 15 
a|------------------------111---111---------444444|
e|000000000000000000000000---000---000333333------|

 
  riff 16 
a|------------------------444444444444111111------|
e|000000000000000000000000------------------333333|

  
  riff 17 
a|------------------------------------111111444444|
e|000000000000000000000000333333333333------------|