Site menu:

    

Browse: 0-9 A B C D E F G H I J K L N O P Q R S T U V W X Y Z

cancerslug - final harvest:



Title: Final Harvest
Artist: 
Album: 
Author: Cancerslug


Track 1: Guitar

D#|------------------------------------|------------------------------------|------------------------------------|
A#|------------------------------------|------------------------------------|------------------------------------|
F#|------------------------------------|------------------------------------|------------------------------------|
C#|------------------------------------|------------------------------------|------------------------------------|
G#|-2----2---2---2---2---2----2--------|-2----2---2---2---2---2----2--------|-2----2---2---2---2---2----2--------|
D#|-0----0---0---0---0---0----0--------|-0----0---0---0---0---0----0--------|-0----0---0---0---0---0----0--------|


D#|------------------------------------|-------------------------------------------------|
A#|------------------------------------|-------------------------------------------------|
F#|------------------------------------|-------------------------------------------------|
C#|------------------------------------|-------------------------------------------------|
G#|-2----2---2---2---2---2----2--------|-------------------------------------------------|
D#|-0----0---0---0---0---0----0--------|-0---0---0---0---0---0---0---0---0---0---0---0---|


D#|-------------------------------------------------|-------------------------------------------------|
A#|-------------------------------------------------|-------------------------------------------------|
F#|-------------------------------------------------|-------------------------------------------------|
C#|-------------------------------------------------|-------------------------------------------------|
G#|-------------------------------------------------|-------------------------------------------------|
D#|-0---0---0---0---0---0---0---0---0---0---0---0---|-0---0---0---0---0---0---0---0---0---0---0---0---|


D#|-------------------------------------------------|--------|-------------|------------------------------------|
A#|-------------------------------------------------|--------|-------------|------------------------------------|
F#|-------------------------------------------------|-4------|-------------|------------------------------------|
C#|-------------------------------------------------|-4------|-4-----------|------------------------------------|
G#|-------------------------------------------------|-2------|-4-----------|-2----2---2---2---2---2----2--------|
D#|-0---0---0---0---0---0---0---0---0---0---0---0---|--------|-2-----3-----|-0----0---0---0---0---0----0--------|


D#|------------------------------------|--------|-------------|------------------------------------|
A#|------------------------------------|--------|-------------|------------------------------------|
F#|------------------------------------|--------|-------------|------------------------------------|
C#|------------------------------------|-5------|-4-----7-----|------------------------------------|
G#|-2----2---2---2---2---2----2--------|-5------|-4-----7-----|-2----2---2---2---2---2----2--------|
D#|-0----0---0---0---0---0----0--------|-3------|-2-----5-----|-0----0---0---0---0---0----0--------|


D#|------------------------------------|------------------------------------|------------------------------------|
A#|------------------------------------|------------------------------------|------------------------------------|
F#|------------------------------------|------------------------------------|------------------------------------|
C#|------------------------------------|------------------------------------|------------------------------------|
G#|-2----2---2---2---2---2----2--------|-2----2---2---2---2---2----2--------|-2----2---2---2---2---2----2--------|
D#|-0----0---0---0---0---0----0--------|-0----0---0---0---0---0----0--------|-0----0---0---0---0---0----0--------|


D#|-------------------------------------------------|-------------------------------------------------|
A#|-------------------------------------------------|-------------------------------------------------|
F#|-------------------------------------------------|-------------------------------------------------|
C#|-------------------------------------------------|-------------------------------------------------|
G#|-------------------------------------------------|-------------------------------------------------|
D#|-0---0---0---0---0---0---0---0---0---0---0---0---|-0---0---0---0---0---0---0---0---0---0---0---0---|


D#|-------------------------------------------------|-------------------------------------------------|
A#|-------------------------------------------------|-------------------------------------------------|
F#|-------------------------------------------------|-------------------------------------------------|
C#|-------------------------------------------------|-------------------------------------------------|
G#|-------------------------------------------------|-------------------------------------------------|
D#|-0---0---0---0---0---0---0---0---0---0---0---0---|-0---0---0---0---0---0---0---0---0---0---0---0---|


D#|--------|-------------|------------------------------------|------------------------------------|
A#|--------|-------------|------------------------------------|------------------------------------|
F#|-4------|-------------|------------------------------------|------------------------------------|
C#|-4------|-4-----------|------------------------------------|------------------------------------|
G#|-2------|-4-----------|-2----2---2---2---2---2----2--------|-2----2---2---2---2---2----2--------|
D#|--------|-2-----3-----|-0----0---0---0---0---0----0--------|-0----0---0---0---0---0----0--------|


D#|--------|-------------|------------------------------------|------------------------------------|
A#|--------|-------------|------------------------------------|------------------------------------|
F#|--------|-------------|------------------------------------|------------------------------------|
C#|-5------|-4-----7-----|------------------------------------|------------------------------------|
G#|-5------|-4-----7-----|-2----2---2---2---2---2----2--------|-2----2---2---2---2---2----2--------|
D#|-3------|-2-----5-----|-0----0---0---0---0---0----0--------|-0----0---0---0---0---0----0--------|


D#|------------------------------------|---------------------------------------|------------------------------------------|
A#|------------------------------------|---------------------------------------|------------------------------------------|
F#|------------------------------------|---------------------------------------|------------------------------------------|
C#|------------------------------------|---------------------------------------|------------------------------------------|
G#|-2----2---2---2---2---2----2--------|-2----2---2---2---2---2-------2--------|------------------------------------------|
D#|-0----0---0---0---0---0----0--------|-0----0---0---0---0---0-------0--------|------0--0--0--0--0--0--0--0--0--0--0--0--|


D#|-------------------------------------------------|-------------------------------------------------|
A#|-------------------------------------------------|-------------------------------------------------|
F#|-------------------------------------------------|-------------------------------------------------|
C#|-------------------------------------------------|-------------------------------------------------|
G#|-------------------------------------------------|-------------------------------------------------|
D#|-0--0--0--0--0--0--0--0--0--0--0--0--0--0--0--0--|-0--0--0--0--0--0--0--0--0--0--0--0--0--0--0--0--|


D#|-------------------------------------------------|-------------------------------------------|
A#|-------------------------------------------------|-------------------------------------------|
F#|-------------------------------------------------|-------------------------------------------|
C#|-------------------------------------------------|----2--2--2--2-----------------------------|
G#|-------------------------------------------------|----2--2--2--2---2--2---2--2--2--2---2--2--|
D#|-0--0--0--0--0--0--0--0--0--0--0--0--0--0--0--0--|----0--0--0--0---0--0---0--0--0--0---0--0--|


D#|-------------------------------------------|-------------------------------------------|
A#|-------------------------------------------|-------------------------------------------|
F#|-------------------------------------------|-------------------------------------------|
C#|-------------------------------------------|----2--2--2--2-----------------------------|
G#|----2--2--2--2---2--2---2--2--2--2---2--2--|----2--2--2--2---2--2---2--2--2--2---2--2--|
D#|----0--0--0--0---0--0---0--0--0--0---0--0--|----0--0--0--0---0--0---0--0--0--0---0--0--|


D#|-------------------------------------------|-------------------------------------------|
A#|-------------------------------------------|-------------------------------------------|
F#|-------------------------------------------|-------------------------------------------|
C#|-------------------------------------------|----2--2--2--2-----------------------------|
G#|----2--2--2--2---2--2---2--2--2--2---2--2--|----2--2--2--2---2--2---2--2--2--2---2--2--|
D#|----0--0--0--0---0--0---0--0--0--0---0--0--|----0--0--0--0---0--0---0--0--0--0---0--0--|


D#|---------------------------------------------|-----------------------------------------------|
A#|---------------------------------------------|-----------------------------------------------|
F#|---------------------------------------------|-------------9---9--9--9--9--9--9--9--9--9--9--|
C#|-------------2---2--2---2--2--2--2--2--2--2--|-2--2--2--2--9---9--9--9--9--9--9--9--9--9--9--|
G#|----2--2--2--2---2--2---2--2--2--2--2--2--2--|-2--2--2--2--7---7--7--7--7--7--7--7--7--7--7--|
D#|----0--0--0--0---0--0---0--0--0--0--0--0--0--|-0--0--0--0--0---0--0--0--0--0--0--0--0--0--0--|


D#|-------------------------------------------------|-----------------------------------------------|
A#|-------------------------------------------------|-----------------------------------------------|
F#|-9--9--9--9--9--9--9--9--9--9--9--9--9--9--9--9--|-9--9--9--9--5---5--5--5--5--5--5--5--5--5--5--|
C#|-9--9--9--9--9--9--9--9--9--9--9--9--9--9--9--9--|-9--9--9--9--5---5--5--5--5--5--5--5--5--5--5--|
G#|-7--7--7--7--7--7--7--7--7--7--7--7--7--7--7--7--|-7--7--7--7--3---3--3--3--3--3--3--3--3--3--3--|
D#|-0--0--0--0--0--0--0--0--0--0--0--0--0--0--0--0--|-0--0--0--0------------------------------------|


D#|---------------------------------------------|-------------------------------------------|
A#|---------------------------------------------|-------------------------------------------|
F#|-5--5--5--5--4---4--4--4--4--4--4------------|---------9---9--9--9--9--9--9--9--9--9--9--|
C#|-5--5--5--5--4---4--4--4--4--4--4--5---5--5--|-4---4---9---9--9--9--9--9--9--9--9--9--9--|
G#|-3--3--3--3--2---2--2--2--2--2--2--5---5--5--|-4---4---7---7--7--7--7--7--7--7--7--7--7--|
D#|-----------------------------------3---3--3--|-2---2---0---0--0--0--0--0--0--0--0--0--0--|


D#|-------------------------------------------------|-----------------------------------------------|
A#|-------------------------------------------------|-----------------------------------------------|
F#|-9--9--9--9--9--9--9--9--9--9--9--9--9--9--9--9--|-9--9--9--9--5---5--5--5--5--5--5--5--5--5--5--|
C#|-9--9--9--9--9--9--9--9--9--9--9--9--9--9--9--9--|-9--9--9--9--5---5--5--5--5--5--5--5--5--5--5--|
G#|-7--7--7--7--7--7--7--7--7--7--7--7--7--7--7--7--|-7--7--7--7--3---3--3--3--3--3--3--3--3--3--3--|
D#|-0--0--0--0--0--0--0--0--0--0--0--0--0--0--0--0--|-0--0--0--0------------------------------------|


D#|---------------------------------------------|---------------------------------------|
A#|---------------------------------------------|---------------------------------------|
F#|-5--5--5--5--4---4--4--4--4--4--4------------|---------------------------------------|
C#|-5--5--5--5--4---4--4--4--4--4--4--5---5--5--|-4---4---2-----------------------------|
G#|-3--3--3--3--2---2--2--2--2--2--2--5---5--5--|-4---4---2---2--2---2--2--2--2---2--2--|
D#|-----------------------------------3---3--3--|-2---2---0---0--0---0--0--0--0---0--0--|


D#|-------------------------------------------|-------------------------------------------|
A#|-------------------------------------------|-------------------------------------------|
F#|-------------------------------------------|-------------------------------------------|
C#|-------------------------------------------|----2--2--2--2-----------------------------|
G#|----2--2--2--2---2--2---2--2--2--2---2--2--|----2--2--2--2---2--2---2--2--2--2---2--2--|
D#|----0--0--0--0---0--0---0--0--0--0---0--0--|----0--0--0--0---0--0---0--0--0--0---0--0--|


D#|-------------------------------------------|-------------------------------------------|
A#|-------------------------------------------|-------------------------------------------|
F#|-------------------------------------------|-------------------------------------------|
C#|-------------------------------------------|----2--2--2--2-----------------------------|
G#|----2--2--2--2---2--2---2--2--2--2---2--2--|----2--2--2--2---2--2---2--2--2--2---2--2--|
D#|----0--0--0--0---0--0---0--0--0--0---0--0--|----0--0--0--0---0--0---0--0--0--0---0--0--|


D#|-------------------------------------------|-------------------------------------------|
A#|-------------------------------------------|-------------------------------------------|
F#|-------------------------------------------|-------------------------------------------|
C#|-------------------------------------------|----2--2--2--2-----------------------------|
G#|----2--2--2--2---2--2---2--2--2--2---2--2--|----2--2--2--2---2--2---2--2--2--2---2--2--|
D#|----0--0--0--0---0--0---0--0--0--0---0--0--|----0--0--0--0---0--0---0--0--0--0---0--0--|


D#|---------------------------------------------|-----------------------------------------------|
A#|---------------------------------------------|-----------------------------------------------|
F#|---------------------------------------------|-------------9---9--9--9--9--9--9--9--9--9--9--|
C#|-------------2---2--2---2--2--2--2--2--2--2--|-2--2--2--2--9---9--9--9--9--9--9--9--9--9--9--|
G#|----2--2--2--2---2--2---2--2--2--2--2--2--2--|-2--2--2--2--7---7--7--7--7--7--7--7--7--7--7--|
D#|----0--0--0--0---0--0---0--0--0--0--0--0--0--|-0--0--0--0--0---0--0--0--0--0--0--0--0--0--0--|


D#|-------------------------------------------------|-----------------------------------------------|
A#|-------------------------------------------------|-----------------------------------------------|
F#|-9--9--9--9--9--9--9--9--9--9--9--9--9--9--9--9--|-9--9--9--9--5---5--5--5--5--5--5--5--5--5--5--|
C#|-9--9--9--9--9--9--9--9--9--9--9--9--9--9--9--9--|-9--9--9--9--5---5--5--5--5--5--5--5--5--5--5--|
G#|-7--7--7--7--7--7--7--7--7--7--7--7--7--7--7--7--|-7--7--7--7--3---3--3--3--3--3--3--3--3--3--3--|
D#|-0--0--0--0--0--0--0--0--0--0--0--0--0--0--0--0--|-0--0--0--0------------------------------------|


D#|---------------------------------------------|-------------------------------------------|
A#|---------------------------------------------|-------------------------------------------|
F#|-5--5--5--5--4---4--4--4--4--4--4------------|---------9---9--9--9--9--9--9--9--9--9--9--|
C#|-5--5--5--5--4---4--4--4--4--4--4--5---5--5--|-4---4---9---9--9--9--9--9--9--9--9--9--9--|
G#|-3--3--3--3--2---2--2--2--2--2--2--5---5--5--|-4---4---7---7--7--7--7--7--7--7--7--7--7--|
D#|-----------------------------------3---3--3--|-2---2---0---0--0--0--0--0--0--0--0--0--0--|


D#|-------------------------------------------------|-----------------------------------------------|
A#|-------------------------------------------------|-----------------------------------------------|
F#|-9--9--9--9--9--9--9--9--9--9--9--9--9--9--9--9--|-9--9--9--9--5---5--5--5--5--5--5--5--5--5--5--|
C#|-9--9--9--9--9--9--9--9--9--9--9--9--9--9--9--9--|-9--9--9--9--5---5--5--5--5--5--5--5--5--5--5--|
G#|-7--7--7--7--7--7--7--7--7--7--7--7--7--7--7--7--|-7--7--7--7--3---3--3--3--3--3--3--3--3--3--3--|
D#|-0--0--0--0--0--0--0--0--0--0--0--0--0--0--0--0--|-0--0--0--0------------------------------------|


D#|---------------------------------------------|---------------------------------------|
A#|---------------------------------------------|---------------------------------------|
F#|-5--5--5--5--4---4--4--4--4--4--4------------|---------------------------------------|
C#|-5--5--5--5--4---4--4--4--4--4--4--5---5--5--|-4---4---2-----------------------------|
G#|-3--3--3--3--2---2--2--2--2--2--2--5---5--5--|-4---4---2---2--2---2--2--2--2---2--2--|
D#|-----------------------------------3---3--3--|-2---2---0---0--0---0--0--0--0---0--0--|


D#|-------------------------------------------|-------------------------------------------|
A#|-------------------------------------------|-------------------------------------------|
F#|-------------------------------------------|-------------------------------------------|
C#|-------------------------------------------|----2--2--2--2-----------------------------|
G#|----2--2--2--2---2--2---2--2--2--2---2--2--|----2--2--2--2---2--2---2--2--2--2---2--2--|
D#|----0--0--0--0---0--0---0--0--0--0---0--0--|----0--0--0--0---0--0---0--0--0--0---0--0--|


D#|-------------------------------------------|-------------------------------------------|
A#|-------------------------------------------|-------------------------------------------|
F#|-------------------------------------------|-------------------------------------------|
C#|-------------------------------------------|----2--2--2--2-----------------------------|
G#|----2--2--2--2---2--2---2--2--2--2---2--2--|----2--2--2--2---2--2---2--2--2--2---2--2--|
D#|----0--0--0--0---0--0---0--0--0--0---0--0--|----0--0--0--0---0--0---0--0--0--0---0--0--|


D#|-------------------------------------------|-------------------------------------------|
A#|-------------------------------------------|-------------------------------------------|
F#|-------------------------------------------|-------------------------------------------|
C#|-------------------------------------------|----2--2--2--2-----------------------------|
G#|----2--2--2--2---2--2---2--2--2--2---2--2--|----2--2--2--2---2--2---2--2--2--2---2--2--|
D#|----0--0--0--0---0--0---0--0--0--0---0--0--|----0--0--0--0---0--0---0--0--0--0---0--0--|


D#|---------------------------------------------|--------------------------------------|
A#|---------------------------------------------|--------------------------------------|
F#|---------------------------------------------|-------------4---4--5---5--4--2-------|
C#|-------------2---2--2---2--2--2--2--2--2--2--|-2--2--2--2--4---4--5---5--4--2--5----|
G#|----2--2--2--2---2--2---2--2--2--2--2--2--2--|-2--2--2--2--2---2--3---3--2--0--5----|
D#|----0--0--0--0---0--0---0--0--0--0--0--0--0--|-0--0--0--0----------------------3----|


D#|------------------------------------|------------------------------------|------------------------------------|
A#|------------------------------------|------------------------------------|------------------------------------|
F#|-----------4---4--5---5--4--2-------|-----------4---4--5---5--4--2-------|-----------4---4--5---5--4--2-------|
C#|-4---4--4--4---4--5---5--4--2--5----|-4---4--4--4---4--5---5--4--2--5----|-4---4--4--4---4--5---5--4--2--5----|
G#|-4---4--4--2---2--3---3--2--0--5----|-4---4--4--2---2--3---3--2--0--5----|-4---4--4--2---2--3---3--2--0--5----|
D#|-2---2--2----------------------3----|-2---2--2----------------------3----|-2---2--2----------------------3----|


D#|-------------------------------------------|-----------------------------------------------|
A#|-----------8---8--8--8--8--8--8------------|-----------------------------------------------|
F#|-----------7---7--7--7--7--7--7--7---7--7--|-7--7--7--7--9---9--9--9--9--9--9--9--9--9--9--|
C#|-4---4--4--5---5--5--5--5--5--5--7---7--7--|-7--7--7--7--9---9--9--9--9--9--9--9--9--9--9--|
G#|-4---4--4--5---5--5--5--5--5--5--5---5--5--|-5--5--5--5--7---7--7--7--7--7--7--7--7--7--7--|
D#|-2---2--2----------------------------------|-----------------------------------------------|


D#|---------------------------------------------|-----------------------------------------------|
A#|-------------8---8--8--8--8--8--8------------|-----------------------------------------------|
F#|-9--9--9--9--7---7--7--7--7--7--7--7---7--7--|-7--7--7--7--9---9--9--9--9--9--9--9--9--9--9--|
C#|-9--9--9--9--5---5--5--5--5--5--5--7---7--7--|-7--7--7--7--9---9--9--9--9--9--9--9--9--9--9--|
G#|-7--7--7--7--5---5--5--5--5--5--5--5---5--5--|-5--5--5--5--7---7--7--7--7--7--7--7--7--7--7--|
D#|---------------------------------------------|-----------------------------------------------|


D#|--------------------------------------|------------------------------------|------------------------------------|
A#|--------------------------------------|------------------------------------|------------------------------------|
F#|-9--9--9--9--4---4--5---5--4--2-------|-----------4---4--5---5--4--2-------|-----------4---4--5---5--4--2-------|
C#|-9--9--9--9--4---4--5---5--4--2--5----|-4---4--4--4---4--5---5--4--2--5----|-4---4--4--4---4--5---5--4--2--5----|
G#|-7--7--7--7--2---2--3---3--2--0--5----|-4---4--4--2---2--3---3--2--0--5----|-4---4--4--2---2--3---3--2--0--5----|
D#|---------------------------------3----|-2---2--2----------------------3----|-2---2--2----------------------3----|


D#|------------------------------------|-----------------------------------------|
A#|------------------------------------|-----------------------------------------|
F#|-----------4---4--5---5--4--2-------|-----------------------------------------|
C#|-4---4--4--4---4--5---5--4--2--5----|-4---4--4--2-----------------------------|
G#|-4---4--4--2---2--3---3--2--0--5----|-4---4--4--2---2--2---2--2--2--2--2---2--|
D#|-2---2--2----------------------3----|-2---2--2--0---0--0---0--0--0--0--0---0--|


D#|-------------------------------------------|--------------------|-----------------------------------|
A#|-------------------------------------------|--------------------|-----------------------------------|
F#|-------------------------------------------|--------------------|-----------------------------------|
C#|-------------------------------------------|-------------2------|-----------------------------------|
G#|----2--2--2--2--2---2---2--2--2--2--2---2--|----2--2--2--2------|------2----2---2---2---2---2----2--|
D#|----0--0--0--0--0---0---0--0--0--0--0---0--|----0--0--0--0------|------0----0---0---0---0---0----0--|


D#|--------------------------------------|--------------------------------------|-----------------------------------------|
A#|--------------------------------------|--------------------------------------|-----------------------------------------|
F#|--------------------------------------|--------------------------------------|-----------------------------------------|
C#|--------------------------------------|--------------------------------------|-----------------------------------------|
G#|---------2----2---2---2---2---2----2--|---------2----2---2---2---2---2----2--|---------2----2---2---2---2---2-------2--|
D#|---------0----0---0---0---0---0----0--|---------0----0---0---0---0---0----0--|---------0----0---0---0---0---0-------0--|


D#|----------------|
A#|----------------|
F#|----------------|
C#|----------------|
G#|----------------|
D#|----------------|





Track 2: Bass

F#|------------------------------------|------------------------------------|------------------------------------|
C#|------------------------------------|------------------------------------|------------------------------------|
G#|------------------------------------|------------------------------------|------------------------------------|
D#|-0----0---0---0---0---0----0--------|-0----0---0---0---0---0----0--------|-0----0---0---0---0---0----0--------|


F#|------------------------------------|-------------------------------------------------|
C#|------------------------------------|-------------------------------------------------|
G#|------------------------------------|-------------------------------------------------|
D#|-0----0---0---0---0---0----0--------|-0---0---0---0---0---0---0---0---0---0---0---0---|


F#|-------------------------------------------------|-------------------------------------------------|
C#|-------------------------------------------------|-------------------------------------------------|
G#|-------------------------------------------------|-------------------------------------------------|
D#|-0---0---0---0---0---0---0---0---0---0---0---0---|-0---0---0---0---0---0---0---0---0---0---0---0---|


F#|-------------------------------------------------|--------|-------------|------------------------------------|
C#|-------------------------------------------------|--------|-------------|------------------------------------|
G#|-------------------------------------------------|-2------|-------------|------------------------------------|
D#|-0---0---0---0---0---0---0---0---0---0---0---0---|--------|-2-----3-----|-0----0---0---0---0---0----0--------|


F#|------------------------------------|--------|-------------|------------------------------------|
C#|------------------------------------|--------|-------------|------------------------------------|
G#|------------------------------------|--------|-------------|------------------------------------|
D#|-0----0---0---0---0---0----0--------|-3------|-2-----5-----|-0----0---0---0---0---0----0--------|


F#|------------------------------------|------------------------------------|------------------------------------|
C#|------------------------------------|------------------------------------|------------------------------------|
G#|------------------------------------|------------------------------------|------------------------------------|
D#|-0----0---0---0---0---0----0--------|-0----0---0---0---0---0----0--------|-0----0---0---0---0---0----0--------|


F#|-------------------------------------------------|-------------------------------------------------|
C#|-------------------------------------------------|-------------------------------------------------|
G#|-------------------------------------------------|-------------------------------------------------|
D#|-0---0---0---0---0---0---0---0---0---0---0---0---|-0---0---0---0---0---0---0---0---0---0---0---0---|


F#|-------------------------------------------------|-------------------------------------------------|
C#|-------------------------------------------------|-------------------------------------------------|
G#|-------------------------------------------------|-------------------------------------------------|
D#|-0---0---0---0---0---0---0---0---0---0---0---0---|-0---0---0---0---0---0---0---0---0---0---0---0---|


F#|--------|-------------|------------------------------------|------------------------------------|
C#|--------|-------------|------------------------------------|------------------------------------|
G#|-2------|-------------|------------------------------------|------------------------------------|
D#|--------|-2-----3-----|-0----0---0---0---0---0----0--------|-0----0---0---0---0---0----0--------|


F#|--------|-------------|------------------------------------|------------------------------------|
C#|--------|-------------|------------------------------------|------------------------------------|
G#|--------|-------------|------------------------------------|------------------------------------|
D#|-3------|-2-----5-----|-0----0---0---0---0---0----0--------|-0----0---0---0---0---0----0--------|


F#|------------------------------------|---------------------------------------|------------------------------------------|
C#|------------------------------------|---------------------------------------|------------------------------------------|
G#|------------------------------------|---------------------------------------|------------------------------------------|
D#|-0----0---0---0---0---0----0--------|-0----0---0---0---0---0-------0--------|------0--0--0--0--0--0--0--0--0--0--0--0--|


F#|-------------------------------------------------|-------------------------------------------------|
C#|-------------------------------------------------|-------------------------------------------------|
G#|-------------------------------------------------|-------------------------------------------------|
D#|-0--0--0--0--0--0--0--0--0--0--0--0--0--0--0--0--|-0--0--0--0--0--0--0--0--0--0--0--0--0--0--0--0--|


F#|-------------------------------------------------|-------------------------------------------|
C#|-------------------------------------------------|-------------------------------------------|
G#|-------------------------------------------------|-------------------------------------------|
D#|-0--0--0--0--0--0--0--0--0--0--0--0--0--0--0--0--|----0--0--0--0---0--0---0--0--0--0---0--0--|


F#|-------------------------------------------|-------------------------------------------|
C#|-------------------------------------------|-------------------------------------------|
G#|-------------------------------------------|-------------------------------------------|
D#|----0--0--0--0---0--0---0--0--0--0---0--0--|----0--0--0--0---0--0---0--0--0--0---0--0--|


F#|-------------------------------------------|-------------------------------------------|
C#|-------------------------------------------|-------------------------------------------|
G#|-------------------------------------------|-------------------------------------------|
D#|----0--0--0--0---0--0---0--0--0--0---0--0--|----0--0--0--0---0--0---0--0--0--0---0--0--|


F#|---------------------------------------------|-----------------------------------------------|
C#|---------------------------------------------|-----------------------------------------------|
G#|---------------------------------------------|-------------7---7--7--7--7--7--7--7--7--7--7--|
D#|----0--0--0--0---0--0---0--0--0--0--0--0--0--|-0--0--0--0------------------------------------|


F#|-------------------------------------------------|-----------------------------------------------|
C#|-------------------------------------------------|-----------------------------------------------|
G#|-7--7--7--7--7--7--7--7--7--7--7--7--7--7--7--7--|-7--7--7--7--3---3--3--3--3--3--3--3--3--3--3--|
D#|-------------------------------------------------|-----------------------------------------------|


F#|---------------------------------------------|-------------------------------------------|
C#|---------------------------------------------|-------------------------------------------|
G#|-3--3--3--3--2---2--2--2--2--2--2------------|---------7---7--7--7--7--7--7--7--7--7--7--|
D#|-----------------------------------3---3--3--|-2---2-------------------------------------|


F#|-------------------------------------------------|-----------------------------------------------|
C#|-------------------------------------------------|-----------------------------------------------|
G#|-7--7--7--7--7--7--7--7--7--7--7--7--7--7--7--7--|-7--7--7--7--3---3--3--3--3--3--3--3--3--3--3--|
D#|-------------------------------------------------|-----------------------------------------------|


F#|---------------------------------------------|---------------------------------------|
C#|---------------------------------------------|---------------------------------------|
G#|-3--3--3--3--2---2--2--2--2--2--2------------|---------------------------------------|
D#|-----------------------------------3---3--3--|-2---2---0---0--0---0--0--0--0---0--0--|


F#|-------------------------------------------|-------------------------------------------|
C#|-------------------------------------------|-------------------------------------------|
G#|-------------------------------------------|-------------------------------------------|
D#|----0--0--0--0---0--0---0--0--0--0---0--0--|----0--0--0--0---0--0---0--0--0--0---0--0--|


F#|-------------------------------------------|-------------------------------------------|
C#|-------------------------------------------|-------------------------------------------|
G#|-------------------------------------------|-------------------------------------------|
D#|----0--0--0--0---0--0---0--0--0--0---0--0--|----0--0--0--0---0--0---0--0--0--0---0--0--|


F#|-------------------------------------------|-------------------------------------------|
C#|-------------------------------------------|-------------------------------------------|
G#|-------------------------------------------|-------------------------------------------|
D#|----0--0--0--0---0--0---0--0--0--0---0--0--|----0--0--0--0---0--0---0--0--0--0---0--0--|


F#|---------------------------------------------|-----------------------------------------------|
C#|---------------------------------------------|-----------------------------------------------|
G#|---------------------------------------------|-------------7---7--7--7--7--7--7--7--7--7--7--|
D#|----0--0--0--0---0--0---0--0--0--0--0--0--0--|-0--0--0--0------------------------------------|


F#|-------------------------------------------------|-----------------------------------------------|
C#|-------------------------------------------------|-----------------------------------------------|
G#|-7--7--7--7--7--7--7--7--7--7--7--7--7--7--7--7--|-7--7--7--7--3---3--3--3--3--3--3--3--3--3--3--|
D#|-------------------------------------------------|-----------------------------------------------|


F#|---------------------------------------------|-------------------------------------------|
C#|---------------------------------------------|-------------------------------------------|
G#|-3--3--3--3--2---2--2--2--2--2--2------------|---------7---7--7--7--7--7--7--7--7--7--7--|
D#|-----------------------------------3---3--3--|-2---2-------------------------------------|


F#|-------------------------------------------------|-----------------------------------------------|
C#|-------------------------------------------------|-----------------------------------------------|
G#|-7--7--7--7--7--7--7--7--7--7--7--7--7--7--7--7--|-7--7--7--7--3---3--3--3--3--3--3--3--3--3--3--|
D#|-------------------------------------------------|-----------------------------------------------|


F#|---------------------------------------------|---------------------------------------|
C#|---------------------------------------------|---------------------------------------|
G#|-3--3--3--3--2---2--2--2--2--2--2------------|---------------------------------------|
D#|-----------------------------------3---3--3--|-2---2---0---0--0---0--0--0--0---0--0--|


F#|-------------------------------------------|-------------------------------------------|
C#|-------------------------------------------|-------------------------------------------|
G#|-------------------------------------------|-------------------------------------------|
D#|----0--0--0--0---0--0---0--0--0--0---0--0--|----0--0--0--0---0--0---0--0--0--0---0--0--|


F#|-------------------------------------------|-------------------------------------------|
C#|-------------------------------------------|-------------------------------------------|
G#|-------------------------------------------|-------------------------------------------|
D#|----0--0--0--0---0--0---0--0--0--0---0--0--|----0--0--0--0---0--0---0--0--0--0---0--0--|


F#|-------------------------------------------|-------------------------------------------|
C#|-------------------------------------------|-------------------------------------------|
G#|-------------------------------------------|-------------------------------------------|
D#|----0--0--0--0---0--0---0--0--0--0---0--0--|----0--0--0--0---0--0---0--0--0--0---0--0--|


F#|---------------------------------------------|--------------------------------------|
C#|---------------------------------------------|--------------------------------------|
G#|---------------------------------------------|-------------2---2--3---3--2--0-------|
D#|----0--0--0--0---0--0---0--0--0--0--0--0--0--|-0--0--0--0----------------------3----|


F#|------------------------------------|------------------------------------|------------------------------------|
C#|------------------------------------|------------------------------------|------------------------------------|
G#|-----------2---2--3---3--2--0-------|-----------2---2--3---3--2--0-------|-----------2---2--3---3--2--0-------|
D#|-2---2--2----------------------3----|-2---2--2----------------------3----|-2---2--2----------------------3----|


F#|-------------------------------------------|-----------------------------------------------|
C#|-----------5---5--5--5--5--5--5------------|-----------------------------------------------|
G#|---------------------------------5---5--5--|-5--5--5--5--7---7--7--7--7--7--7--7--7--7--7--|
D#|-2---2--2----------------------------------|-----------------------------------------------|


F#|---------------------------------------------|-----------------------------------------------|
C#|-------------5---5--5--5--5--5--5------------|-----------------------------------------------|
G#|-7--7--7--7------------------------5---5--5--|-5--5--5--5--7---7--7--7--7--7--7--7--7--7--7--|
D#|---------------------------------------------|-----------------------------------------------|


F#|--------------------------------------|------------------------------------|------------------------------------|
C#|--------------------------------------|------------------------------------|------------------------------------|
G#|-7--7--7--7--2---2--3---3--2--0-------|-----------2---2--3---3--2--0-------|-----------2---2--3---3--2--0-------|
D#|---------------------------------3----|-2---2--2----------------------3----|-2---2--2----------------------3----|


F#|------------------------------------|-----------------------------------------|
C#|------------------------------------|-----------------------------------------|
G#|-----------2---2--3---3--2--0-------|-----------------------------------------|
D#|-2---2--2----------------------3----|-2---2--2--0---0--0---0--0--0--0--0---0--|


F#|-------------------------------------------|--------------------|-----------------------------------|
C#|-------------------------------------------|--------------------|-----------------------------------|
G#|-------------------------------------------|--------------------|-----------------------------------|
D#|----0--0--0--0--0---0---0--0--0--0--0---0--|----0--0--0--0------|------0----0---0---0---0---0----0--|


F#|--------------------------------------|--------------------------------------|-----------------------------------------|
C#|--------------------------------------|--------------------------------------|-----------------------------------------|
G#|--------------------------------------|--------------------------------------|-----------------------------------------|
D#|---------0----0---0---0---0---0----0--|---------0----0---0---0---0---0----0--|---------0----0---0---0---0---0-------0--|


F#|----------------|
C#|----------------|
G#|----------------|
D#|----------------|





Track 3: Voice

D#|--------|--------|--------|--------|--------|--------|--------|--------|--------|
A#|--------|--------|--------|--------|--------|--------|--------|--------|--------|
F#|--------|--------|--------|--------|--------|--------|--------|--------|--------|
C#|--------|--------|--------|--------|--------|--------|--------|--------|--------|
G#|--------|--------|--------|--------|--------|--------|--------|--------|--------|
D#|--------|--------|--------|--------|--------|--------|--------|--------|--------|


D#|--------|--------|--------|--------|--------|--------|--------|--------|--------|
A#|--------|--------|--------|--------|--------|--------|--------|--------|--------|
F#|--------|--------|--------|--------|--------|--------|--------|--------|--------|
C#|--------|--------|--------|--------|--------|--------|--------|--------|--------|
G#|--------|--------|--------|--------|--------|--------|--------|--------|--------|
D#|--------|--------|--------|--------|--------|--------|--------|--------|--------|


D#|--------|--------|--------|--------|--------|--------|--------|--------|--------|
A#|--------|--------|--------|--------|--------|--------|--------|--------|--------|
F#|--------|--------|--------|--------|--------|--------|--------|--------|--------|
C#|--------|--------|--------|--------|--------|--------|--------|--------|--------|
G#|--------|--------|--------|--------|--------|--------|--------|--------|--------|
D#|--------|--------|--------|--------|--------|--------|--------|--------|--------|


D#|--------|--------|--------|--------|--------|--------|--------|--------|--------|
A#|--------|--------|--------|--------|--------|--------|--------|--------|--------|
F#|--------|--------|--------|--------|--------|--------|--------|--------|--------|
C#|--------|--------|--------|--------|--------|--------|--------|--------|--------|
G#|--------|--------|--------|--------|--------|--------|--------|--------|--------|
D#|--------|--------|--------|--------|--------|--------|--------|--------|--------|


D#|--------|--------|--------|--------|--------|--------|-----------------|-----------------|
A#|--------|--------|--------|--------|--------|--------|-----------------|-----------------|
F#|--------|--------|--------|--------|--------|--------|------9----------|-12---11---------|
C#|--------|--------|--------|--------|--------|--------|------------9----|------------9----|
G#|--------|--------|--------|--------|--------|--------|-----------------|-----------------|
D#|--------|--------|--------|--------|--------|--------|-----------------|-----------------|


D#|--------------------|--------------------|-----------------|-----------------|--------------------|
A#|--------------------|--------------------|-----------------|-----------------|--------------------|
F#|-12---11--11--11----|-11-----------------|------9----------|-12---11---------|-12---11--11--11----|
C#|--------------------|-----10--9----------|------------9----|------------9----|--------------------|
G#|--------------------|---------------10---|-9---------------|-----------------|--------------------|
D#|--------------------|--------------------|-----------------|-----------------|--------------------|


D#|--------------------|-------------|--------|--------|--------|--------|--------|
A#|--------------------|-------------|--------|--------|--------|--------|--------|
F#|-11-----------------|-------------|--------|--------|--------|--------|--------|
C#|-----10--9----------|-------------|--------|--------|--------|--------|--------|
G#|---------------10---|-9-----------|--------|--------|--------|--------|--------|
D#|--------------------|-------------|--------|--------|--------|--------|--------|


D#|--------|--------|-----------------|-----------------|--------------------|--------------------|
A#|--------|--------|-----------------|-----------------|--------------------|--------------------|
F#|--------|--------|------9----------|-12---11---------|-12---11--11--11----|-11-----------------|
C#|--------|--------|------------9----|------------9----|--------------------|-----10--9----------|
G#|--------|--------|-----------------|-----------------|--------------------|---------------10---|
D#|--------|--------|-----------------|-----------------|--------------------|--------------------|


D#|-----------------|-----------------|--------------------|--------------------|-------------|
A#|-----------------|-----------------|--------------------|--------------------|-------------|
F#|------9----------|-12---11---------|-12---11--11--11----|-11-----------------|-------------|
C#|------------9----|------------9----|--------------------|-----10--9----------|-------------|
G#|-9---------------|-----------------|--------------------|---------------10---|-9-----------|
D#|-----------------|-----------------|--------------------|--------------------|-------------|


D#|--------|--------|--------|--------|--------|--------|--------|--------|--------|
A#|--------|--------|--------|--------|--------|--------|--------|--------|--------|
F#|--------|--------|--------|--------|--------|--------|--------|--------|--------|
C#|--------|--------|--------|--------|--------|--------|--------|--------|--------|
G#|--------|--------|--------|--------|--------|--------|--------|--------|--------|
D#|--------|--------|--------|--------|--------|--------|--------|--------|--------|


D#|--------|--------|--------|--------|--------|--------|--------|--------|--------|
A#|--------|--------|--------|--------|--------|--------|--------|--------|--------|
F#|--------|--------|--------|--------|--------|--------|--------|--------|--------|
C#|--------|--------|--------|--------|--------|--------|--------|--------|--------|
G#|--------|--------|--------|--------|--------|--------|--------|--------|--------|
D#|--------|--------|--------|--------|--------|--------|--------|--------|--------|


D#|--------|--------|--------|--------|--------|--------|--------|--------|--------|
A#|--------|--------|--------|--------|--------|--------|--------|--------|--------|
F#|--------|--------|--------|--------|--------|--------|--------|--------|--------|
C#|--------|--------|--------|--------|--------|--------|--------|--------|--------|
G#|--------|--------|--------|--------|--------|--------|--------|--------|--------|
D#|--------|--------|--------|--------|--------|--------|--------|--------|--------|