Site menu:

    

Browse: 0-9 A B C D E F G H I J K L N O P Q R S T U V W X Y Z

camilo cortés - perderte jamas:



Title: Perderte Jamas
Artist: 
Album: 
Author: Camilo Corts


Track 1: Piano

E|-------------|-6-----------6-----------6-------|-5-----------5-----------5-------|
B|-------3-----|-----3-----------3-----------3---|-----3-----------3-----------3---|
G|-3-----------|---------3-----------3-----------|---------3-----------3-----------|
D|-------------|---------------------------------|---------------------------------|
A|-------------|---------------------------------|---------------------------------|
E|-------------|---------------------------------|---------------------------------|


E|-3-----------3-----------3-------|-3-----------3-----------3-------|-3-----------3-----------3-------|
B|-----3-----------3-----------3---|-----3-----------3-----------3---|-----4-----------4-----------4---|
G|---------3-----------3-----------|---------3-----------3-----------|---------3-----------3-----------|
D|---------------------------------|---------------------------------|---------------------------------|
A|---------------------------------|---------------------------------|---------------------------------|
E|---------------------------------|---------------------------------|---------------------------------|


E|-3-----------3-----------3-------|-3-----------3-----------3-------|-3-----------3-----------3-------|
B|-----4-----------4-----------4---|-----3-----------3-----------3---|-----3-----------3-----------3---|
G|---------3-----------3-----------|---------3-----------3-----------|---------3-----------3-----------|
D|---------------------------------|---------------------------------|---------------------------------|
A|---------------------------------|---------------------------------|---------------------------------|
E|---------------------------------|---------------------------------|---------------------------------|


E|-------------|---------------------------------|---------------------------------|
B|-------------|-3-----------3-----------3-------|-3-----------3-----------3-------|
G|-------3-----|-----3-----------3-----------3---|-----3-----------3-----------3---|
D|-5-----------|---------5-----------5-----------|---------4-----------4-----------|
A|-------------|---------------------------------|---------------------------------|
E|-------------|---------------------------------|---------------------------------|


E|---------------------------------|-------------|-------------|-------------|-6-----------6-----------6-------|
B|-3-----------3-----------3-------|-------------|-3-----------|-3-----5-----|-----3-----------3-----------3---|
G|-----3-----------3-----------3---|-------3-----|-2-----------|-3-----5-----|---------3-----------3-----------|
D|---------3-----------3-----------|-3-----------|-3-----------|-3-----5-----|---------------------------------|
A|---------------------------------|-------------|-------------|-------------|---------------------------------|
E|---------------------------------|-------------|-------------|-------------|---------------------------------|


E|-5-----------5-----------5-------|-3-----------3-----------3-------|-3-----------3-----------3-------|
B|-----3-----------3-----------3---|-----3-----------3-----------3---|-----3-----------3-----------3---|
G|---------3-----------3-----------|---------3-----------3-----------|---------3-----------3-----------|
D|---------------------------------|---------------------------------|---------------------------------|
A|---------------------------------|---------------------------------|---------------------------------|
E|---------------------------------|---------------------------------|---------------------------------|


E|-3-----------3-----------3-------|-3-----------3-----------3-------|-3-----------3-----------3-------|
B|-----4-----------4-----------4---|-----4-----------4-----------4---|-----3-----------3-----------3---|
G|---------3-----------3-----------|---------3-----------3-----------|---------3-----------3-----------|
D|---------------------------------|---------------------------------|---------------------------------|
A|---------------------------------|---------------------------------|---------------------------------|
E|---------------------------------|---------------------------------|---------------------------------|


E|-3-----------3-----------3-------|-------------|---------------------------------|
B|-----3-----------3-----------3---|-------------|-3-----------3-----------3-------|
G|---------3-----------3-----------|-------3-----|-----3-----------3-----------3---|
D|---------------------------------|-5-----------|---------5-----------5-----------|
A|---------------------------------|-------------|---------------------------------|
E|---------------------------------|-------------|---------------------------------|


E|---------------------------------|---------------------------------|-------------|
B|-3-----------3-----------3-------|-3-----------3-----------3-------|-------------|
G|-----3-----------3-----------3---|-----3-----------3-----------3---|-------------|
D|---------4-----------4-----------|---------3-----------3-----------|-3-----2-----|
A|---------------------------------|---------------------------------|-------------|
E|---------------------------------|---------------------------------|-------------|


E|-------------|-------------|---------------------------------|---------------------------------|
B|-1-----------|-------------|---------------------------------|---------------------------------|
G|-2-----------|-------------|-0-----------0-----------0-------|---------------------------------|
D|-2-----------|-3-----2-----|-----2-----------2-----------2---|-0-----------0-----------0-------|
A|-------------|-3-----2-----|---------2-----------2-----------|-----2-----------2-----------2---|
E|-------------|-1-----0-----|---------------------------------|---------3-----------3-----------|


E|---------------------------------|--------|--------------------------0---|------------------------------|
B|---------------------------------|--------|--------------1---0-----------|-1------------1---0-------1---|
G|---------------------------------|-0------|-0----0---2-----------0-------|-2----0---2-----------2-------|
D|-0-----------0-----------0-------|-2------|-2----------------------------|-2----------------------------|
A|-----3-----------3-----------3---|-2------|-2----------------------------|------------------------------|
E|---------1-----------1-----------|-0------|------------------------------|------------------------------|


E|--------------------------0---|------------------------------|--------------------------0---|
B|--------------1---0-----------|-1------------1---0-------1---|--------------1---0-----------|
G|-0----0---2-----------0-------|-2----0---2-----------2-------|-0----0---2-----------0-------|
D|-2----------------------------|-2----------------------------|-2----------------------------|
A|-2----------------------------|------------------------------|-2----------------------------|
E|------------------------------|------------------------------|------------------------------|


E|-1------------------------1---|------------------------------|------------------------------|
B|-3------------1---0---3-------|-1------------1---0-------1---|-1------------1---0-----------|
G|-2----0---2-------------------|-2----0---2-----------2-------|-0----0---2-----------0-------|
D|------------------------------|-2----------------------------|-2------------------------2---|
A|------------------------------|------------------------------|-3----------------------------|
E|------------------------------|------------------------------|------------------------------|


E|------------------------------|--------------------------0---|------------------------------|
B|--------------1---0-----------|--------------1---0-----------|-1------------1---0-------1---|
G|-0----0---2-----------0-------|-0----0---2-----------0-------|-2----0---2-----------2-------|
D|-0------------------------0---|-2----------------------------|-2----------------------------|
A|-2----------------------------|-2----------------------------|------------------------------|
E|-3----------------------------|------------------------------|------------------------------|


E|--------------------------0---|------------------------------|--------------------------0---|
B|--------------1---0-----------|-1------------1---0-------1---|--------------1---0-----------|
G|-0----0---2-----------0-------|-2----0---2-----------2-------|-0----0---2-----------0-------|
D|-2----------------------------|-2----------------------------|-2----------------------------|
A|-2----------------------------|------------------------------|-2----------------------------|
E|------------------------------|------------------------------|------------------------------|


E|-1------------------------1---|------------------------------|------------------------------|
B|-3------------1---0---3-------|-1------------1---0-------1---|-1------------1---0-----------|
G|-2----0---2-------------------|-2----0---2-----------2-------|-0----0---2-----------0-------|
D|------------------------------|-2----------------------------|-2------------------------2---|
A|------------------------------|------------------------------|-3----------------------------|
E|------------------------------|------------------------------|------------------------------|


E|------------------------------|-------------|-2-----------|-3-----------|-------------|
B|--------------1---0-----------|-2-----------|-------3-----|-------3-----|-2-----------|
G|-0----0---2-----------0-------|-------4-----|-------------|-------------|-------2-----|
D|-0------------------------0---|-------------|-------------|-------------|-------------|
A|-2----------------------------|-------------|-------------|-------------|-------------|
E|-3----------------------------|-------------|-------------|-------------|-------------|


E|-------------|-2-----------|-3-----------|-------------|--------------------------0---|
B|-2-----------|-------3-----|-------3-----|-2-----------|--------------1---0-----------|
G|-------4-----|-------------|-------------|-------2-----|-0----0---2-----------0-------|
D|-------------|-------------|-------------|-------------|-2----------------------------|
A|-------------|-------------|-------------|-------------|-2----------------------------|
E|-------------|-------------|-------------|-------------|------------------------------|


E|------------------------------|--------------------------0---|------------------------------|
B|-1------------1---0-------1---|--------------1---0-----------|-1------------1---0-------1---|
G|-2----0---2-----------2-------|-0----0---2-----------0-------|-2----0---2-----------2-------|
D|-2----------------------------|-2----------------------------|-2----------------------------|
A|------------------------------|-2----------------------------|------------------------------|
E|------------------------------|------------------------------|------------------------------|


E|--------------------------0---|-1------------------------1---|------------------------------|
B|--------------1---0-----------|-3------------1---0---3-------|-1------------1---0-------1---|
G|-0----0---2-----------0-------|-2----0---2-------------------|-2----0---2-----------2-------|
D|-2----------------------------|------------------------------|-2----------------------------|
A|-2----------------------------|------------------------------|------------------------------|
E|------------------------------|------------------------------|------------------------------|


E|------------------------------|------------------------------|--------------------------0---|
B|-1------------1---0-----------|--------------1---0-----------|--------------1---0-----------|
G|-0----0---2-----------0-------|-0----0---2-----------0-------|-0----0---2-----------0-------|
D|-2------------------------2---|-0------------------------0---|-2----------------------------|
A|-3----------------------------|-2----------------------------|-2----------------------------|
E|------------------------------|-3----------------------------|------------------------------|


E|------------------------------|--------------------------0---|------------------------------|
B|-1------------1---0-------1---|--------------1---0-----------|-1------------1---0-------1---|
G|-2----0---2-----------2-------|-0----0---2-----------0-------|-2----0---2-----------2-------|
D|-2----------------------------|-2----------------------------|-2----------------------------|
A|------------------------------|-2----------------------------|------------------------------|
E|------------------------------|------------------------------|------------------------------|


E|--------------------------0---|-1------------------------1---|------------------------------|
B|--------------1---0-----------|-3------------1---0---3-------|-1------------1---0-------1---|
G|-0----0---2-----------0-------|-2----0---2-------------------|-2----0---2-----------2-------|
D|-2----------------------------|------------------------------|-2----------------------------|
A|-2----------------------------|------------------------------|------------------------------|
E|------------------------------|------------------------------|------------------------------|


E|------------------------------|------------------------------|-------------|-2-----------|
B|-1------------1---0-----------|--------------1---0-----------|-2-----------|-------3-----|
G|-0----0---2-----------0-------|-0----0---2-----------0-------|-------4-----|-------------|
D|-2------------------------2---|-0------------------------0---|-------------|-------------|
A|-3----------------------------|-2----------------------------|-------------|-------------|
E|------------------------------|-3----------------------------|-------------|-------------|


E|-3-----------|-------------|-------------|-2-----------|-3-----------|-------------|
B|-------3-----|-2-----------|-2-----------|-------3-----|-------3-----|-2-----------|
G|-------------|-------2-----|-------4-----|-------------|-------------|-------2-----|
D|-------------|-------------|-------------|-------------|-------------|-------------|
A|-------------|-------------|-------------|-------------|-------------|-------------|
E|-------------|-------------|-------------|-------------|-------------|-------------|


E|-----------------|-2---------------|-3---------------|-----------------|-----------------|
B|-2---------------|------3----------|------3----------|-2---------------|-2---------------|
G|------4----------|-----------2-----|-----------0-----|------2----------|------4----------|
D|-----------4-----|-----------------|-----------------|-----------2-----|-----------4-----|
A|-----------------|-----------------|-----------------|-----------------|-----------------|
E|-----------------|-----------------|-----------------|-----------------|-----------------|


E|-2---------------|-3---------------|-----------------|-----------------|-2---------------|
B|------3----------|------3----------|-2---------------|-2---------------|------3----------|
G|-----------2-----|-----------0-----|------2----------|------4----------|-----------2-----|
D|-----------------|-----------------|-----------2-----|-----------4-----|-----------------|
A|-----------------|-----------------|-----------------|-----------------|-----------------|
E|-----------------|-----------------|-----------------|-----------------|-----------------|


E|-3---------------|-----------------|-----------------|-3---------------|-----------------|
B|------3----------|-2---------------|-2---------------|------3----------|-2---------------|
G|-----------0-----|------2----------|------4----------|-----------0-----|------2----------|
D|-----------------|-----------2-----|-----------4-----|-----------------|-----------2-----|
A|-----------------|-----------------|-----------------|-----------------|-----------------|
E|-----------------|-----------------|-----------------|-----------------|-----------------|


E|-0------|-6-----------6-----------6-------|-5-----------5-----------5-------|-3-----------3-----------3-------|
B|-5------|-----3-----------3-----------3---|-----3-----------3-----------3---|-----3-----------3-----------3---|
G|--------|---------3-----------3-----------|---------3-----------3-----------|---------3-----------3-----------|
D|--------|---------------------------------|---------------------------------|---------------------------------|
A|--------|---------------------------------|---------------------------------|---------------------------------|
E|--------|---------------------------------|---------------------------------|---------------------------------|


E|-3-----------3-----------3-------|-3-----------3-----------3-------|-3-----------3-----------3-------|
B|-----3-----------3-----------3---|-----4-----------4-----------4---|-----4-----------4-----------4---|
G|---------3-----------3-----------|---------3-----------3-----------|---------3-----------3-----------|
D|---------------------------------|---------------------------------|---------------------------------|
A|---------------------------------|---------------------------------|---------------------------------|
E|---------------------------------|---------------------------------|---------------------------------|


E|-3-----------3-----------3-------|-3-----------3-----------3-------|-3-----------3-----------3-------|
B|-----3-----------3-----------3---|-----3-----------3-----------3---|-----4-----------4-----------4---|
G|---------3-----------3-----------|---------3-----------3-----------|---------3-----------3-----------|
D|---------------------------------|---------------------------------|---------------------------------|
A|---------------------------------|---------------------------------|---------------------------------|
E|---------------------------------|---------------------------------|---------------------------------|


E|-3-----------3-----------3-------|-3-----------|--------|
B|-----4-----------4-----------4---|-------3-----|-3------|
G|---------3-----------3-----------|-------------|-3------|
D|---------------------------------|-------------|-5------|
A|---------------------------------|-------------|-5------|
E|---------------------------------|-------------|-3------|





Track 2: Piano

E|--------|--------|--------|--------|--------|--------|--------|--------|--------|
B|--------|--------|--------|--------|--------|--------|--------|--------|--------|
G|--------|--------|--------|--------|--------|--------|--------|--------|--------|
D|--------|--------|--------|--------|--------|--------|--------|--------|--------|
A|--------|--------|--------|--------|--------|--------|--------|--------|--------|
E|--------|--------|--------|--------|--------|--------|--------|--------|--------|


E|--------|--------|--------|--------|--------|--------|--------|--------|--------|
B|--------|--------|--------|--------|--------|--------|--------|--------|--------|
G|--------|--------|--------|--------|--------|--------|--------|--------|--------|
D|--------|--------|--------|--------|--------|--------|--------|--------|--------|
A|--------|--------|--------|--------|--------|--------|--------|--------|--------|
E|--------|--------|--------|--------|--------|--------|--------|--------|--------|


E|--------|--------|--------|--------|--------|--------|--------|--------|--------|
B|--------|--------|--------|--------|--------|--------|--------|--------|--------|
G|--------|--------|--------|--------|--------|--------|--------|--------|--------|
D|--------|--------|--------|--------|--------|--------|--------|--------|--------|
A|--------|--------|--------|--------|--------|--------|--------|--------|--------|
E|--------|--------|--------|--------|--------|--------|--------|--------|--------|


E|--------|--------|--------|--------|--------|--------|--------|--------|--------|
B|--------|--------|--------|--------|--------|--------|--------|--------|--------|
G|--------|--------|--------|--------|--------|--------|--------|--------|--------|
D|--------|--------|--------|--------|--------|--------|--------|--------|--------|
A|--------|--------|--------|--------|--------|--------|--------|--------|--------|
E|--------|--------|--------|--------|--------|--------|--------|--------|--------|


E|--------|--------|--------|--------|--------|--------|--------|--------|--------|
B|--------|--------|--------|--------|--------|--------|--------|--------|--------|
G|--------|--------|--------|--------|--------|--------|--------|--------|--------|
D|--------|--------|--------|--------|--------|--------|--------|--------|--------|
A|--------|--------|--------|--------|--------|--------|--------|--------|--------|
E|--------|--------|--------|--------|--------|--------|--------|--------|--------|


E|--------|--------|--------|--------|--------|--------|--------|--------|--------|
B|--------|--------|--------|--------|--------|--------|--------|--------|--------|
G|--------|--------|--------|--------|--------|--------|--------|--------|--------|
D|--------|--------|--------|--------|--------|--------|--------|--------|--------|
A|--------|--------|--------|--------|--------|--------|--------|--------|--------|
E|--------|--------|--------|--------|--------|--------|--------|--------|--------|


E|--------|--------|--------|--------|--------|--------|--------|--------|--------|
B|--------|--------|--------|--------|--------|--------|--------|--------|--------|
G|--------|--------|--------|--------|--------|--------|--------|--------|--------|
D|--------|--------|--------|--------|--------|--------|--------|--------|--------|
A|--------|--------|--------|--------|--------|--------|--------|--------|--------|
E|--------|--------|--------|--------|--------|--------|--------|--------|--------|


E|--------|--------|--------|--------|--------|--------|--------|--------|--------|
B|--------|--------|--------|--------|--------|--------|--------|--------|--------|
G|--------|--------|--------|--------|--------|--------|--------|--------|--------|
D|--------|--------|--------|--------|--------|--------|--------|--------|--------|
A|--------|--------|--------|--------|--------|--------|--------|--------|--------|
E|--------|--------|--------|--------|--------|--------|--------|--------|--------|


E|--------|--------|--------|--------|--------|--------|--------|--------|--------|
B|--------|--------|--------|--------|--------|--------|--------|--------|--------|
G|--------|--------|--------|--------|--------|--------|--------|--------|--------|
D|--------|--------|--------|--------|--------|--------|--------|--------|--------|
A|--------|--------|--------|--------|--------|--------|--------|--------|--------|
E|--------|--------|--------|--------|--------|--------|--------|--------|--------|


E|--------|--------|--------|--------|--------|--------|--------|--------|--------|
B|--------|--------|--------|--------|--------|--------|--------|--------|--------|
G|--------|--------|--------|--------|--------|--------|--------|--------|--------|
D|--------|--------|--------|--------|--------|--------|--------|--------|--------|
A|--------|--------|--------|--------|--------|--------|--------|--------|--------|
E|--------|--------|--------|--------|--------|--------|--------|--------|--------|


E|--------|--------|--------|--------|--------|--------|--------|--------|--------|
B|--------|--------|--------|--------|--------|--------|--------|--------|--------|
G|--------|--------|--------|--------|--------|--------|--------|--------|--------|
D|--------|--------|--------|--------|--------|--------|--------|--------|--------|
A|--------|--------|--------|--------|--------|--------|--------|--------|--------|
E|--------|--------|--------|--------|--------|--------|--------|--------|--------|


E|--------|--------|--------|--------|--------|--------|--------|--------|--------|
B|--------|--------|--------|--------|--------|--------|--------|--------|--------|
G|--------|--------|--------|--------|--------|--------|--------|--------|--------|
D|--------|--------|--------|--------|--------|--------|--------|--------|--------|
A|--------|--------|--------|--------|--------|--------|--------|--------|--------|
E|--------|--------|--------|--------|--------|--------|--------|--------|--------|


E|--------|--------|--------|--------|--------|--------|--------|
B|--------|--------|--------|--------|--------|--------|--------|
G|--------|--------|--------|--------|--------|--------|--------|
D|--------|--------|--------|--------|--------|--------|--------|
A|--------|--------|--------|--------|--------|--------|--------|
E|--------|--------|--------|--------|--------|--------|--------|





Track 3: Acoustic

E|--------|--------|--------|--------|--------|--------|--------|--------|--------|
B|--------|--------|--------|--------|--------|--------|--------|--------|--------|
G|--------|--------|--------|--------|--------|--------|--------|--------|--------|
D|--------|--------|--------|--------|--------|--------|--------|--------|--------|
A|--------|--------|--------|--------|--------|--------|--------|--------|--------|
E|--------|--------|--------|--------|--------|--------|--------|--------|--------|


E|--------|--------|--------|--------|--------|--------|--------|--------|--------|
B|--------|--------|--------|--------|--------|--------|--------|--------|--------|
G|--------|--------|--------|--------|--------|--------|--------|--------|--------|
D|--------|--------|--------|--------|--------|--------|--------|--------|--------|
A|--------|--------|--------|--------|--------|--------|--------|--------|--------|
E|--------|--------|--------|--------|--------|--------|--------|--------|--------|


E|--------|--------|--------|--------|--------|--------|--------|--------|--------|
B|--------|--------|--------|--------|--------|--------|--------|--------|--------|
G|--------|--------|--------|--------|--------|--------|--------|--------|--------|
D|--------|--------|--------|--------|--------|--------|--------|--------|--------|
A|--------|--------|--------|--------|--------|--------|--------|--------|--------|
E|--------|--------|--------|--------|--------|--------|--------|--------|--------|


E|--------|--------|--------|--------|--------|--------|--------|--------|------------------------|
B|--------|--------|--------|--------|--------|--------|--------|--------|------------------------|
G|--------|--------|--------|--------|--------|--------|--------|--------|-0----0---0----0---0----|
D|--------|--------|--------|--------|--------|--------|--------|--------|-2----2---2----2---2----|
A|--------|--------|--------|--------|--------|--------|--------|--------|-2----2---2----2---2----|
E|--------|--------|--------|--------|--------|--------|--------|--------|------------------------|


E|------------------------|------------------------|------------------------|------------------------|
B|-1----1---1----1---1----|------------------------|-1----1---1----1---1----|------------------------|
G|-2----2---2----2---2----|-0----0---0----0---0----|-2----2---2----2---2----|-0----0---0----0---0----|
D|-2----2---2----2---2----|-2----2---2----2---2----|-2----2---2----2---2----|-2----2---2----2---2----|
A|------------------------|-2----2---2----2---2----|------------------------|-2----2---2----2---2----|
E|------------------------|------------------------|------------------------|------------------------|


E|-1----1---1----1---1----|------------------------|------------------------|--------------------|
B|-3----3---3----3---3----|-1----1---1----1---1----|-1----1---1----1---1----|--------------------|
G|-2----2---2----2---2----|-2----2---2----2---2----|-0----0---0----0---0----|-0----0---0---------|
D|------------------------|-2----2---2----2---2----|-2----2---2----2---2----|-0----0---0---------|
A|------------------------|------------------------|-3----3---3----3---3----|-2----2---2---------|
E|------------------------|------------------------|------------------------|-3----3---3---------|


E|------------------------|------------------------|------------------------|------------------------|
B|------------------------|-1----1---1----1---1----|------------------------|-1----1---1----1---1----|
G|-0----0---0----0---0----|-2----2---2----2---2----|-0----0---0----0---0----|-2----2---2----2---2----|
D|-2----2---2----2---2----|-2----2---2----2---2----|-2----2---2----2---2----|-2----2---2----2---2----|
A|-2----2---2----2---2----|------------------------|-2----2---2----2---2----|------------------------|
E|------------------------|------------------------|------------------------|------------------------|


E|------------------------|-1----1---1----1---1----|------------------------|------------------------|
B|------------------------|-3----3---3----3---3----|-1----1---1----1---1----|-1----1---1----1---1----|
G|-0----0---0----0---0----|-2----2---2----2---2----|-2----2---2----2---2----|-0----0---0----0---0----|
D|-2----2---2----2---2----|------------------------|-2----2---2----2---2----|-2----2---2----2---2----|
A|-2----2---2----2---2----|------------------------|------------------------|-3----3---3----3---3----|
E|------------------------|------------------------|------------------------|------------------------|


E|--------------------|-----------------------|-2-----2---2---2---2---|-----------------------|
B|--------------------|-2-----2---2---2---2---|-3-----3---3---3---3---|-----------------------|
G|-0----0---0---------|-4-----4---4---4---4---|-2-----2---2---2---2---|-0-----0---0---0---0---|
D|-0----0---0---------|-4-----4---4---4---4---|-0-----0---0---0---0---|-0-----0---0---0---0---|
A|-2----2---2---------|-2-----2---2---2---2---|-----------------------|-2-----2---2---2---2---|
E|-3----3---3---------|-----------------------|-----------------------|-3-----3---3---3---3---|


E|---------------------------|-----------------------|-2-----2---2---2---2---|-----------------------|
B|-2----2---2----2---2---2---|-2-----2---2---2---2---|-3-----3---3---3---3---|-----------------------|
G|-2----2---2----2---2---2---|-4-----4---4---4---4---|-2-----2---2---2---2---|-0-----0---0---0---0---|
D|-2----2---2----2---2---2---|-4-----4---4---4---4---|-0-----0---0---0---0---|-0-----0---0---0---0---|
A|---------------------------|-2-----2---2---2---2---|-----------------------|-2-----2---2---2---2---|
E|---------------------------|-----------------------|-----------------------|-3-----3---3---3---3---|


E|---------------------------|------------------------|------------------------|------------------------|
B|-2----2---2----2---2---2---|------------------------|-1----1---1----1---1----|------------------------|
G|-2----2---2----2---2---2---|-0----0---0----0---0----|-2----2---2----2---2----|-0----0---0----0---0----|
D|-2----2---2----2---2---2---|-2----2---2----2---2----|-2----2---2----2---2----|-2----2---2----2---2----|
A|---------------------------|-2----2---2----2---2----|------------------------|-2----2---2----2---2----|
E|---------------------------|------------------------|------------------------|------------------------|


E|------------------------|------------------------|-1----1---1----1---1----|------------------------|
B|-1----1---1----1---1----|------------------------|-3----3---3----3---3----|-1----1---1----1---1----|
G|-2----2---2----2---2----|-0----0---0----0---0----|-2----2---2----2---2----|-2----2---2----2---2----|
D|-2----2---2----2---2----|-2----2---2----2---2----|------------------------|-2----2---2----2---2----|
A|------------------------|-2----2---2----2---2----|------------------------|------------------------|
E|------------------------|------------------------|------------------------|------------------------|


E|------------------------|--------------------|------------------------|------------------------|
B|-1----1---1----1---1----|--------------------|------------------------|-1----1---1----1---1----|
G|-0----0---0----0---0----|-0----0---0---------|-0----0---0----0---0----|-2----2---2----2---2----|
D|-2----2---2----2---2----|-0----0---0---------|-2----2---2----2---2----|-2----2---2----2---2----|
A|-3----3---3----3---3----|-2----2---2---------|-2----2---2----2---2----|------------------------|
E|------------------------|-3----3---3---------|------------------------|------------------------|


E|------------------------|------------------------|------------------------|-1----1---1----1---1----|
B|------------------------|-1----1---1----1---1----|------------------------|-3----3---3----3---3----|
G|-0----0---0----0---0----|-2----2---2----2---2----|-0----0---0----0---0----|-2----2---2----2---2----|
D|-2----2---2----2---2----|-2----2---2----2---2----|-2----2---2----2---2----|------------------------|
A|-2----2---2----2---2----|------------------------|-2----2---2----2---2----|------------------------|
E|------------------------|------------------------|------------------------|------------------------|


E|------------------------|------------------------|--------------------|-----------------------|
B|-1----1---1----1---1----|-1----1---1----1---1----|--------------------|-2-----2---2---2---2---|
G|-2----2---2----2---2----|-0----0---0----0---0----|-0----0---0---------|-4-----4---4---4---4---|
D|-2----2---2----2---2----|-2----2---2----2---2----|-0----0---0---------|-4-----4---4---4---4---|
A|------------------------|-3----3---3----3---3----|-2----2---2---------|-2-----2---2---2---2---|
E|------------------------|------------------------|-3----3---3---------|-----------------------|


E|-2-----2---2---2---2---|-----------------------|---------------------------|-----------------------|
B|-3-----3---3---3---3---|-----------------------|-2----2---2----2---2---2---|-2-----2---2---2---2---|
G|-2-----2---2---2---2---|-0-----0---0---0---0---|-2----2---2----2---2---2---|-4-----4---4---4---4---|
D|-0-----0---0---0---0---|-0-----0---0---0---0---|-2----2---2----2---2---2---|-4-----4---4---4---4---|
A|-----------------------|-2-----2---2---2---2---|---------------------------|-2-----2---2---2---2---|
E|-----------------------|-3-----3---3---3---3---|---------------------------|-----------------------|


E|-2-----2---2---2---2---|-----------------------|---------------------------|--------|
B|-3-----3---3---3---3---|-----------------------|-2----2---2----2---2---2---|--------|
G|-2-----2---2---2---2---|-0-----0---0---0---0---|-2----2---2----2---2---2---|--------|
D|-0-----0---0---0---0---|-0-----0---0---0---0---|-2----2---2----2---2---2---|--------|
A|-----------------------|-2-----2---2---2---2---|---------------------------|--------|
E|-----------------------|-3-----3---3---3---3---|---------------------------|--------|


E|--------|--------|--------|--------|--------|--------|--------|--------|--------|
B|--------|--------|--------|--------|--------|--------|--------|--------|--------|
G|--------|--------|--------|--------|--------|--------|--------|--------|--------|
D|--------|--------|--------|--------|--------|--------|--------|--------|--------|
A|--------|--------|--------|--------|--------|--------|--------|--------|--------|
E|--------|--------|--------|--------|--------|--------|--------|--------|--------|


E|--------|--------|--------|--------|--------|--------|--------|--------|--------|
B|--------|--------|--------|--------|--------|--------|--------|--------|--------|
G|--------|--------|--------|--------|--------|--------|--------|--------|--------|
D|--------|--------|--------|--------|--------|--------|--------|--------|--------|
A|--------|--------|--------|--------|--------|--------|--------|--------|--------|
E|--------|--------|--------|--------|--------|--------|--------|--------|--------|


E|--------|--------|--------|--------|--------|--------|--------|--------|--------|
B|--------|--------|--------|--------|--------|--------|--------|--------|--------|
G|--------|--------|--------|--------|--------|--------|--------|--------|--------|
D|--------|--------|--------|--------|--------|--------|--------|--------|--------|
A|--------|--------|--------|--------|--------|--------|--------|--------|--------|
E|--------|--------|--------|--------|--------|--------|--------|--------|--------|





Track 4: Solo

E|--------|--------|--------|--------|--------|--------|--------|--------|--------|
B|--------|--------|--------|--------|--------|--------|--------|--------|--------|
G|--------|--------|--------|--------|--------|--------|--------|--------|--------|
D|--------|--------|--------|--------|--------|--------|--------|--------|--------|
A|--------|--------|--------|--------|--------|--------|--------|--------|--------|
E|--------|--------|--------|--------|--------|--------|--------|--------|--------|


E|--------|--------|--------|--------|--------|--------|--------|--------|--------|
B|--------|--------|--------|--------|--------|--------|--------|--------|--------|
G|--------|--------|--------|--------|--------|--------|--------|--------|--------|
D|--------|--------|--------|--------|--------|--------|--------|--------|--------|
A|--------|--------|--------|--------|--------|--------|--------|--------|--------|
E|--------|--------|--------|--------|--------|--------|--------|--------|--------|


E|--------|--------|--------|--------|--------|--------|--------|--------|--------|
B|--------|--------|--------|--------|--------|--------|--------|--------|--------|
G|--------|--------|--------|--------|--------|--------|--------|--------|--------|
D|--------|--------|--------|--------|--------|--------|--------|--------|--------|
A|--------|--------|--------|--------|--------|--------|--------|--------|--------|
E|--------|--------|--------|--------|--------|--------|--------|--------|--------|


E|--------|--------|--------|--------|--------|--------|--------|--------|--------|
B|--------|--------|--------|--------|--------|--------|--------|--------|--------|
G|--------|--------|--------|--------|--------|--------|--------|--------|--------|
D|--------|--------|--------|--------|--------|--------|--------|--------|--------|
A|--------|--------|--------|--------|--------|--------|--------|--------|--------|
E|--------|--------|--------|--------|--------|--------|--------|--------|--------|


E|--------|--------|--------|--------|--------|--------|--------|--------|--------|
B|--------|--------|--------|--------|--------|--------|--------|--------|--------|
G|--------|--------|--------|--------|--------|--------|--------|--------|--------|
D|--------|--------|--------|--------|--------|--------|--------|--------|--------|
A|--------|--------|--------|--------|--------|--------|--------|--------|--------|
E|--------|--------|--------|--------|--------|--------|--------|--------|--------|


E|--------|--------|--------|--------|--------|--------|--------|--------|--------|
B|--------|--------|--------|--------|--------|--------|--------|--------|--------|
G|--------|--------|--------|--------|--------|--------|--------|--------|--------|
D|--------|--------|--------|--------|--------|--------|--------|--------|--------|
A|--------|--------|--------|--------|--------|--------|--------|--------|--------|
E|--------|--------|--------|--------|--------|--------|--------|--------|--------|


E|--------|--------|--------|--------|--------|--------|--------|--------|--------|
B|--------|--------|--------|--------|--------|--------|--------|--------|--------|
G|--------|--------|--------|--------|--------|--------|--------|--------|--------|
D|--------|--------|--------|--------|--------|--------|--------|--------|--------|
A|--------|--------|--------|--------|--------|--------|--------|--------|--------|
E|--------|--------|--------|--------|--------|--------|--------|--------|--------|


E|--------|--------|--------|--------|--------|--------|--------|--------|--------|
B|--------|--------|--------|--------|--------|--------|--------|--------|--------|
G|--------|--------|--------|--------|--------|--------|--------|--------|--------|
D|--------|--------|--------|--------|--------|--------|--------|--------|--------|
A|--------|--------|--------|--------|--------|--------|--------|--------|--------|
E|--------|--------|--------|--------|--------|--------|--------|--------|--------|


E|--------|--------|--------|--------|--------|--------|--------|--------|--------|
B|--------|--------|--------|--------|--------|--------|--------|--------|--------|
G|--------|--------|--------|--------|--------|--------|--------|--------|--------|
D|--------|--------|--------|--------|--------|--------|--------|--------|--------|
A|--------|--------|--------|--------|--------|--------|--------|--------|--------|
E|--------|--------|--------|--------|--------|--------|--------|--------|--------|


E|--------|--------|--------|--------|--------|--------|---------------------------------|
B|--------|--------|--------|--------|--------|--------|-2---3---2---3---5---3---5---7---|
G|--------|--------|--------|--------|--------|--------|---------------------------------|
D|--------|--------|--------|--------|--------|--------|---------------------------------|
A|--------|--------|--------|--------|--------|--------|---------------------------------|
E|--------|--------|--------|--------|--------|--------|---------------------------------|


E|----------------5----|-7----------10---|-12---10-12-10-12-10-12-10-12-10-12-10-12-|
B|-5----7--------------|-----------------|------------------------------------------|
G|---------------------|-----------------|------------------------------------------|
D|---------------------|-----------------|------------------------------------------|
A|---------------------|-----------------|------------------------------------------|
E|---------------------|-----------------|------------------------------------------|


E|---------------------------|-----------2---------|----------0----------------|----------0----------------|
B|-12--10--12--10--10--7-----|-5----3---------2----|-3----2--------2---3---2---|-3----2--------2---3---2---|
G|---------------------------|---------------------|---------------------------|---------------------------|
D|---------------------------|---------------------|---------------------------|---------------------------|
A|---------------------------|---------------------|---------------------------|---------------------------|
E|---------------------------|---------------------|---------------------------|---------------------------|


E|-----------------|------------------------------|-----------------10--12--14-15-14-15-|
B|-----------------|------------------------------|---------12--13----------------------|
G|-4----------7----|-9----11--14--12--11--9---11--|-12--14------------------------------|
D|-----------------|------------------------------|-------------------------------------|
A|-----------------|------------------------------|-------------------------------------|
E|-----------------|------------------------------|-------------------------------------|


E|-7------|-7----------7---5---7---|-3----------------------|-----------------|-2------|
B|--------|------------------------|------------3---5---3---|-2---------------|-3------|
G|--------|------------------------|------------------------|------------2----|-2------|
D|--------|------------------------|------------------------|-----------------|--------|
A|--------|------------------------|------------------------|-----------------|--------|
E|--------|------------------------|------------------------|-----------------|--------|


E|--------|--------|--------|--------|--------|--------|--------|--------|--------|
B|--------|--------|--------|--------|--------|--------|--------|--------|--------|
G|--------|--------|--------|--------|--------|--------|--------|--------|--------|
D|--------|--------|--------|--------|--------|--------|--------|--------|--------|
A|--------|--------|--------|--------|--------|--------|--------|--------|--------|
E|--------|--------|--------|--------|--------|--------|--------|--------|--------|


E|--------|--------|--------|
B|--------|--------|--------|
G|--------|--------|--------|
D|--------|--------|--------|
A|--------|--------|--------|
E|--------|--------|--------|





Track 5: Untitled

G|--------|---------------------------|---------------------------|---------------------------|
D|--------|--------------5------------|--------------5------------|--------------5------------|
A|--------|----------5-------5--------|----------5-------5--------|----------5-------5--------|
E|--------|-6----6---------------6----|-5----5---------------5----|-3----3---------------3----|


G|---------------------------|---------------------------|---------------------------|
D|--------------5------------|---------------1-------1---|---------------1-------1---|
A|----------5-------5--------|-1----1---1--------1-------|-1----1---1--------1-------|
E|-3----3---------------3----|---------------------------|---------------------------|


G|---------------------------|---------------------------|--------|---------------------------|
D|--------------5------------|--------------5------------|--------|-----------5---------------|
A|----------5-------5--------|----------5-------5--------|--------|---------------5-------5---|
E|-3----3---------------3----|-3----3---------------3----|--------|-6----6------------6-------|


G|---------------------------|---------------------------|--------|--------|--------|
D|-----------4---------------|-----------3---------------|--------|--------|--------|
A|---------------5-------5---|---------------5-------5---|--------|--------|--------|
E|-6----6------------6-------|-6----6------------6-------|--------|--------|--------|


G|---------------------------|---------------------------|---------------------------|
D|--------------5------------|--------------5------------|--------------5------------|
A|----------5-------5--------|----------5-------5--------|----------5-------5--------|
E|-6----6---------------6----|-5----5---------------5----|-3----3---------------3----|


G|---------------------------|---------------------------|---------------------------|
D|--------------5------------|---------------1-------1---|---------------1-------1---|
A|----------5-------5--------|-1----1---1--------1-------|-1----1---1--------1-------|
E|-3----3---------------3----|---------------------------|---------------------------|


G|---------------------------|---------------------------|--------|---------------------------|
D|--------------5------------|--------------5------------|--------|-----------5---------------|
A|----------5-------5--------|----------5-------5--------|--------|---------------5-------5---|
E|-3----3---------------3----|-3----3---------------3----|--------|-6----6------------6-------|


G|---------------------------|---------------------------|--------|--------|--------|
D|-----------4---------------|-----------3---------------|--------|--------|--------|
A|---------------5-------5---|---------------5-------5---|--------|--------|--------|
E|-6----6------------6-------|-6----6------------6-------|--------|--------|--------|


G|---------------------------|---------------------------|---------------------------|
D|---------------------------|---------------------------|--------------3------------|
A|----------2---5---2--------|----------0---5---0--------|----------3-------3--------|
E|-2----2---------------2----|-2----2---------------2----|-1----1---------------1----|


G|--------|-------------------0-------|----------2--------5---2---|-------------------0-------|
D|--------|----------2------------2---|-2----2--------2-----------|----------2------------2---|
A|--------|-2----2--------2-----------|---------------------------|-2----2--------2-----------|
E|--------|---------------------------|---------------------------|---------------------------|


G|----------2--------5---2---|-------------------0-------|-------------------2-------|
D|-2----2--------2-----------|----------2------------2---|-0----0---3----0-------3---|
A|---------------------------|-2----2--------2-----------|---------------------------|
E|---------------------------|---------------------------|---------------------------|


G|----------2--------5---2---|--------------0------------|---------------------------|
D|-2----2--------2-----------|----------2--------2-------|--------------0------------|
A|---------------------------|-3----3----------------3---|----------2--------2-------|
E|---------------------------|---------------------------|-3----3----------------3---|


G|-------------------0-------|----------2--------5---2---|-------------------0-------|
D|----------2------------2---|-2----2--------2-----------|----------2------------2---|
A|-2----2--------2-----------|---------------------------|-2----2--------2-----------|
E|---------------------------|---------------------------|---------------------------|


G|----------2--------5---2---|-------------------0-------|-------------------2-------|
D|-2----2--------2-----------|----------2------------2---|-0----0---3----0-------3---|
A|---------------------------|-2----2--------2-----------|---------------------------|
E|---------------------------|---------------------------|---------------------------|


G|----------2--------5---2---|--------------0------------|---------------------------|
D|-2----2--------2-----------|----------2--------2-------|--------------0------------|
A|---------------------------|-3----3----------------3---|----------2--------2-------|
E|---------------------------|---------------------------|-3----3----------------3---|


G|----------4-----------4-------|------------------------------|------------------------------|
D|------4-------4---------------|----------4-----------4-------|----------5-----------5-------|
A|-2----------------2-------2---|------5-------5---------------|------5-------5---------------|
E|------------------------------|-5----------------5-------5---|-3----------------3-------3---|


G|------------------------------|----------4-----------4-------|------------------------------|
D|----------7-----------7-------|------4-------4---------------|----------4-----------4-------|
A|------7-------7---------------|-2----------------2-------2---|------5-------5---------------|
E|-5----------------5-------5---|------------------------------|-5----------------5-------5---|


G|------------------------------|------------------------------|-------------------0-------|
D|----------5-----------5-------|----------7-----------7-------|----------2------------2---|
A|------5-------5---------------|------7-------7---------------|-2----2--------2-----------|
E|-3----------------3-------3---|-5----------------5-------5---|---------------------------|


G|----------2--------5---2---|-------------------0-------|----------2--------5---2---|
D|-2----2--------2-----------|----------2------------2---|-2----2--------2-----------|
A|---------------------------|-2----2--------2-----------|---------------------------|
E|---------------------------|---------------------------|---------------------------|


G|-------------------0-------|-------------------2-------|----------2--------5---2---|
D|----------2------------2---|-0----0---3----0-------3---|-2----2--------2-----------|
A|-2----2--------2-----------|---------------------------|---------------------------|
E|---------------------------|---------------------------|---------------------------|


G|--------------0------------|---------------------------|-------------------0-------|
D|----------2--------2-------|--------------0------------|----------2------------2---|
A|-3----3----------------3---|----------2--------2-------|-2----2--------2-----------|
E|---------------------------|-3----3----------------3---|---------------------------|


G|----------2--------5---2---|-------------------0-------|----------2--------5---2---|
D|-2----2--------2-----------|----------2------------2---|-2----2--------2-----------|
A|---------------------------|-2----2--------2-----------|---------------------------|
E|---------------------------|---------------------------|---------------------------|


G|-------------------0-------|-------------------2-------|----------2--------5---2---|
D|----------2------------2---|-0----0---3----0-------3---|-2----2--------2-----------|
A|-2----2--------2-----------|---------------------------|---------------------------|
E|---------------------------|---------------------------|---------------------------|


G|--------------0------------|---------------------------|----------4-----------4-------|
D|----------2--------2-------|--------------0------------|------4-------4---------------|
A|-3----3----------------3---|----------2--------2-------|-2----------------2-------2---|
E|---------------------------|-3----3----------------3---|------------------------------|


G|------------------------------|------------------------------|------------------------------|
D|----------4-----------4-------|----------5-----------5-------|----------7-----------7-------|
A|------5-------5---------------|------5-------5---------------|------7-------7---------------|
E|-5----------------5-------5---|-3----------------3-------3---|-5----------------5-------5---|


G|----------4-----------4-------|------------------------------|------------------------------|
D|------4-------4---------------|----------4-----------4-------|----------5-----------5-------|
A|-2----------------2-------2---|------5-------5---------------|------5-------5---------------|
E|------------------------------|-5----------------5-------5---|-3----------------3-------3---|


G|------------------------------|--------------------|--------------------|--------------------|
D|----------7-----------7-------|-------4---4--------|--------------------|--------------------|
A|------7-------7---------------|-2------------------|-------5---5--------|-------5---5--------|
E|-5----------------5-------5---|--------------------|-5------------------|-3------------------|


G|--------------------|--------------------|--------------------|--------------------|
D|--------------------|-------4---4--------|--------------------|--------------------|
A|-------7---7--------|-2------------------|-------5---5--------|-------5---5--------|
E|-5------------------|--------------------|-5------------------|-3------------------|


G|--------------------|--------------------|--------------------|--------------------|
D|--------------------|-------4---4--------|--------------------|--------------------|
A|-------7---7--------|-2------------------|-------5---5--------|-------5---5--------|
E|-5------------------|--------------------|-5------------------|-3------------------|


G|--------------------|--------------------|--------------------|--------------------|
D|--------------------|-------4---4--------|--------------------|--------------------|
A|-------7---7--------|-2------------------|-------5---5--------|-------7---7--------|
E|-5------------------|--------------------|-3------------------|-5------------------|


G|--------------------|---------------------------|---------------------------|---------------------------|
D|--------------------|--------------5------------|--------------5------------|--------------5------------|
A|-------5---5--------|----------5-------5--------|----------5-------5--------|----------5-------5--------|
E|-5------------------|-6----6---------------6----|-5----5---------------5----|-3----3---------------3----|


G|---------------------------|---------------------------|---------------------------|
D|--------------5------------|---------------1-------1---|---------------1-------1---|
A|----------5-------5--------|-1----1---1--------1-------|-1----1---1--------1-------|
E|-3----3---------------3----|---------------------------|---------------------------|


G|---------------------------|---------------------------|---------------------------|
D|--------------5------------|--------------5------------|---------------1-------1---|
A|----------5-------5--------|----------5-------5--------|-1----1---1--------1-------|
E|-3----3---------------3----|-3----3---------------3----|---------------------------|


G|---------------------------|--------|--------|
D|---------------1-------1---|--------|--------|
A|-1----1---1--------1-------|--------|-3------|
E|---------------------------|--------|-3------|