Site menu:

    

Browse: 0-9 A B C D E F G H I J K L N O P Q R S T U V W X Y Z

camilo cortés - cuando estoy sin ti:



Title: Cuando Estoy Sin Ti
Artist: 
Album: 
Author: Camilo Corts 


Track 1: Untitled

E|-0---------------0---------------|-0---------------0---------------|---------------------------------|
B|---------1---------------1-------|---------1---------------1-------|-1---------------1---------------|
G|-----2-------2-------2-------2---|-----2-------2-------2-------2---|---------2---------------2-------|
D|---------------------------------|---------------------------------|-----3-------3-------3-------3---|
A|---------------------------------|---------------------------------|---------------------------------|
E|---------------------------------|---------------------------------|---------------------------------|


E|---------------------------------|-0---------------0---------------|-0---------------0---------------|
B|-1---------------1---------------|---------1---------------1-------|---------1---------------1-------|
G|---------2---------------2-------|-----2-------2-------2-------2---|-----2-------2-------2-------2---|
D|-----3-------3-------3-------3---|---------------------------------|---------------------------------|
A|---------------------------------|---------------------------------|---------------------------------|
E|---------------------------------|---------------------------------|---------------------------------|


E|---------------------------------|---------------------------------|-3---------------3---------------|
B|-1---------------1---------------|-1---------------1---------------|---------1---------------1-------|
G|---------2---------------2-------|---------2---------------2-------|-----2-------2-------2-------2---|
D|-----3-------3-------3-------3---|-----3-------3-------3-------3---|---------------------------------|
A|---------------------------------|---------------------------------|---------------------------------|
E|---------------------------------|---------------------------------|---------------------------------|


E|-3---------------3---------------|---------------------------------|---------------------------------|
B|---------1---------------1-------|-1---------------1---------------|-1---------------1---------------|
G|-----2-------2-------2-------2---|---------2---------------2-------|---------2---------------2-------|
D|---------------------------------|-----3-------3-------3-------3---|-----3-------3-------3-------3---|
A|---------------------------------|---------------------------------|---------------------------------|
E|---------------------------------|---------------------------------|---------------------------------|


E|---------------------------------|---------------------------------|---------------------------------|
B|-1---------------1---------------|-0---------------0---------------|-1---------------1---------------|
G|---------2---------------2-------|---------2---------------2-------|---------2---------------2-------|
D|-----2-------2-------2-------2---|-----2-------2-------2-------2---|-----2-------2-------2-------2---|
A|---------------------------------|---------------------------------|---------------------------------|
E|---------------------------------|---------------------------------|---------------------------------|


E|---------------------------------|---------------------------------|---------------------------------|
B|-0---------------0---------------|-0---------------0---------------|-0---------------0---------------|
G|---------2---------------2-------|---------0---------------0-------|---------0---------------0-------|
D|-----2-------2-------2-------2---|-----2-------2-------2-------2---|-----2-------2-------2-------2---|
A|---------------------------------|---------------------------------|---------------------------------|
E|---------------------------------|---------------------------------|---------------------------------|


E|---------------------------------|---------------------|-3-----------|-3-----------------3---|
B|-1---------------1---------------|-1-------------------|-1-----------|-1-------------1-------|
G|---------2---------------2-------|-----------2---------|-2-----------|-2---------2-----------|
D|-----3-------3-------3-------3---|------3---------3----|-3-----------|-3-----3---------------|
A|---------------------------------|---------------------|-------------|-----------------------|
E|---------------------------------|---------------------|-------------|-----------------------|


E|-3-----------3-------------------|-----5-------3---5----8----|-3------------------|
B|-----1-----------1---------------|---------------------------|-1---------1--------|
G|---------2-----------2-------2---|-5-------2-----------------|-------2------------|
D|-------------------------3-------|---------------------------|---------------3----|
A|---------------------------------|---------------------------|--------------------|
E|---------------------------------|---------------------------|--------------------|


E|-0---------------------|-----0------------------------|--------------------|------------------------|
B|-1-------------1-------|-----0------------5-------5---|-1------------------|--------------1---------|
G|-----------2-----------|--------------4-------5-------|-2------------------|---------2---------2----|
D|-------2---------------|------------------------------|--------------------|-----2---2--------------|
A|-------------------3---|-2--------7-------------------|-------3------------|-0----------------------|
E|-----------------------|------------------------------|------------0---5---|------------------------|


E|------0-----------0-----------|---------------------|---------------------------------|
B|----------1-----------1-------|----------------5----|-0-------------------0-------0---|
G|--------------2-----------2---|-2----3----4---------|-----0-----------0---------------|
D|-3----------------------------|---------------------|---------2---------------0-------|
A|------------------------------|---------------------|-------------2-------------------|
E|------------------------------|---------------------|---------------------------------|


E|-----------------|-1-----1---------------|---------1-----------------|---------3-----------3-----------|
B|------------3----|-3-------------3-------|-----3------------3--------|-----3-----------3---------------|
G|-0-----2---------|-2---------2-----------|-2------------2-------2----|-0-----------4---------------0---|
D|-2---------------|-------------------0---|---------------------------|-------------------------0-------|
A|-2---------------|-----------------------|---------------------------|---------------------------------|
E|-----------------|-----------------------|---------------------------|---------------------------------|


E|-----------------3---------|-0---------------0-----------0---|-------3------------|
B|-----------------3---------|-----1-------1---------------1---|-5---------1--------|
G|-------------0-------------|---------0---------------0-------|-5-------------0----|
D|---------0-----------------|---------------------2-----------|-5------------------|
A|-2-------------------------|---------------------------------|--------------------|
E|-----3---------------------|---------------------------------|--------------------|


E|-----------------------|-------------1---3-----|-3------|-3------|-3------|-3------|
B|-1-----------------1---|---------1-------------|-3------|-3------|-3------|-3------|
G|-2-------------2-------|-0---2-----------------|--------|--------|--------|--------|
D|-----------3-----------|-----------------------|--------|--------|--------|--------|
A|-------3---------------|-----------------------|--------|--------|--------|--------|
E|-----------------------|-----------------------|--------|--------|--------|--------|


E|-0-------------------------------|-----------------0---------|-0-------------------------------|
B|-----1-------1-------------------|-----1-------1-------------|-----1-------1-------------------|
G|---------0-------0---------------|-0-------0-----------------|---------2-------2---------------|
D|---------------------2-------2---|---------------------------|---------------------2-------2---|
A|-------------------------3-------|---------------------------|-------------------------0-------|
E|---------------------------------|---------------------------|---------------------------------|


E|-----------------0---------|-1-------------------------------|-----------------1---------|
B|-----1-------1-------------|-----3-------3-------------------|-----3-------3-------------|
G|-2-------2-----------------|---------2-------2---------------|-2-------2-----------------|
D|---------------------------|---------------------0-------0---|---------------------------|
A|---------------------------|-------------------------0-------|---------------------------|
E|---------------------------|---------------------------------|---------------------------|


E|-0-------------------------------|-----------------0---------|-0-------------------------------|
B|-----0-------0-------------------|-----0-------0-------------|-----1-------1-------------------|
G|---------0-------0---------------|-0-------0-----------------|---------0-------0---------------|
D|---------------------2-------2---|---------------------------|---------------------2-------2---|
A|-------------------------2-------|---------------------------|-------------------------3-------|
E|---------------------------------|---------------------------|---------------------------------|


E|-----------------0---------|-0-------------------------------|-----------------0---------|
B|-----1-------1-------------|-----1-------1-------------------|-----1-------1-------------|
G|-0-------0-----------------|---------2-------2---------------|-2-------2-----------------|
D|---------------------------|---------------------2-------2---|---------------------------|
A|---------------------------|-------------------------0-------|---------------------------|
E|---------------------------|---------------------------------|---------------------------|


E|-0-------------------------------|-----------------0---------|-3-------------------------------|
B|-----0-------0-------------------|-----0-------0-------------|-----3-------3-------------------|
G|---------0-------0---------------|-0-------0-----------------|---------0-------0---------------|
D|---------------------2-------2---|---------------------------|---------------------0-------0---|
A|-------------------------2-------|---------------------------|-------------------------2-------|
E|---------------------------------|---------------------------|---------------------------------|


E|-----------------3---------|--------|--------|--------|--------|--------|--------|
B|-----3-------3-------------|--------|--------|--------|--------|--------|--------|
G|-0-------0-----------------|--------|--------|--------|--------|--------|--------|
D|---------------------------|--------|--------|--------|--------|--------|--------|
A|---------------------------|--------|--------|--------|--------|--------|--------|
E|---------------------------|--------|--------|--------|--------|--------|--------|


E|--------|--------|--------|--------|--------|--------|--------|-3-----------------3---|
B|--------|--------|--------|--------|--------|--------|--------|-1-------------1-------|
G|--------|--------|--------|--------|--------|--------|--------|-2---------2-----------|
D|--------|--------|--------|--------|--------|--------|--------|-3-----3---------------|
A|--------|--------|--------|--------|--------|--------|--------|-----------------------|
E|--------|--------|--------|--------|--------|--------|--------|-----------------------|


E|-3-----------3-------------------|-----5-------3---5----8----|-3------------------|
B|-----1-----------1---------------|---------------------------|-1---------1--------|
G|---------2-----------2-------2---|-5-------2-----------------|-------2------------|
D|-------------------------3-------|---------------------------|---------------3----|
A|---------------------------------|---------------------------|--------------------|
E|---------------------------------|---------------------------|--------------------|


E|-0---------------------|-----0------------------------|--------------------|------------------------|
B|-1-------------1-------|-----0------------5-------5---|-1------------------|--------------1---------|
G|-----------2-----------|--------------4-------5-------|-2------------------|---------2---------2----|
D|-------2---------------|------------------------------|--------------------|-----2---2--------------|
A|-------------------3---|-2--------7-------------------|-------3------------|-0----------------------|
E|-----------------------|------------------------------|------------0---5---|------------------------|


E|------0-----------0-----------|---------------------|---------------------------------|
B|----------1-----------1-------|----------------5----|-0-------------------0-------0---|
G|--------------2-----------2---|-2----3----4---------|-----0-----------0---------------|
D|-3----------------------------|---------------------|---------2---------------0-------|
A|------------------------------|---------------------|-------------2-------------------|
E|------------------------------|---------------------|---------------------------------|


E|-----------------|-1-----1---------------|---------1-----------------|---------3-----------3-----------|
B|------------3----|-3-------------3-------|-----3------------3--------|-----3-----------3---------------|
G|-0-----2---------|-2---------2-----------|-2------------2-------2----|-0-----------4---------------0---|
D|-2---------------|-------------------0---|---------------------------|-------------------------0-------|
A|-2---------------|-----------------------|---------------------------|---------------------------------|
E|-----------------|-----------------------|---------------------------|---------------------------------|


E|-----------------3---------|-0---------------0-----------0---|-------3------------|
B|-----------------3---------|-----1-------1---------------1---|-5---------1--------|
G|-------------0-------------|---------0---------------0-------|-5-------------0----|
D|---------0-----------------|---------------------2-----------|-5------------------|
A|-2-------------------------|---------------------------------|--------------------|
E|-----3---------------------|---------------------------------|--------------------|


E|-----------------------|-------------1---3-----|-3------|-3------|-3------|-3------|
B|-1-----------------1---|---------1-------------|-3------|-3------|-3------|-3------|
G|-2-------------2-------|-0---2-----------------|--------|--------|--------|--------|
D|-----------3-----------|-----------------------|--------|--------|--------|--------|
A|-------3---------------|-----------------------|--------|--------|--------|--------|
E|-----------------------|-----------------------|--------|--------|--------|--------|


E|-0-------------------------------|-----------------0---------|-0-------------------------------|
B|-----1-------1-------------------|-----1-------1-------------|-----1-------1-------------------|
G|---------0-------0---------------|-0-------0-----------------|---------2-------2---------------|
D|---------------------2-------2---|---------------------------|---------------------2-------2---|
A|-------------------------3-------|---------------------------|-------------------------0-------|
E|---------------------------------|---------------------------|---------------------------------|


E|-----------------0---------|-1-------------------------------|-----------------1---------|
B|-----1-------1-------------|-----3-------3-------------------|-----3-------3-------------|
G|-2-------2-----------------|---------2-------2---------------|-2-------2-----------------|
D|---------------------------|---------------------0-------0---|---------------------------|
A|---------------------------|-------------------------0-------|---------------------------|
E|---------------------------|---------------------------------|---------------------------|


E|-0-------------------------------|-----------------0---------|-0-------------------------------|
B|-----0-------0-------------------|-----0-------0-------------|-----1-------1-------------------|
G|---------0-------0---------------|-0-------0-----------------|---------0-------0---------------|
D|---------------------2-------2---|---------------------------|---------------------2-------2---|
A|-------------------------2-------|---------------------------|-------------------------3-------|
E|---------------------------------|---------------------------|---------------------------------|


E|-----------------0---------|-0-------------------------------|-----------------0---------|
B|-----1-------1-------------|-----1-------1-------------------|-----1-------1-------------|
G|-0-------0-----------------|---------2-------2---------------|-2-------2-----------------|
D|---------------------------|---------------------2-------2---|---------------------------|
A|---------------------------|-------------------------0-------|---------------------------|
E|---------------------------|---------------------------------|---------------------------|


E|-0-------------------------------|-----------------0---------|-3-------------------------------|
B|-----0-------0-------------------|-----0-------0-------------|-----3-------3-------------------|
G|---------0-------0---------------|-0-------0-----------------|---------0-------0---------------|
D|---------------------2-------2---|---------------------------|---------------------0-------0---|
A|-------------------------2-------|---------------------------|-------------------------2-------|
E|---------------------------------|---------------------------|---------------------------------|


E|-----------------3---------|-3-----------3---------------3---|---------------------------------|
B|-----3-------3-------------|-----1-----------1-------1-------|-1-----------1---------------1---|
G|-0-------0-----------------|---------2-----------2-----------|-----2-----------2-------2-------|
D|---------------------------|---------------------------------|---------3-----------3-----------|
A|---------------------------|---------------------------------|---------------------------------|
E|---------------------------|---------------------------------|---------------------------------|


E|---------------------------------|---------------------------------|-1-----------1---------------1---|
B|-1-----------1---------------1---|-0-----------0---------------0---|-----3-----------3-------3-------|
G|-----2-----------2-------2-------|-----2-----------2-------2-------|---------2-----------2-----------|
D|---------2-----------2-----------|---------2-----------2-----------|---------------------------------|
A|---------------------------------|---------------------------------|---------------------------------|
E|---------------------------------|---------------------------------|---------------------------------|


E|-1-----------1---------------1---|-0-----------0---------------0---|-2-----------2-----------2-------|
B|-----2-----------2-------2-------|-----1-----------1-------1-------|-----1-----------1-----------1---|
G|---------2-----------2-----------|---------2-----------2-----------|---------2-----------2-----------|
D|---------------------------------|---------------------------------|---------------------------------|
A|---------------------------------|---------------------------------|---------------------------------|
E|---------------------------------|---------------------------------|---------------------------------|


E|-1-----------1-----------1-------|-0-----------0-----------0-------|-2-----------2-----------2-------|
B|-----1-----------1-----------1---|-----1-----------1-----------1---|-----1-----------1-----------1---|
G|---------2-----------2-----------|---------2-----------2-----------|---------2-----------2-----------|
D|---------------------------------|---------------------------------|---------------------------------|
A|---------------------------------|---------------------------------|---------------------------------|
E|---------------------------------|---------------------------------|---------------------------------|


E|-1-----------1-----------1-------|-0-----------0-----------0-------|-0-----------|
B|-----1-----------1-----------1---|-----1-----------1-----------1---|-1-----------|
G|---------2-----------2-----------|---------2-----------2-----------|-2-----------|
D|---------------------------------|---------------------------------|-------------|
A|---------------------------------|---------------------------------|-------------|
E|---------------------------------|---------------------------------|-------------|





Track 2: Strings

E|--------|--------|--------|--------|--------|--------|--------|--------|--------|
B|--------|--------|--------|--------|--------|--------|--------|--------|--------|
G|--------|--------|--------|--------|--------|--------|--------|--------|--------|
D|--------|--------|--------|--------|--------|--------|--------|--------|--------|
A|--------|--------|--------|--------|--------|--------|--------|--------|--------|
E|--------|--------|--------|--------|--------|--------|--------|--------|--------|


E|--------|--------|--------|--------|--------|--------|--------|--------|--------|
B|--------|--------|--------|--------|--------|--------|--------|--------|--------|
G|--------|--------|--------|--------|--------|--------|--------|--------|--------|
D|--------|--------|--------|--------|--------|--------|--------|--------|--------|
A|--------|--------|--------|--------|--------|--------|--------|--------|--------|
E|--------|--------|--------|--------|--------|--------|--------|--------|--------|


E|--------|--------|--------|--------|--------|--------|--------|--------|--------|
B|--------|--------|--------|--------|--------|--------|--------|--------|--------|
G|--------|--------|--------|--------|--------|--------|--------|--------|--------|
D|--------|--------|--------|--------|--------|--------|--------|--------|--------|
A|--------|--------|--------|--------|--------|--------|--------|--------|--------|
E|--------|--------|--------|--------|--------|--------|--------|--------|--------|


E|--------|--------|--------|--------|--------|--------|--------|--------|--------|
B|--------|--------|--------|--------|--------|--------|--------|--------|--------|
G|--------|--------|--------|--------|--------|--------|--------|--------|--------|
D|--------|--------|--------|--------|--------|--------|--------|--------|--------|
A|--------|--------|--------|--------|--------|--------|--------|--------|--------|
E|--------|--------|--------|--------|--------|--------|--------|--------|--------|


E|--------|--------|--------|--------|--------|--------|--------|--------|--------|
B|--------|--------|--------|--------|--------|--------|--------|--------|--------|
G|--------|--------|--------|--------|--------|--------|--------|--------|--------|
D|--------|--------|--------|--------|--------|--------|--------|--------|--------|
A|--------|--------|--------|--------|--------|--------|--------|--------|--------|
E|--------|--------|--------|--------|--------|--------|--------|--------|--------|


E|-------------|---------------------------------|----------------------|-------------0-------------|
B|-------------|---------1---0---3---1-----------|------0----1----0-----|-----1---3---1----3---1----|
G|-0-----------|-0---2---------------------------|-2--------------------|-2----------------3---2----|
D|-------2-----|-----------------------------2---|----------------------|---------------------------|
A|-------------|-------------------------3-------|----------------------|---------------------------|
E|-------------|---------------------------------|----------------------|---------------------------|


E|-------------|-------------0----1--------|-0---------------------|-------------|
B|-3-----------|-----1---3------------3----|-------------------0---|-3-----1-----|
G|-------2-----|-2-------------------------|---------------0-------|-------2-----|
D|-------------|---------------------------|-------2---4-----------|-------------|
A|-------------|---------------------------|-----------------------|-------------|
E|-------------|---------------------------|-----------------------|-------------|


E|-------------|---------------------------------|----------------------|-------------0-------------|
B|-------------|---------1---0---3---1-----------|------0----1----0-----|-----1---3---1----3---1----|
G|-0-----------|-0---2---------------------------|-2--------------------|-2----------------3---2----|
D|-------2-----|-----------------------------2---|----------------------|---------------------------|
A|-------------|-------------------------3-------|----------------------|---------------------------|
E|-------------|---------------------------------|----------------------|---------------------------|


E|-------------|------------------------------|-----------------------|-------------|
B|-0-----------|---------0---1----0-------0---|---------------0---1---|-0-----------|
G|-0-----------|-----0----------------2-------|-0---------0-----------|-0-----0-----|
D|-------2-----|-2----------------------------|-0-----4---------------|-------0-----|
A|-------2-----|------------------------------|-----------------------|-------------|
E|-------------|------------------------------|-----------------------|-------------|


E|--------|--------|--------|--------|--------|--------|--------|--------|--------|
B|--------|--------|--------|--------|--------|--------|--------|--------|--------|
G|--------|--------|--------|--------|--------|--------|--------|--------|--------|
D|--------|--------|--------|--------|--------|--------|--------|--------|--------|
A|--------|--------|--------|--------|--------|--------|--------|--------|--------|
E|--------|--------|--------|--------|--------|--------|--------|--------|--------|


E|--------|--------|--------|--------|--------|--------|--------|--------|--------|
B|--------|--------|--------|--------|--------|--------|--------|--------|--------|
G|--------|--------|--------|--------|--------|--------|--------|--------|--------|
D|--------|--------|--------|--------|--------|--------|--------|--------|--------|
A|--------|--------|--------|--------|--------|--------|--------|--------|--------|
E|--------|--------|--------|--------|--------|--------|--------|--------|--------|


E|--------|--------|--------|--------|--------|--------|--------|--------|--------|
B|--------|--------|--------|--------|--------|--------|--------|--------|--------|
G|--------|--------|--------|--------|--------|--------|--------|--------|--------|
D|--------|--------|--------|--------|--------|--------|--------|--------|--------|
A|--------|--------|--------|--------|--------|--------|--------|--------|--------|
E|--------|--------|--------|--------|--------|--------|--------|--------|--------|


E|--------|--------|--------|--------|--------|--------|--------|--------|--------|
B|--------|--------|--------|--------|--------|--------|--------|--------|--------|
G|--------|--------|--------|--------|--------|--------|--------|--------|--------|
D|--------|--------|--------|--------|--------|--------|--------|--------|--------|
A|--------|--------|--------|--------|--------|--------|--------|--------|--------|
E|--------|--------|--------|--------|--------|--------|--------|--------|--------|


E|--------|-------------|---------------------------------|----------------------|
B|--------|-------------|---------1---0---3---1-----------|------0----1----0-----|
G|--------|-0-----------|-0---2---------------------------|-2--------------------|
D|--------|-------2-----|-----------------------------2---|----------------------|
A|--------|-------------|-------------------------3-------|----------------------|
E|--------|-------------|---------------------------------|----------------------|


E|-------------0-------------|-------------|-------------0----1--------|-0---------------------|
B|-----1---3---1----3---1----|-3-----------|-----1---3------------3----|-------------------0---|
G|-2----------------3---2----|-------2-----|-2-------------------------|---------------0-------|
D|---------------------------|-------------|---------------------------|-------2---4-----------|
A|---------------------------|-------------|---------------------------|-----------------------|
E|---------------------------|-------------|---------------------------|-----------------------|


E|-------------|-------------|---------------------------------|----------------------|
B|-3-----1-----|-------------|---------1---0---3---1-----------|------0----1----0-----|
G|-------2-----|-0-----------|-0---2---------------------------|-2--------------------|
D|-------------|-------2-----|-----------------------------2---|----------------------|
A|-------------|-------------|-------------------------3-------|----------------------|
E|-------------|-------------|---------------------------------|----------------------|


E|-------------0-------------|-------------|------------------------------|-----------------------|
B|-----1---3---1----3---1----|-0-----------|---------0---1----0-------0---|---------------0---1---|
G|-2----------------3---2----|-0-----------|-----0----------------2-------|-0---------0-----------|
D|---------------------------|-------2-----|-2----------------------------|-0-----4---------------|
A|---------------------------|-------2-----|------------------------------|-----------------------|
E|---------------------------|-------------|------------------------------|-----------------------|


E|-------------|--------|--------|--------|--------|--------|--------|--------|--------|
B|-0-----------|--------|--------|--------|--------|--------|--------|--------|--------|
G|-0-----0-----|--------|--------|--------|--------|--------|--------|--------|--------|
D|-------0-----|--------|--------|--------|--------|--------|--------|--------|--------|
A|-------------|--------|--------|--------|--------|--------|--------|--------|--------|
E|-------------|--------|--------|--------|--------|--------|--------|--------|--------|


E|--------|--------|--------|--------|--------|--------|
B|--------|--------|--------|--------|--------|--------|
G|--------|--------|--------|--------|--------|--------|
D|--------|--------|--------|--------|--------|--------|
A|--------|--------|--------|--------|--------|--------|
E|--------|--------|--------|--------|--------|--------|





Track 3: E.guitarr

E|--------|--------|--------|--------|--------|--------|--------|--------|--------|
B|--------|--------|--------|--------|--------|--------|--------|--------|--------|
G|--------|--------|--------|--------|--------|--------|--------|--------|--------|
D|--------|--------|--------|--------|--------|--------|--------|--------|--------|
A|--------|--------|--------|--------|--------|--------|--------|--------|--------|
E|--------|--------|--------|--------|--------|--------|--------|--------|--------|


E|--------|--------|--------|--------|--------|--------|--------|--------|--------|
B|--------|--------|--------|--------|--------|--------|--------|--------|--------|
G|--------|--------|--------|--------|--------|--------|--------|--------|--------|
D|--------|--------|--------|--------|--------|--------|--------|--------|--------|
A|--------|--------|--------|--------|--------|--------|--------|--------|--------|
E|--------|--------|--------|--------|--------|--------|--------|--------|--------|


E|--------|--------|--------|--------|--------|--------|--------|--------|--------|
B|--------|--------|--------|--------|--------|--------|--------|--------|--------|
G|--------|--------|--------|--------|--------|--------|--------|--------|--------|
D|--------|--------|--------|--------|--------|--------|--------|--------|--------|
A|--------|--------|--------|--------|--------|--------|--------|--------|--------|
E|--------|--------|--------|--------|--------|--------|--------|--------|--------|


E|--------|--------|--------|--------|--------|--------|--------|--------|--------|
B|--------|--------|--------|--------|--------|--------|--------|--------|--------|
G|--------|--------|--------|--------|--------|--------|--------|--------|--------|
D|--------|--------|--------|--------|--------|--------|--------|--------|--------|
A|--------|--------|--------|--------|--------|--------|--------|--------|--------|
E|--------|--------|--------|--------|--------|--------|--------|--------|--------|


E|--------|--------|--------|--------|--------|--------|--------|--------|--------|
B|--------|--------|--------|--------|--------|--------|--------|--------|--------|
G|--------|--------|--------|--------|--------|--------|--------|--------|--------|
D|--------|--------|--------|--------|--------|--------|--------|--------|--------|
A|--------|--------|--------|--------|--------|--------|--------|--------|--------|
E|--------|--------|--------|--------|--------|--------|--------|--------|--------|


E|--------|--------|--------|--------|--------|--------|--------|--------|--------|
B|--------|--------|--------|--------|--------|--------|--------|--------|--------|
G|--------|--------|--------|--------|--------|--------|--------|--------|--------|
D|--------|--------|--------|--------|--------|--------|--------|--------|--------|
A|--------|--------|--------|--------|--------|--------|--------|--------|--------|
E|--------|--------|--------|--------|--------|--------|--------|--------|--------|


E|--------|--------|--------|--------|--------|--------|--------|---------------------------------|
B|--------|--------|--------|--------|--------|--------|--------|-1-------1-------1-------1-------|
G|--------|--------|--------|--------|--------|--------|--------|-2-------2-------2-------2-------|
D|--------|--------|--------|--------|--------|--------|--------|---------------------------------|
A|--------|--------|--------|--------|--------|--------|--------|---------------------------------|
E|--------|--------|--------|--------|--------|--------|--------|---------------------------------|


E|---------------------------------|-3-------3-------3-------3-------|-2-------2-------2-------2-------|
B|-0-------0-------0-------0-------|-3-------3-------3-------3-------|-3-------3-------3-------3-------|
G|-0-------0-------0-------0-------|---------------------------------|---------------------------------|
D|---------------------------------|---------------------------------|---------------------------------|
A|---------------------------------|---------------------------------|---------------------------------|
E|---------------------------------|---------------------------------|---------------------------------|


E|---------------------------------|---------------------------------|-3-------3-------3-------3-------|
B|-1-------1-------1-------1-------|-0-------0-------0-------0-------|-3-------3-------3-------3-------|
G|-2-------2-------2-------2-------|-0-------0-------0-------0-------|---------------------------------|
D|---------------------------------|---------------------------------|---------------------------------|
A|---------------------------------|---------------------------------|---------------------------------|
E|---------------------------------|---------------------------------|---------------------------------|


E|-2-------2-------2-------2-------|---------------------------------|---------------------------------|
B|-3-------3-------3-------3-------|-1-------1-------1-------1-------|-0-------0-------0-------0-------|
G|---------------------------------|-2-------2-------2-------2-------|-0-------0-------0-------0-------|
D|---------------------------------|---------------------------------|---------------------------------|
A|---------------------------------|---------------------------------|---------------------------------|
E|---------------------------------|---------------------------------|---------------------------------|


E|-3-------3-------3-------3-------|-2-------2-------2-------2-------|--------|--------|
B|-3-------3-------3-------3-------|-3-------3-------3-------3-------|--------|--------|
G|---------------------------------|---------------------------------|--------|--------|
D|---------------------------------|---------------------------------|--------|--------|
A|---------------------------------|---------------------------------|--------|--------|
E|---------------------------------|---------------------------------|--------|--------|


E|--------|--------|--------|--------|--------|--------|--------|--------|--------|
B|--------|--------|--------|--------|--------|--------|--------|--------|--------|
G|--------|--------|--------|--------|--------|--------|--------|--------|--------|
D|--------|--------|--------|--------|--------|--------|--------|--------|--------|
A|--------|--------|--------|--------|--------|--------|--------|--------|--------|
E|--------|--------|--------|--------|--------|--------|--------|--------|--------|


E|--------|--------|--------|--------|--------|--------|--------|--------|--------|
B|--------|--------|--------|--------|--------|--------|--------|--------|--------|
G|--------|--------|--------|--------|--------|--------|--------|--------|--------|
D|--------|--------|--------|--------|--------|--------|--------|--------|--------|
A|--------|--------|--------|--------|--------|--------|--------|--------|--------|
E|--------|--------|--------|--------|--------|--------|--------|--------|--------|


E|--------|--------|--------|--------|--------|--------|--------|--------|--------|
B|--------|--------|--------|--------|--------|--------|--------|--------|--------|
G|--------|--------|--------|--------|--------|--------|--------|--------|--------|
D|--------|--------|--------|--------|--------|--------|--------|--------|--------|
A|--------|--------|--------|--------|--------|--------|--------|--------|--------|
E|--------|--------|--------|--------|--------|--------|--------|--------|--------|


E|--------|--------|--------|--------|--------|--------|--------|--------|--------|
B|--------|--------|--------|--------|--------|--------|--------|--------|--------|
G|--------|--------|--------|--------|--------|--------|--------|--------|--------|
D|--------|--------|--------|--------|--------|--------|--------|--------|--------|
A|--------|--------|--------|--------|--------|--------|--------|--------|--------|
E|--------|--------|--------|--------|--------|--------|--------|--------|--------|


E|--------|--------|--------|--------|--------|--------|--------|--------|--------|
B|--------|--------|--------|--------|--------|--------|--------|--------|--------|
G|--------|--------|--------|--------|--------|--------|--------|--------|--------|
D|--------|--------|--------|--------|--------|--------|--------|--------|--------|
A|--------|--------|--------|--------|--------|--------|--------|--------|--------|
E|--------|--------|--------|--------|--------|--------|--------|--------|--------|


E|--------|--------|--------|--------|--------|--------|--------|--------|
B|--------|--------|--------|--------|--------|--------|--------|--------|
G|--------|--------|--------|--------|--------|--------|--------|--------|
D|--------|--------|--------|--------|--------|--------|--------|--------|
A|--------|--------|--------|--------|--------|--------|--------|--------|
E|--------|--------|--------|--------|--------|--------|--------|--------|





Track 4: Untitled

E|--------|--------|--------|--------|--------|--------|--------|--------|--------|
B|--------|--------|--------|--------|--------|--------|--------|--------|--------|
G|--------|--------|--------|--------|--------|--------|--------|--------|--------|
D|--------|--------|--------|--------|--------|--------|--------|--------|--------|
A|--------|--------|--------|--------|--------|--------|--------|--------|--------|
E|--------|--------|--------|--------|--------|--------|--------|--------|--------|


E|--------|--------|--------|--------|--------|--------|--------|--------|--------|
B|--------|--------|--------|--------|--------|--------|--------|--------|--------|
G|--------|--------|--------|--------|--------|--------|--------|--------|--------|
D|--------|--------|--------|--------|--------|--------|--------|--------|--------|
A|--------|--------|--------|--------|--------|--------|--------|--------|--------|
E|--------|--------|--------|--------|--------|--------|--------|--------|--------|


E|--------|--------|--------|--------|--------|--------|--------|--------|--------|
B|--------|--------|--------|--------|--------|--------|--------|--------|--------|
G|--------|--------|--------|--------|--------|--------|--------|--------|--------|
D|--------|--------|--------|--------|--------|--------|--------|--------|--------|
A|--------|--------|--------|--------|--------|--------|--------|--------|--------|
E|--------|--------|--------|--------|--------|--------|--------|--------|--------|


E|--------|--------|--------|--------|--------|--------|--------|--------|--------|
B|--------|--------|--------|--------|--------|--------|--------|--------|--------|
G|--------|--------|--------|--------|--------|--------|--------|--------|--------|
D|--------|--------|--------|--------|--------|--------|--------|--------|--------|
A|--------|--------|--------|--------|--------|--------|--------|--------|--------|
E|--------|--------|--------|--------|--------|--------|--------|--------|--------|


E|--------|--------|--------|--------|--------|--------|--------|--------|--------|
B|--------|--------|--------|--------|--------|--------|--------|--------|--------|
G|--------|--------|--------|--------|--------|--------|--------|--------|--------|
D|--------|--------|--------|--------|--------|--------|--------|--------|--------|
A|--------|--------|--------|--------|--------|--------|--------|--------|--------|
E|--------|--------|--------|--------|--------|--------|--------|--------|--------|


E|--------|--------|--------|--------|--------|--------|--------|--------|--------|
B|--------|--------|--------|--------|--------|--------|--------|--------|--------|
G|--------|--------|--------|--------|--------|--------|--------|--------|--------|
D|--------|--------|--------|--------|--------|--------|--------|--------|--------|
A|--------|--------|--------|--------|--------|--------|--------|--------|--------|
E|--------|--------|--------|--------|--------|--------|--------|--------|--------|


E|--------|--------|--------|--------|--------|--------|--------|--------|--------|
B|--------|--------|--------|--------|--------|--------|--------|--------|--------|
G|--------|--------|--------|--------|--------|--------|--------|--------|--------|
D|--------|--------|--------|--------|--------|--------|--------|--------|--------|
A|--------|--------|--------|--------|--------|--------|--------|--------|--------|
E|--------|--------|--------|--------|--------|--------|--------|--------|--------|


E|--------|--------|----------------------------------|---------3---5---0---3-------5---|
B|--------|--------|-1--------1-----------------------|-3---5-------------------5-------|
G|--------|--------|------2-------2-------0--2--0--2--|---------------------------------|
D|--------|--------|------------------2---------------|---------------------------------|
A|--------|--------|----------------------------------|---------------------------------|
E|--------|--------|----------------------------------|---------------------------------|


E|---------5----5---3---2---3---|-2---------------------|-----------------5-----|-5----5---7---3----3---5---|
B|-3---5------------------------|-------5---7---3---5---|-1---3-------1---------|---------------------------|
G|------------------------------|-----------------------|---------2-------------|---------------------------|
D|------------------------------|-----------------------|-----------------------|---------------------------|
A|------------------------------|-----------------------|-----------------------|---------------------------|
E|------------------------------|-----------------------|-----------------------|---------------------------|


E|-------------------------5---7---|-5------------------|--------|--------|--------|
B|-----------------5---7-----------|-----5----3---3-----|--------|--------|--------|
G|---------------------------------|--------------2-----|--------|--------|--------|
D|---------5---7-------------------|--------------------|--------|--------|--------|
A|-5---7---------------------------|--------------------|--------|--------|--------|
E|---------------------------------|--------------------|--------|--------|--------|


E|--------|--------|--------|--------|--------|--------|--------|--------|--------|
B|--------|--------|--------|--------|--------|--------|--------|--------|--------|
G|--------|--------|--------|--------|--------|--------|--------|--------|--------|
D|--------|--------|--------|--------|--------|--------|--------|--------|--------|
A|--------|--------|--------|--------|--------|--------|--------|--------|--------|
E|--------|--------|--------|--------|--------|--------|--------|--------|--------|


E|--------|--------|--------|--------|--------|--------|--------|--------|--------|
B|--------|--------|--------|--------|--------|--------|--------|--------|--------|
G|--------|--------|--------|--------|--------|--------|--------|--------|--------|
D|--------|--------|--------|--------|--------|--------|--------|--------|--------|
A|--------|--------|--------|--------|--------|--------|--------|--------|--------|
E|--------|--------|--------|--------|--------|--------|--------|--------|--------|


E|--------|--------|--------|--------|--------|--------|--------|--------|--------|
B|--------|--------|--------|--------|--------|--------|--------|--------|--------|
G|--------|--------|--------|--------|--------|--------|--------|--------|--------|
D|--------|--------|--------|--------|--------|--------|--------|--------|--------|
A|--------|--------|--------|--------|--------|--------|--------|--------|--------|
E|--------|--------|--------|--------|--------|--------|--------|--------|--------|


E|--------|--------|--------|--------|--------|--------|--------|--------|--------|
B|--------|--------|--------|--------|--------|--------|--------|--------|--------|
G|--------|--------|--------|--------|--------|--------|--------|--------|--------|
D|--------|--------|--------|--------|--------|--------|--------|--------|--------|
A|--------|--------|--------|--------|--------|--------|--------|--------|--------|
E|--------|--------|--------|--------|--------|--------|--------|--------|--------|


E|--------|--------|--------|--------|--------|--------|--------|--------|--------|
B|--------|--------|--------|--------|--------|--------|--------|--------|--------|
G|--------|--------|--------|--------|--------|--------|--------|--------|--------|
D|--------|--------|--------|--------|--------|--------|--------|--------|--------|
A|--------|--------|--------|--------|--------|--------|--------|--------|--------|
E|--------|--------|--------|--------|--------|--------|--------|--------|--------|


E|--------|--------|--------|--------|--------|--------|--------|
B|--------|--------|--------|--------|--------|--------|--------|
G|--------|--------|--------|--------|--------|--------|--------|
D|--------|--------|--------|--------|--------|--------|--------|
A|--------|--------|--------|--------|--------|--------|--------|
E|--------|--------|--------|--------|--------|--------|--------|





Track 5: Untitled

G|-2----2-------2---2---2----|-2----2-------2-------2----|---------------------------|
D|----------3----------------|----------3-------3--------|-3----3-------3---3---3----|
A|---------------------------|---------------------------|----------3----------------|
E|---------------------------|---------------------------|---------------------------|


G|---------------------------|-2----2-------2---2---2----|-2----2-------2-------2----|
D|-3----3-------3-------3----|----------3----------------|----------3-------3--------|
A|----------3-------3--------|---------------------------|---------------------------|
E|---------------------------|---------------------------|---------------------------|


G|---------------------------|---------------------------|-2----2-------2---2---2----|
D|-3----3-------3---3---3----|-3----3-------3-------3----|----------3----------------|
A|----------3----------------|----------3-------3--------|---------------------------|
E|---------------------------|---------------------------|---------------------------|


G|-2----2-------2-------2----|---------------------------|---------------------------|
D|----------3-------3--------|-3----3-------3---3---3----|-3----3-------3-------3----|
A|---------------------------|----------3----------------|----------3-------3--------|
E|---------------------------|---------------------------|---------------------------|


G|----------2---5----5----|----------2---4----4----|----------2---5----5----|----------2---4----4----|
D|-2----2-----------------|-2----2-----------------|-2----2-----------------|-2----2-----------------|
A|------------------------|------------------------|------------------------|------------------------|
E|------------------------|------------------------|------------------------|------------------------|


G|---------------------------|---------------------------|---------------------------|
D|-2----2-------2---2---2----|-2----2-------2-------2----|-3----3-------3---3---3----|
A|----------2----------------|----------2-------2--------|----------3----------------|
E|---------------------------|---------------------------|---------------------------|


G|---------------------|-----------------|------------------------|------------------------|
D|-3---------3---------|------3----------|-------------------3----|-------------------3----|
A|------3---------3----|-3---------------|---------------3--------|---------------3--------|
E|---------------------|-----------------|-5-----5---5------------|-5-----5---5------------|


G|---------------------------|---------------------------|--------------2------------|
D|-3----3-----------3--------|-3----3-----------3--------|----------2--------2-------|
A|----------3----------------|----------3----------------|-3----3----------------3---|
E|--------------5-------5----|--------------5-------5----|---------------------------|


G|--------------2------------|--------------2------------|--------------2------------|
D|----------2--------2-------|----------2--------2-------|----------2--------2-------|
A|-2----2----------------2---|-3----3----------------3---|-2----2----------------2---|
E|---------------------------|---------------------------|---------------------------|


G|----------------2----|---------------------------|----------------0----|---------------------------|
D|-3---------3---------|-3----3-------3-------3----|-2---------2---------|-2----2-------2-------2----|
A|------3--------------|----------3-------3--------|------2--------------|----------2-------2--------|
E|---------------------|---------------------------|---------------------|---------------------------|


G|-2---------2----5----|-2----2-------2-------2----|---------------------|---------------------------|
D|------3--------------|----------3-------3--------|----------------3----|---------------------------|
A|---------------------|---------------------------|-2---------2---------|-2----2-------2-------2----|
E|---------------------|---------------------------|------3--------------|----------3-------3--------|


G|----------------0----|---------------------------|---------------------|---------------------------|
D|-2---------2---------|-2----2-------2-------2----|----------------3----|---------------------------|
A|------3--------------|----------3-------3--------|-3---------3---------|-3----3-------3-------3----|
E|---------------------|---------------------------|------1--------------|----------1-------1--------|


G|-------------|--------------------|-------------|--------------------|--------------0------------|
D|-------------|--------------0-----|-------0-----|--------------0-----|----------2--------2-------|
A|-------0-----|-2----2---2---------|-------------|-2----2---2---------|-3----3----------------3---|
E|-3-----------|--------------------|-3-----------|--------------------|---------------------------|


G|--------------0------------|----------2---5----2-------|----------2---5----2-------|
D|----------2--------2-------|-2----2----------------2---|-2----2----------------2---|
A|-3----3----------------3---|---------------------------|---------------------------|
E|---------------------------|---------------------------|---------------------------|


G|----------2---5----2-------|----------2---5----2-------|--------------0------------|
D|-3----3----------------3---|-3----3----------------3---|----------2--------2-------|
A|---------------------------|---------------------------|-2----2----------------2---|
E|---------------------------|---------------------------|---------------------------|


G|--------------0------------|--------------0------------|--------------0------------|
D|----------2--------2-------|----------2--------2-------|----------2--------2-------|
A|-2----2----------------2---|-3----3----------------3---|-3----3----------------3---|
E|---------------------------|---------------------------|---------------------------|


G|----------2---5----2-------|----------2---5----2-------|--------------0------------|
D|-2----2----------------2---|-2----2----------------2---|----------2--------2-------|
A|---------------------------|---------------------------|-2----2----------------2---|
E|---------------------------|---------------------------|---------------------------|


G|--------------0------------|---------------------------|---------------------------|
D|----------2--------2-------|--------------0------------|--------------0------------|
A|-2----2----------------2---|----------2--------2-------|----------2--------2-------|
E|---------------------------|-3----3----------------3---|-3----3----------------3---|


G|-----------------|-----------------|-----------------|-----------------|-----------------|
D|-----------------|-------2----2----|-----------------|-------7----7----|-----------------|
A|-------7----7----|-------2----2----|-------5----5----|-------5----5----|-------7----7----|
E|-------5----5----|-----------------|-------3----3----|-----------------|-------5----5----|


G|-----------------|-----------------|-----------------|-----------------|-----------------|
D|-------2----2----|-----------------|-------7----7----|-----------------|-------2----2----|
A|-------2----2----|-------5----5----|-------5----5----|-------7----7----|-------2----2----|
E|-----------------|-------3----3----|-----------------|-------5----5----|-----------------|


G|-----------------|-----------------|---------------------------|------------------------|
D|-----------------|-------7----7----|-----7--------3------------|-------------------3----|
A|-------5----5----|-------5----5----|-5--------3--------3-------|---------------3--------|
E|-------3----3----|-----------------|-----------------------5---|-5-----5---5------------|


G|------------------------|---------------------------|---------------------------|
D|-------------------3----|-3----3-----------3--------|-3----3-----------3--------|
A|---------------3--------|----------3----------------|----------3----------------|
E|-5-----5---5------------|--------------5-------5----|--------------5-------5----|


G|--------------2------------|--------------2------------|--------------2------------|
D|----------2--------2-------|----------2--------2-------|----------2--------2-------|
A|-3----3----------------3---|-2----2----------------2---|-3----3----------------3---|
E|---------------------------|---------------------------|---------------------------|


G|--------------2------------|----------------2----|---------------------------|----------------0----|
D|----------2--------2-------|-3---------3---------|-3----3-------3-------3----|-2---------2---------|
A|-2----2----------------2---|------3--------------|----------3-------3--------|------2--------------|
E|---------------------------|---------------------|---------------------------|---------------------|


G|---------------------------|-2---------2----5----|-2----2-------2-------2----|---------------------|
D|-2----2-------2-------2----|------3--------------|----------3-------3--------|----------------3----|
A|----------2-------2--------|---------------------|---------------------------|-2---------2---------|
E|---------------------------|---------------------|---------------------------|------3--------------|


G|---------------------------|----------------0----|---------------------------|---------------------|
D|---------------------------|-2---------2---------|-2----2-------2-------2----|----------------3----|
A|-2----2-------2-------2----|------3--------------|----------3-------3--------|-3---------3---------|
E|----------3-------3--------|---------------------|---------------------------|------1--------------|


G|---------------------------|-------------|--------------------|-------------|--------------------|
D|---------------------------|-------------|--------------0-----|-------0-----|--------------0-----|
A|-3----3-------3-------3----|-------0-----|-2----2---2---------|-------------|-2----2---2---------|
E|----------1-------1--------|-3-----------|--------------------|-3-----------|--------------------|


G|--------------0------------|--------------0------------|----------2---5----2-------|
D|----------2--------2-------|----------2--------2-------|-2----2----------------2---|
A|-3----3----------------3---|-3----3----------------3---|---------------------------|
E|---------------------------|---------------------------|---------------------------|


G|----------2---5----2-------|----------2---5----2-------|----------2---5----2-------|
D|-2----2----------------2---|-3----3----------------3---|-3----3----------------3---|
A|---------------------------|---------------------------|---------------------------|
E|---------------------------|---------------------------|---------------------------|


G|--------------0------------|--------------0------------|--------------0------------|
D|----------2--------2-------|----------2--------2-------|----------2--------2-------|
A|-2----2----------------2---|-2----2----------------2---|-3----3----------------3---|
E|---------------------------|---------------------------|---------------------------|


G|--------------0------------|----------2---5----2-------|----------2---5----2-------|
D|----------2--------2-------|-2----2----------------2---|-2----2----------------2---|
A|-3----3----------------3---|---------------------------|---------------------------|
E|---------------------------|---------------------------|---------------------------|


G|--------------0------------|--------------0------------|---------------------------|
D|----------2--------2-------|----------2--------2-------|--------------0------------|
A|-2----2----------------2---|-2----2----------------2---|----------2--------2-------|
E|---------------------------|---------------------------|-3----3----------------3---|


G|---------------------------|--------------2----2----|--------------2----2----|----------2---5----5----|
D|--------------0------------|----------2-------------|----------3-------------|-2----2-----------------|
A|----------2--------2-------|-3----3-----------------|-3----3-----------------|------------------------|
E|-3----3----------------3---|------------------------|------------------------|------------------------|


G|----------2---4----4----|----------2---5----2-------|--------------2------------|
D|-2----2-----------------|-3----3----------------3---|----------3--------3-------|
A|------------------------|---------------------------|-4----4----------------4---|
E|------------------------|---------------------------|---------------------------|


G|--------------0------------|--------------2----2-------|--------------2----2-------|
D|----------2--------2-------|----------4------------4---|----------3------------3---|
A|-3----3--------------------|-3----3--------------------|-3----3--------------------|
E|-----------------------3---|---------------------------|---------------------------|


G|--------------0----0-------|--------------2----2-------|--------------2----2-------|
D|----------2------------2---|----------4------------4---|----------3------------3---|
A|-3----3--------------------|-3----3--------------------|-3----3--------------------|
E|---------------------------|---------------------------|---------------------------|


G|--------------0----0-------|-0-----------|
D|----------2------------2---|-2-----------|
A|-3----3--------------------|-3-----------|
E|---------------------------|-------------|