Site menu:

    

Browse: 0-9 A B C D E F G H I J K L N O P Q R S T U V W X Y Z

burzum - ea lord of the depths:



Title: Ea, Lord of the Depths
Artist: 
Album: Burzum
Author: Count Grishnackh


Track 1: Rhythm Guitar

E|-------------------------------------------------|-------------------------------------------------|
B|-------------------------------------4--4--4--4--|-3--3--3--3--------------------------------------|
G|-------------------------5--5--5--5--------------|-------------4--4--4--4--------------------------|
D|-------------5--5--5--5--------------------------|-------------------------4--4--4--4--------------|
A|-3--3--3--3--------------------------------------|-------------------------------------2--2--2--2--|
E|-------------------------------------------------|-------------------------------------------------|


E|-------------------------------------------------|-------------------------------------------------|
B|-------------------------------------------------|-------------------------------------------------|
G|-------------------------------------------------|-------------------------------------------------|
D|-------------------------1--1--1--1--------------|-------------------------------------------------|
A|-------------3--3--3--3--------------3--3--------|-------------5--5--5--5--6--6--6--6--5--5--5--5--|
E|-4--4--4--4--------------------------------4--4--|-3--3--3--3--------------------------------------|


E|-------------------------------------------------|-------------------------------------------------|
B|-------------------------------------4--4--4--4--|-3--3--3--3--------------------------------------|
G|-------------------------5--5--5--5--------------|-------------4--4--4--4--------------------------|
D|-------------5--5--5--5--------------------------|-------------------------4--4--4--4--------------|
A|-3--3--3--3--------------------------------------|-------------------------------------2--2--2--2--|
E|-------------------------------------------------|-------------------------------------------------|


E|-------------------------------------------------|-------------------------------------------------|
B|-------------------------------------------------|-------------------------------------------------|
G|-------------------------------------------------|-------------------------------------------------|
D|-------------------------1--1--1--1--------------|-------------------------------------------------|
A|-------------3--3--3--3--------------3--3--------|-------------5--5--5--5--6--6--6--6--5--5--5--5--|
E|-4--4--4--4--------------------------------4--4--|-3--3--3--3--------------------------------------|


E|-------------------------------------------------|-------------------------------------------------|
B|-------------------------------------4--4--4--4--|-3--3--3--3--------------------------------------|
G|-------------------------5--5--5--5--------------|-------------4--4--4--4--------------------------|
D|-------------5--5--5--5--------------------------|-------------------------4--4--4--4--------------|
A|-3--3--3--3--------------------------------------|-------------------------------------2--2--2--2--|
E|-------------------------------------------------|-------------------------------------------------|


E|-------------------------------------------------|-------------------------------------------------|
B|-------------------------------------------------|-------------------------------------------------|
G|-------------------------------------------------|-------------------------------------------------|
D|-------------------------1--1--1--1--------------|-------------------------------------------------|
A|-------------3--3--3--3--------------3--3--------|-------------5--5--5--5--6--6--6--6--5--5--5--5--|
E|-4--4--4--4--------------------------------4--4--|-3--3--3--3--------------------------------------|


E|-------------------------------------------------|-------------------------------------------------|
B|-------------------------------------4--4--4--4--|-3--3--3--3--------------------------------------|
G|-------------------------5--5--5--5--------------|-------------4--4--4--4--------------------------|
D|-------------5--5--5--5--------------------------|-------------------------4--4--4--4--------------|
A|-3--3--3--3--------------------------------------|-------------------------------------2--2--2--2--|
E|-------------------------------------------------|-------------------------------------------------|


E|-------------------------------------------------|-------------------------------------------------|
B|-------------------------------------------------|-------------------------------------------------|
G|-------------------------------------------------|-------------------------------------------------|
D|-------------------------1--1--1--1--------------|-------------------------------------------------|
A|-------------3--3--3--3--------------3--3--------|-------------5--5--5--5--6--6--6--6--5--5--5--5--|
E|-4--4--4--4--------------------------------4--4--|-3--3--3--3--------------------------------------|


E|-------------------------------------------------|-------------------------------------------------|
B|-------------------------------------4--4--4--4--|-3--3--3--3--------------------------------------|
G|-------------------------5--5--5--5--------------|-------------4--4--4--4--------------------------|
D|-------------5--5--5--5--------------------------|-------------------------4--4--4--4--------------|
A|-3--3--3--3--------------------------------------|-------------------------------------2--2--2--2--|
E|-------------------------------------------------|-------------------------------------------------|


E|-------------------------------------------------|-------------------------------------------------|
B|-------------------------------------------------|-------------------------------------------------|
G|-------------------------------------------------|-------------------------------------------------|
D|-------------------------1--1--1--1--------------|-------------------------------------------------|
A|-------------3--3--3--3--------------3--3--------|-------------5--5--5--5--6--6--6--6--5--5--5--5--|
E|-4--4--4--4--------------------------------4--4--|-3--3--3--3--------------------------------------|


E|-------------------------------------------------|-------------------------------------------------|
B|-------------------------------------4--4--4--4--|-3--3--3--3--------------------------------------|
G|-------------------------5--5--5--5--------------|-------------4--4--4--4--------------------------|
D|-------------5--5--5--5--------------------------|-------------------------4--4--4--4--------------|
A|-3--3--3--3--------------------------------------|-------------------------------------2--2--2--2--|
E|-------------------------------------------------|-------------------------------------------------|


E|-------------------------------------------------|-------------------------------------------------|
B|-------------------------------------------------|-------------------------------------------------|
G|-------------------------------------------------|-------------------------------------------------|
D|-------------------------1--1--1--1--------------|-------------------------------------------------|
A|-------------3--3--3--3--------------3--3--------|-------------5--5--5--5--6--6--6--6--5--5--5--5--|
E|-4--4--4--4--------------------------------4--4--|-3--3--3--3--------------------------------------|


E|-------------------------------------------------|-------------------------------------------------|
B|-------------------------------------------------|-------------------------------------------------|
G|-------------------------------------------------|-------------------------------------------------|
D|-6--6--6--6--6--6--6--6--------------------------|-------------------------10-10-10-10-8--8--8--8--|
A|-------------------------8--8--8--8--------------|-10-10-10-10-10-10-10-10-------------------------|
E|-------------------------------------10-10-10-10-|-------------------------------------------------|


E|-------------------------------------------------|-------------------------------------------------|
B|-------------------------------------------------|-------------------------------------------------|
G|-------------------------------------------------|-------------------------------------------------|
D|-6--6--6--6--6--6--6--6--------------------------|-------------------------10-10-10-10-8--8--8--8--|
A|-------------------------8--8--8--8--------------|-10-10-10-10-10-10-10-10-------------------------|
E|-------------------------------------10-10-10-10-|-------------------------------------------------|


E|-------------------------------------------------|-------------------------------------------------|
B|-------------------------------------------------|-------------------------------------------------|
G|-------------------------------------------------|-------------------------------------------------|
D|-6--6--6--6--6--6--6--6--------------------------|-------------------------10-10-10-10-8--8--8--8--|
A|-------------------------8--8--8--8--------------|-10-10-10-10-10-10-10-10-------------------------|
E|-------------------------------------10-10-10-10-|-------------------------------------------------|


E|-------------------------------------------------|-------------------------------------------------|
B|-------------------------------------------------|-------------------------------------------------|
G|-------------------------------------------------|-------------------------------------------------|
D|-6--6--6--6--6--6--6--6--------------------------|-------------------------10-10-10-10-8--8--8--8--|
A|-------------------------8--8--8--8--------------|-10-10-10-10-10-10-10-10-------------------------|
E|-------------------------------------10-10-10-10-|-------------------------------------------------|


E|-------------------------------------------------|-------------------------------------------------|
B|-------------------------------------------------|-------------------------------------------------|
G|-------------------------------------------------|-------------------------------------------------|
D|-5--5--5--5--5--5--5--5--5--5--5--5--5--5--5--5--|-------------------------------------------------|
A|-3--3--3--3--3--3--3--3--3--3--3--3--3--3--3--3--|-6--6--6--6--6--6--6--6--6--6--6--6--6--6--6--6--|
E|-------------------------------------------------|-4--4--4--4--4--4--4--4--4--4--4--4--4--4--4--4--|


E|-------------------------------------------------|-------------------------------------------------|
B|-------------------------------------------------|-------------------------------------------------|
G|-------------------------------------------------|-------------------------------------------------|
D|-5--5--5--5--5--5--5--5--5--5--5--5--5--5--5--5--|-6--6--6--6--6--6--6--6--6--6--6--6--6--6--6--6--|
A|-3--3--3--3--3--3--3--3--3--3--3--3--3--3--3--3--|-4--4--4--4--4--4--4--4--4--4--4--4--4--4--4--4--|
E|-------------------------------------------------|-------------------------------------------------|


E|-------------------------------------------------|-------------------------------------------------|
B|-------------------------------------------------|-------------------------------------------------|
G|-------------------------------------------------|-------------------------------------------------|
D|-5--5--5--5--5--5--5--5--5--5--5--5--5--5--5--5--|-------------------------------------------------|
A|-3--3--3--3--3--3--3--3--3--3--3--3--3--3--3--3--|-6--6--6--6--6--6--6--6--6--6--6--6--6--6--6--6--|
E|-------------------------------------------------|-4--4--4--4--4--4--4--4--4--4--4--4--4--4--4--4--|


E|-------------------------------------------------|-------------------------------------------------|
B|-------------------------------------------------|-------------------------------------------------|
G|-------------------------------------------------|-------------------------------------------------|
D|-5--5--5--5--5--5--5--5--5--5--5--5--5--5--5--5--|-6--6--6--6--6--6--6--6--6--6--6--6--6--6--6--6--|
A|-3--3--3--3--3--3--3--3--3--3--3--3--3--3--3--3--|-4--4--4--4--4--4--4--4--4--4--4--4--4--4--4--4--|
E|-------------------------------------------------|-------------------------------------------------|


E|-------------------------------------------------|-------------------------------------------------|
B|-------------------------------------------------|-------------------------------------------------|
G|-------------------------------------------------|-------------------------------------------------|
D|-5--5--5--5--5--5--5--5--5--5--5--5--5--5--5--5--|-------------------------------------------------|
A|-3--3--3--3--3--3--3--3--3--3--3--3--3--3--3--3--|-6--6--6--6--6--6--6--6--6--6--6--6--6--6--6--6--|
E|-------------------------------------------------|-4--4--4--4--4--4--4--4--4--4--4--4--4--4--4--4--|


E|-------------------------------------------------|-------------------------------------------------|
B|-------------------------------------------------|-------------------------------------------------|
G|-------------------------------------------------|-------------------------------------------------|
D|-5--5--5--5--5--5--5--5--5--5--5--5--5--5--5--5--|-6--6--6--6--6--6--6--6--6--6--6--6--6--6--6--6--|
A|-3--3--3--3--3--3--3--3--3--3--3--3--3--3--3--3--|-4--4--4--4--4--4--4--4--4--4--4--4--4--4--4--4--|
E|-------------------------------------------------|-------------------------------------------------|


E|-------------------------------------------------|-------------------------------------------------|
B|-------------------------------------------------|-------------------------------------------------|
G|-------------------------------------------------|-------------------------------------------------|
D|-5--5--5--5--5--5--5--5--5--5--5--5--5--5--5--5--|-------------------------------------------------|
A|-3--3--3--3--3--3--3--3--3--3--3--3--3--3--3--3--|-6--6--6--6--6--6--6--6--6--6--6--6--6--6--6--6--|
E|-------------------------------------------------|-4--4--4--4--4--4--4--4--4--4--4--4--4--4--4--4--|


E|-------------------------------------------------|-------------------------------------------------|
B|-------------------------------------------------|-------------------------------------------------|
G|-------------------------------------------------|-------------------------------------------------|
D|-5--5--5--5--5--5--5--5--5--5--5--5--5--5--5--5--|-6--6--6--6--6--6--6--6--6--6--6--6--6--6--6--6--|
A|-3--3--3--3--3--3--3--3--3--3--3--3--3--3--3--3--|-4--4--4--4--4--4--4--4--4--4--4--4--4--4--4--4--|
E|-------------------------------------------------|-------------------------------------------------|


E|-------------------------------------------------|-------------------------------------------------|
B|-------------------------------------------------|-------------------------------------------------|
G|-------------------------------------------------|-------------------------------------------------|
D|-5--5--5--5--5--5--5--5--5--5--5--5--5--5--5--5--|-------------------------------------------------|
A|-3--3--3--3--3--3--3--3--3--3--3--3--3--3--3--3--|-6--6--6--6--6--6--6--6--6--6--6--6--6--6--6--6--|
E|-------------------------------------------------|-4--4--4--4--4--4--4--4--4--4--4--4--4--4--4--4--|


E|-------------------------------------------------|-------------------------------------------------|
B|-------------------------------------------------|-------------------------------------------------|
G|-------------------------------------------------|-------------------------------------------------|
D|-5--5--5--5--5--5--5--5--5--5--5--5--5--5--5--5--|-6--6--6--6--6--6--6--6--6--6--6--6--6--6--6--6--|
A|-3--3--3--3--3--3--3--3--3--3--3--3--3--3--3--3--|-4--4--4--4--4--4--4--4--4--4--4--4--4--4--4--4--|
E|-------------------------------------------------|-------------------------------------------------|


E|-------------------------------------------------|-------------------------------------------------|
B|-------------------------------------------------|-------------------------------------------------|
G|-------------------------------------------------|-------------------------------------------------|
D|-5--5--5--5--5--5--5--5--5--5--5--5--5--5--5--5--|-------------------------------------------------|
A|-3--3--3--3--3--3--3--3--3--3--3--3--3--3--3--3--|-6--6--6--6--6--6--6--6--6--6--6--6--6--6--6--6--|
E|-------------------------------------------------|-4--4--4--4--4--4--4--4--4--4--4--4--4--4--4--4--|


E|-------------------------------------------------|-------------------------------------------------|
B|-------------------------------------------------|-------------------------------------------------|
G|-------------------------------------------------|-------------------------------------------------|
D|-5--5--5--5--5--5--5--5--5--5--5--5--5--5--5--5--|-6--6--6--6--6--6--6--6--6--6--6--6--6--6--6--6--|
A|-3--3--3--3--3--3--3--3--3--3--3--3--3--3--3--3--|-4--4--4--4--4--4--4--4--4--4--4--4--4--4--4--4--|
E|-------------------------------------------------|-------------------------------------------------|


E|-------------------------------------------------|-------------------------------------------------|
B|-------------------------------------------------|-------------------------------------------------|
G|-------------------------------------------------|-------------------------------------------------|
D|-5--5--5--5--5--5--5--5--5--5--5--5--5--5--5--5--|-------------------------------------------------|
A|-3--3--3--3--3--3--3--3--3--3--3--3--3--3--3--3--|-6--6--6--6--6--6--6--6--6--6--6--6--6--6--6--6--|
E|-------------------------------------------------|-4--4--4--4--4--4--4--4--4--4--4--4--4--4--4--4--|


E|-------------------------------------------------|-------------------------------------------------|
B|-------------------------------------------------|-------------------------------------------------|
G|-------------------------------------------------|-------------------------------------------------|
D|-5--5--5--5--5--5--5--5--5--5--5--5--5--5--5--5--|-6--6--6--6--6--6--6--6--6--6--6--6--6--6--6--6--|
A|-3--3--3--3--3--3--3--3--3--3--3--3--3--3--3--3--|-4--4--4--4--4--4--4--4--4--4--4--4--4--4--4--4--|
E|-------------------------------------------------|-------------------------------------------------|


E|-------------------------------------------------|-------------------------------------------------|
B|-------------------------------------------------|-------------------------------------------------|
G|-------------------------------------------------|-------------------------------------------------|
D|-5--5--5--5--5--5--5--5--5--5--5--5--5--5--5--5--|-------------------------------------------------|
A|-3--3--3--3--3--3--3--3--3--3--3--3--3--3--3--3--|-6--6--6--6--6--6--6--6--6--6--6--6--6--6--6--6--|
E|-------------------------------------------------|-4--4--4--4--4--4--4--4--4--4--4--4--4--4--4--4--|


E|-------------------------------------------------|-------------------------------------------------|
B|-------------------------------------------------|-------------------------------------------------|
G|-------------------------------------------------|-------------------------------------------------|
D|-5--5--5--5--5--5--5--5--5--5--5--5--5--5--5--5--|-6--6--6--6--6--6--6--6--6--6--6--6--6--6--6--6--|
A|-3--3--3--3--3--3--3--3--3--3--3--3--3--3--3--3--|-4--4--4--4--4--4--4--4--4--4--4--4--4--4--4--4--|
E|-------------------------------------------------|-------------------------------------------------|


E|-------------------------------------------------|-------------------------------------------------|
B|-------------------------------------------------|-------------------------------------------------|
G|-------------------------------------------------|-------------------------------------------------|
D|-5--5--5--5--5--5--5--5--5--5--5--5--5--5--5--5--|-------------------------------------------------|
A|-3--3--3--3--3--3--3--3--3--3--3--3--3--3--3--3--|-6--6--6--6--6--6--6--6--6--6--6--6--6--6--6--6--|
E|-------------------------------------------------|-4--4--4--4--4--4--4--4--4--4--4--4--4--4--4--4--|


E|-------------------------------------------------|-------------------------------------------------|
B|-------------------------------------------------|-------------------------------------------------|
G|-------------------------------------------------|-------------------------------------------------|
D|-5--5--5--5--5--5--5--5--5--5--5--5--5--5--5--5--|-6--6--6--6--6--6--6--6--6--6--6--6--6--6--6--6--|
A|-3--3--3--3--3--3--3--3--3--3--3--3--3--3--3--3--|-4--4--4--4--4--4--4--4--4--4--4--4--4--4--4--4--|
E|-------------------------------------------------|-------------------------------------------------|


E|-------------------------------------------------|-------------------------------------------------|
B|-------------------------------------------------|-------------------------------------------------|
G|-------------------------------------------------|-------------------------------------------------|
D|-5--5--5--5--5--5--5--5--5--5--5--5--5--5--5--5--|-------------------------------------------------|
A|-3--3--3--3--3--3--3--3--3--3--3--3--3--3--3--3--|-6--6--6--6--6--6--6--6--6--6--6--6--6--6--6--6--|
E|-------------------------------------------------|-4--4--4--4--4--4--4--4--4--4--4--4--4--4--4--4--|


E|-------------------------------------------------|-------------------------------------------------|
B|-------------------------------------------------|-------------------------------------------------|
G|-------------------------------------------------|-------------------------------------------------|
D|-5--5--5--5--5--5--5--5--5--5--5--5--5--5--5--5--|-6--6--6--6--6--6--6--6--6--6--6--6--6--6--6--6--|
A|-3--3--3--3--3--3--3--3--3--3--3--3--3--3--3--3--|-4--4--4--4--4--4--4--4--4--4--4--4--4--4--4--4--|
E|-------------------------------------------------|-------------------------------------------------|


E|-------------------------------------------------|-------------------------------------------------|
B|-------------------------------------------------|-------------------------------------------------|
G|-------------------------------------------------|-------------------------------------------------|
D|-5--5--5--5--5--5--5--5--5--5--5--5--5--5--5--5--|-------------------------------------------------|
A|-3--3--3--3--3--3--3--3--3--3--3--3--3--3--3--3--|-6--6--6--6--6--6--6--6--6--6--6--6--6--6--6--6--|
E|-------------------------------------------------|-4--4--4--4--4--4--4--4--4--4--4--4--4--4--4--4--|


E|-------------------------------------------------|-------------------------------------------------|
B|-------------------------------------------------|-------------------------------------------------|
G|-------------------------------------------------|-------------------------------------------------|
D|-5--5--5--5--5--5--5--5--5--5--5--5--5--5--5--5--|-6--6--6--6--6--6--6--6--6--6--6--6--6--6--6--6--|
A|-3--3--3--3--3--3--3--3--3--3--3--3--3--3--3--3--|-4--4--4--4--4--4--4--4--4--4--4--4--4--4--4--4--|
E|-------------------------------------------------|-------------------------------------------------|


E|-------------------------------------------------|-------------------------------------------------|
B|-------------------------------------------------|-------------------------------------------------|
G|-------------------------------------------------|-------------------------------------------------|
D|-5--5--5--5--5--5--5--5--5--5--5--5--5--5--5--5--|-------------------------------------------------|
A|-3--3--3--3--3--3--3--3--3--3--3--3--3--3--3--3--|-6--6--6--6--6--6--6--6--6--6--6--6--6--6--6--6--|
E|-------------------------------------------------|-4--4--4--4--4--4--4--4--4--4--4--4--4--4--4--4--|


E|-------------------------------------------------|-------------------------------------------------|
B|-------------------------------------------------|-------------------------------------------------|
G|-------------------------------------------------|-------------------------------------------------|
D|-5--5--5--5--5--5--5--5--5--5--5--5--5--5--5--5--|-6--6--6--6--6--6--6--6--6--6--6--6--6--6--6--6--|
A|-3--3--3--3--3--3--3--3--3--3--3--3--3--3--3--3--|-4--4--4--4--4--4--4--4--4--4--4--4--4--4--4--4--|
E|-------------------------------------------------|-------------------------------------------------|


E|-------------------------------------------------|-------------------------------------------------|
B|-------------------------------------------------|-------------------------------------------------|
G|-------------------------------------------------|-------------------------------------------------|
D|-5--5--5--5--5--5--5--5--5--5--5--5--5--5--5--5--|-------------------------------------------------|
A|-3--3--3--3--3--3--3--3--3--3--3--3--3--3--3--3--|-6--6--6--6--6--6--6--6--6--6--6--6--6--6--6--6--|
E|-------------------------------------------------|-4--4--4--4--4--4--4--4--4--4--4--4--4--4--4--4--|


E|-------------------------------------------------|-------------------------------------------------|
B|-------------------------------------------------|-------------------------------------------------|
G|-------------------------------------------------|-------------------------------------------------|
D|-5--5--5--5--5--5--5--5--5--5--5--5--5--5--5--5--|-6--6--6--6--6--6--6--6--6--6--6--6--6--6--6--6--|
A|-3--3--3--3--3--3--3--3--3--3--3--3--3--3--3--3--|-4--4--4--4--4--4--4--4--4--4--4--4--4--4--4--4--|
E|-------------------------------------------------|-------------------------------------------------|


E|-------------------------------------------------|-------------------------------------------------|
B|-------------------------------------------------|-------------------------------------------------|
G|-------------------------------------------------|-------------------------------------------------|
D|-6--6--6--6--6--6--6--6--------------------------|-------------------------10-10-10-10-8--8--8--8--|
A|-------------------------8--8--8--8--------------|-10-10-10-10-10-10-10-10-------------------------|
E|-------------------------------------10-10-10-10-|-------------------------------------------------|


E|-------------------------------------------------|-------------------------------------------------|
B|-------------------------------------------------|-------------------------------------------------|
G|-------------------------------------------------|-------------------------------------------------|
D|-6--6--6--6--6--6--6--6--------------------------|-------------------------10-10-10-10-8--8--8--8--|
A|-------------------------8--8--8--8--------------|-10-10-10-10-10-10-10-10-------------------------|
E|-------------------------------------10-10-10-10-|-------------------------------------------------|


E|-------------------------------------------------|-------------------------------------------------|
B|-------------------------------------------------|-------------------------------------------------|
G|-------------------------------------------------|-------------------------------------------------|
D|-6--6--6--6--6--6--6--6--------------------------|-------------------------10-10-10-10-8--8--8--8--|
A|-------------------------8--8--8--8--------------|-10-10-10-10-10-10-10-10-------------------------|
E|-------------------------------------10-10-10-10-|-------------------------------------------------|


E|-------------------------------------------------|-------------------------------------------------|
B|-------------------------------------------------|-------------------------------------------------|
G|-------------------------------------------------|-------------------------------------------------|
D|-6--6--6--6--6--6--6--6--------------------------|-------------------------10-10-10-10-8--8--8--8--|
A|-------------------------8--8--8--8--------------|-10-10-10-10-10-10-10-10-------------------------|
E|-------------------------------------10-10-10-10-|-------------------------------------------------|


E|-------------------------------------------------|-------------------------------------------------|
B|-------------------------------------------------|-------------------------------------------------|
G|-------------------------------------------------|-------------------------------------------------|
D|-5--5--5--5--5--5--5--5--5--5--5--5--5--5--5--5--|-------------------------------------------------|
A|-3--3--3--3--3--3--3--3--3--3--3--3--3--3--3--3--|-6--6--6--6--6--6--6--6--6--6--6--6--6--6--6--6--|
E|-------------------------------------------------|-4--4--4--4--4--4--4--4--4--4--4--4--4--4--4--4--|


E|-------------------------------------------------|-------------------------------------------------|
B|-------------------------------------------------|-------------------------------------------------|
G|-------------------------------------------------|-------------------------------------------------|
D|-5--5--5--5--5--5--5--5--5--5--5--5--5--5--5--5--|-6--6--6--6--6--6--6--6--6--6--6--6--6--6--6--6--|
A|-3--3--3--3--3--3--3--3--3--3--3--3--3--3--3--3--|-4--4--4--4--4--4--4--4--4--4--4--4--4--4--4--4--|
E|-------------------------------------------------|-------------------------------------------------|


E|-------------------------------------------------|-------------------------------------------------|
B|-------------------------------------------------|-------------------------------------------------|
G|-------------------------------------------------|-------------------------------------------------|
D|-5--5--5--5--5--5--5--5--5--5--5--5--5--5--5--5--|-------------------------------------------------|
A|-3--3--3--3--3--3--3--3--3--3--3--3--3--3--3--3--|-6--6--6--6--6--6--6--6--6--6--6--6--6--6--6--6--|
E|-------------------------------------------------|-4--4--4--4--4--4--4--4--4--4--4--4--4--4--4--4--|


E|-------------------------------------------------|-------------------------------------------------|
B|-------------------------------------------------|-------------------------------------------------|
G|-------------------------------------------------|-------------------------------------------------|
D|-5--5--5--5--5--5--5--5--5--5--5--5--5--5--5--5--|-6--6--6--6--6--6--6--6--6--6--6--6--6--6--6--6--|
A|-3--3--3--3--3--3--3--3--3--3--3--3--3--3--3--3--|-4--4--4--4--4--4--4--4--4--4--4--4--4--4--4--4--|
E|-------------------------------------------------|-------------------------------------------------|


E|-------------------------------------------------|-------------------------------------------------|
B|-------------------------------------------------|-------------------------------------------------|
G|-------------------------------------------------|-------------------------------------------------|
D|-5--5--5--5--5--5--5--5--5--5--5--5--5--5--5--5--|-------------------------------------------------|
A|-3--3--3--3--3--3--3--3--3--3--3--3--3--3--3--3--|-6--6--6--6--6--6--6--6--6--6--6--6--6--6--6--6--|
E|-------------------------------------------------|-4--4--4--4--4--4--4--4--4--4--4--4--4--4--4--4--|


E|-------------------------------------------------|-------------------------------------------------|
B|-------------------------------------------------|-------------------------------------------------|
G|-------------------------------------------------|-------------------------------------------------|
D|-5--5--5--5--5--5--5--5--5--5--5--5--5--5--5--5--|-6--6--6--6--6--6--6--6--6--6--6--6--6--6--6--6--|
A|-3--3--3--3--3--3--3--3--3--3--3--3--3--3--3--3--|-4--4--4--4--4--4--4--4--4--4--4--4--4--4--4--4--|
E|-------------------------------------------------|-------------------------------------------------|


E|-------------------------------------------------|-------------------------------------------------|
B|-------------------------------------------------|-------------------------------------------------|
G|-------------------------------------------------|-------------------------------------------------|
D|-5--5--5--5--5--5--5--5--5--5--5--5--5--5--5--5--|-------------------------------------------------|
A|-3--3--3--3--3--3--3--3--3--3--3--3--3--3--3--3--|-6--6--6--6--6--6--6--6--6--6--6--6--6--6--6--6--|
E|-------------------------------------------------|-4--4--4--4--4--4--4--4--4--4--4--4--4--4--4--4--|


E|-------------------------------------------------|-------------------------------------------------|
B|-------------------------------------------------|-------------------------------------------------|
G|-------------------------------------------------|-------------------------------------------------|
D|-5--5--5--5--5--5--5--5--5--5--5--5--5--5--5--5--|-6--6--6--6--6--6--6--6--6--6--6--6--6--6--6--6--|
A|-3--3--3--3--3--3--3--3--3--3--3--3--3--3--3--3--|-4--4--4--4--4--4--4--4--4--4--4--4--4--4--4--4--|
E|-------------------------------------------------|-------------------------------------------------|


E|-------------------------------------------------|-------------------------------------------------|
B|-------------------------------------------------|-------------------------------------------------|
G|-------------------------------------------------|-------------------------------------------------|
D|-5--5--5--5--5--5--5--5--5--5--5--5--5--5--5--5--|-------------------------------------------------|
A|-3--3--3--3--3--3--3--3--3--3--3--3--3--3--3--3--|-6--6--6--6--6--6--6--6--6--6--6--6--6--6--6--6--|
E|-------------------------------------------------|-4--4--4--4--4--4--4--4--4--4--4--4--4--4--4--4--|


E|-------------------------------------------------|-------------------------------------------------|
B|-------------------------------------------------|-------------------------------------------------|
G|-------------------------------------------------|-------------------------------------------------|
D|-5--5--5--5--5--5--5--5--5--5--5--5--5--5--5--5--|-6--6--6--6--6--6--6--6--6--6--6--6--6--6--6--6--|
A|-3--3--3--3--3--3--3--3--3--3--3--3--3--3--3--3--|-4--4--4--4--4--4--4--4--4--4--4--4--4--4--4--4--|
E|-------------------------------------------------|-------------------------------------------------|


E|-------------------------------------------------|-------------------------------------------------|
B|-------------------------------------------------|-------------------------------------------------|
G|-------------------------------------------------|-------------------------------------------------|
D|-5--5--5--5--5--5--5--5--5--5--5--5--5--5--5--5--|-------------------------------------------------|
A|-3--3--3--3--3--3--3--3--3--3--3--3--3--3--3--3--|-6--6--6--6--6--6--6--6--6--6--6--6--6--6--6--6--|
E|-------------------------------------------------|-4--4--4--4--4--4--4--4--4--4--4--4--4--4--4--4--|


E|-------------------------------------------------|-------------------------------------------------|
B|-------------------------------------------------|-------------------------------------------------|
G|-------------------------------------------------|-------------------------------------------------|
D|-5--5--5--5--5--5--5--5--5--5--5--5--5--5--5--5--|-6--6--6--6--6--6--6--6--6--6--6--6--6--6--6--6--|
A|-3--3--3--3--3--3--3--3--3--3--3--3--3--3--3--3--|-4--4--4--4--4--4--4--4--4--4--4--4--4--4--4--4--|
E|-------------------------------------------------|-------------------------------------------------|


E|-------------------------------------------------|-------------------------------------------------|
B|-------------------------------------------------|-------------------------------------------------|
G|-------------------------------------------------|-------------------------------------------------|
D|-5--5--5--5--5--5--5--5--5--5--5--5--5--5--5--5--|-------------------------------------------------|
A|-3--3--3--3--3--3--3--3--3--3--3--3--3--3--3--3--|-6--6--6--6--6--6--6--6--6--6--6--6--6--6--6--6--|
E|-------------------------------------------------|-4--4--4--4--4--4--4--4--4--4--4--4--4--4--4--4--|


E|-------------------------------------------------|-------------------------------------------------|
B|-------------------------------------------------|-------------------------------------------------|
G|-------------------------------------------------|-------------------------------------------------|
D|-5--5--5--5--5--5--5--5--5--5--5--5--5--5--5--5--|-6--6--6--6--6--6--6--6--6--6--6--6--6--6--6--6--|
A|-3--3--3--3--3--3--3--3--3--3--3--3--3--3--3--3--|-4--4--4--4--4--4--4--4--4--4--4--4--4--4--4--4--|
E|-------------------------------------------------|-------------------------------------------------|


E|-------------------------------------------------|-------------------------------------------------|
B|-------------------------------------------------|-------------------------------------------------|
G|-------------------------------------------------|-------------------------------------------------|
D|-5--5--5--5--5--5--5--5--5--5--5--5--5--5--5--5--|-------------------------------------------------|
A|-3--3--3--3--3--3--3--3--3--3--3--3--3--3--3--3--|-6--6--6--6--6--6--6--6--6--6--6--6--6--6--6--6--|
E|-------------------------------------------------|-4--4--4--4--4--4--4--4--4--4--4--4--4--4--4--4--|


E|-------------------------------------------------|-------------------------------------------------|
B|-------------------------------------------------|-------------------------------------------------|
G|-------------------------------------------------|-------------------------------------------------|
D|-5--5--5--5--5--5--5--5--5--5--5--5--5--5--5--5--|-6--6--6--6--6--6--6--6--6--6--6--6--6--6--6--6--|
A|-3--3--3--3--3--3--3--3--3--3--3--3--3--3--3--3--|-4--4--4--4--4--4--4--4--4--4--4--4--4--4--4--4--|
E|-------------------------------------------------|-------------------------------------------------|


E|-------------------------------------------------|-------------------------------------------------|
B|-------------------------------------------------|-------------------------------------------------|
G|-------------------------------------------------|-------------------------------------------------|
D|-5--5--5--5--5--5--5--5--5--5--5--5--5--5--5--5--|-------------------------------------------------|
A|-3--3--3--3--3--3--3--3--3--3--3--3--3--3--3--3--|-6--6--6--6--6--6--6--6--6--6--6--6--6--6--6--6--|
E|-------------------------------------------------|-4--4--4--4--4--4--4--4--4--4--4--4--4--4--4--4--|


E|-------------------------------------------------|-------------------------------------------------|
B|-------------------------------------------------|-------------------------------------------------|
G|-------------------------------------------------|-------------------------------------------------|
D|-5--5--5--5--5--5--5--5--5--5--5--5--5--5--5--5--|-6--6--6--6--6--6--6--6--6--6--6--6--6--6--6--6--|
A|-3--3--3--3--3--3--3--3--3--3--3--3--3--3--3--3--|-4--4--4--4--4--4--4--4--4--4--4--4--4--4--4--4--|
E|-------------------------------------------------|-------------------------------------------------|


E|-------------------------------------------------|-------------------------------------------------|
B|-------------------------------------------------|-------------------------------------------------|
G|-------------------------------------------------|-------------------------------------------------|
D|-5--5--5--5--5--5--5--5--5--5--5--5--5--5--5--5--|-------------------------------------------------|
A|-3--3--3--3--3--3--3--3--3--3--3--3--3--3--3--3--|-6--6--6--6--6--6--6--6--6--6--6--6--6--6--6--6--|
E|-------------------------------------------------|-4--4--4--4--4--4--4--4--4--4--4--4--4--4--4--4--|


E|-------------------------------------------------|-------------------------------------------------|
B|-------------------------------------------------|-------------------------------------------------|
G|-------------------------------------------------|-------------------------------------------------|
D|-5--5--5--5--5--5--5--5--5--5--5--5--5--5--5--5--|-6--6--6--6--6--6--6--6--6--6--6--6--6--6--6--6--|
A|-3--3--3--3--3--3--3--3--3--3--3--3--3--3--3--3--|-4--4--4--4--4--4--4--4--4--4--4--4--4--4--4--4--|
E|-------------------------------------------------|-------------------------------------------------|


E|-------------------------------------------------|-------------------------------------------------|
B|-------------------------------------------------|-------------------------------------------------|
G|-------------------------------------------------|-------------------------------------------------|
D|-5--5--5--5--5--5--5--5--5--5--5--5--5--5--5--5--|-------------------------------------------------|
A|-3--3--3--3--3--3--3--3--3--3--3--3--3--3--3--3--|-6--6--6--6--6--6--6--6--6--6--6--6--6--6--6--6--|
E|-------------------------------------------------|-4--4--4--4--4--4--4--4--4--4--4--4--4--4--4--4--|


E|-------------------------------------------------|-------------------------------------------------|
B|-------------------------------------------------|-------------------------------------------------|
G|-------------------------------------------------|-------------------------------------------------|
D|-5--5--5--5--5--5--5--5--5--5--5--5--5--5--5--5--|-6--6--6--6--6--6--6--6--6--6--6--6--6--6--6--6--|
A|-3--3--3--3--3--3--3--3--3--3--3--3--3--3--3--3--|-4--4--4--4--4--4--4--4--4--4--4--4--4--4--4--4--|
E|-------------------------------------------------|-------------------------------------------------|


E|-------------------------------------------------|-------------------------------------------------|
B|-------------------------------------------------|-------------------------------------------------|
G|-------------------------------------------------|-------------------------------------------------|
D|-5--5--5--5--5--5--5--5--5--5--5--5--5--5--5--5--|-------------------------------------------------|
A|-3--3--3--3--3--3--3--3--3--3--3--3--3--3--3--3--|-6--6--6--6--6--6--6--6--6--6--6--6--6--6--6--6--|
E|-------------------------------------------------|-4--4--4--4--4--4--4--4--4--4--4--4--4--4--4--4--|


E|-------------------------------------------------|-------------------------------------------------|
B|-------------------------------------------------|-------------------------------------------------|
G|-------------------------------------------------|-------------------------------------------------|
D|-5--5--5--5--5--5--5--5--5--5--5--5--5--5--5--5--|-6--6--6--6--6--6--6--6--6--6--6--6--6--6--6--6--|
A|-3--3--3--3--3--3--3--3--3--3--3--3--3--3--3--3--|-4--4--4--4--4--4--4--4--4--4--4--4--4--4--4--4--|
E|-------------------------------------------------|-------------------------------------------------|


E|-------------------------------------------------|-------------------------------------------------|
B|-------------------------------------------------|-------------------------------------------------|
G|-------------------------------------------------|-------------------------------------------------|
D|-5--5--5--5--5--5--5--5--5--5--5--5--5--5--5--5--|-------------------------------------------------|
A|-3--3--3--3--3--3--3--3--3--3--3--3--3--3--3--3--|-6--6--6--6--6--6--6--6--6--6--6--6--6--6--6--6--|
E|-------------------------------------------------|-4--4--4--4--4--4--4--4--4--4--4--4--4--4--4--4--|


E|-------------------------------------------------|-------------------------------------------------|
B|-------------------------------------------------|-------------------------------------------------|
G|-------------------------------------------------|-------------------------------------------------|
D|-5--5--5--5--5--5--5--5--5--5--5--5--5--5--5--5--|-6--6--6--6--6--6--6--6--6--6--6--6--6--6--6--6--|
A|-3--3--3--3--3--3--3--3--3--3--3--3--3--3--3--3--|-4--4--4--4--4--4--4--4--4--4--4--4--4--4--4--4--|
E|-------------------------------------------------|-------------------------------------------------|


E|-------------------------------------------------|-------------------------------------------------|
B|-------------------------------------------------|-------------------------------------------------|
G|-------------------------------------------------|-------------------------------------------------|
D|-6--6--6--6--6--6--6--6--------------------------|-------------------------10-10-10-10-8--8--8--8--|
A|-------------------------8--8--8--8--------------|-10-10-10-10-10-10-10-10-------------------------|
E|-------------------------------------10-10-10-10-|-------------------------------------------------|


E|-------------------------------------------------|-------------------------------------------------|
B|-------------------------------------------------|-------------------------------------------------|
G|-------------------------------------------------|-------------------------------------------------|
D|-6--6--6--6--6--6--6--6--------------------------|-------------------------10-10-10-10-8--8--8--8--|
A|-------------------------8--8--8--8--------------|-10-10-10-10-10-10-10-10-------------------------|
E|-------------------------------------10-10-10-10-|-------------------------------------------------|


E|-------------------------------------------------|-------------------------------------------------|
B|-------------------------------------------------|-------------------------------------------------|
G|-------------------------------------------------|-------------------------------------------------|
D|-6--6--6--6--6--6--6--6--------------------------|-------------------------10-10-10-10-8--8--8--8--|
A|-------------------------8--8--8--8--------------|-10-10-10-10-10-10-10-10-------------------------|
E|-------------------------------------10-10-10-10-|-------------------------------------------------|


E|-------------------------------------------------|-------------------------------------------------|
B|-------------------------------------------------|-------------------------------------------------|
G|-------------------------------------------------|-------------------------------------------------|
D|-6--6--6--6--6--6--6--6--------------------------|-------------------------10-10-10-10-8--8--8--8--|
A|-------------------------8--8--8--8--------------|-10-10-10-10-10-10-10-10-------------------------|
E|-------------------------------------10-10-10-10-|-------------------------------------------------|


E|-------------------------------------------------|-------------------------------------------------|
B|-------------------------------------------------|-------------------------------------------------|
G|-------------------------------------------------|-------------------------------------------------|
D|-5--5--5--5--5--5--5--5--5--5--5--5--5--5--5--5--|-------------------------------------------------|
A|-3--3--3--3--3--3--3--3--3--3--3--3--3--3--3--3--|-6--6--6--6--6--6--6--6--6--6--6--6--6--6--6--6--|
E|-------------------------------------------------|-4--4--4--4--4--4--4--4--4--4--4--4--4--4--4--4--|


E|-------------------------------------------------|-------------------------------------------------|
B|-------------------------------------------------|-------------------------------------------------|
G|-------------------------------------------------|-------------------------------------------------|
D|-5--5--5--5--5--5--5--5--5--5--5--5--5--5--5--5--|-6--6--6--6--6--6--6--6--6--6--6--6--6--6--6--6--|
A|-3--3--3--3--3--3--3--3--3--3--3--3--3--3--3--3--|-4--4--4--4--4--4--4--4--4--4--4--4--4--4--4--4--|
E|-------------------------------------------------|-------------------------------------------------|


E|-------------------------------------------------|-------------------------------------------------|
B|-------------------------------------------------|-------------------------------------------------|
G|-------------------------------------------------|-------------------------------------------------|
D|-5--5--5--5--5--5--5--5--5--5--5--5--5--5--5--5--|-------------------------------------------------|
A|-3--3--3--3--3--3--3--3--3--3--3--3--3--3--3--3--|-6--6--6--6--6--6--6--6--6--6--6--6--6--6--6--6--|
E|-------------------------------------------------|-4--4--4--4--4--4--4--4--4--4--4--4--4--4--4--4--|


E|-------------------------------------------------|-------------------------------------------------|
B|-------------------------------------------------|-------------------------------------------------|
G|-------------------------------------------------|-------------------------------------------------|
D|-5--5--5--5--5--5--5--5--5--5--5--5--5--5--5--5--|-6--6--6--6--6--6--6--6--6--6--6--6--6--6--6--6--|
A|-3--3--3--3--3--3--3--3--3--3--3--3--3--3--3--3--|-4--4--4--4--4--4--4--4--4--4--4--4--4--4--4--4--|
E|-------------------------------------------------|-------------------------------------------------|


E|-------------------------------------------------|-------------------------------------------------|
B|-------------------------------------------------|-------------------------------------------------|
G|-------------------------------------------------|-------------------------------------------------|
D|-5--5--5--5--5--5--5--5--5--5--5--5--5--5--5--5--|-------------------------------------------------|
A|-3--3--3--3--3--3--3--3--3--3--3--3--3--3--3--3--|-6--6--6--6--6--6--6--6--6--6--6--6--6--6--6--6--|
E|-------------------------------------------------|-4--4--4--4--4--4--4--4--4--4--4--4--4--4--4--4--|


E|-------------------------------------------------|-------------------------------------------------|
B|-------------------------------------------------|-------------------------------------------------|
G|-------------------------------------------------|-------------------------------------------------|
D|-5--5--5--5--5--5--5--5--5--5--5--5--5--5--5--5--|-6--6--6--6--6--6--6--6--6--6--6--6--6--6--6--6--|
A|-3--3--3--3--3--3--3--3--3--3--3--3--3--3--3--3--|-4--4--4--4--4--4--4--4--4--4--4--4--4--4--4--4--|
E|-------------------------------------------------|-------------------------------------------------|


E|-------------------------------------------------|-------------------------------------------------|
B|-------------------------------------------------|-------------------------------------------------|
G|-------------------------------------------------|-------------------------------------------------|
D|-5--5--5--5--5--5--5--5--5--5--5--5--5--5--5--5--|-------------------------------------------------|
A|-3--3--3--3--3--3--3--3--3--3--3--3--3--3--3--3--|-6--6--6--6--6--6--6--6--6--6--6--6--6--6--6--6--|
E|-------------------------------------------------|-4--4--4--4--4--4--4--4--4--4--4--4--4--4--4--4--|


E|-------------------------------------------------|-------------------------------------------------|
B|-------------------------------------------------|-------------------------------------------------|
G|-------------------------------------------------|-------------------------------------------------|
D|-5--5--5--5--5--5--5--5--5--5--5--5--5--5--5--5--|-6--6--6--6--6--6--6--6--6--6--6--6--6--6--6--6--|
A|-3--3--3--3--3--3--3--3--3--3--3--3--3--3--3--3--|-4--4--4--4--4--4--4--4--4--4--4--4--4--4--4--4--|
E|-------------------------------------------------|-------------------------------------------------|


E|-------------------------------------------------|-------------------------------------------------|
B|-------------------------------------------------|-------------------------------------------------|
G|-------------------------------------------------|-------------------------------------------------|
D|-5--5--5--5--5--5--5--5--5--5--5--5--5--5--5--5--|-------------------------------------------------|
A|-3--3--3--3--3--3--3--3--3--3--3--3--3--3--3--3--|-6--6--6--6--6--6--6--6--6--6--6--6--6--6--6--6--|
E|-------------------------------------------------|-4--4--4--4--4--4--4--4--4--4--4--4--4--4--4--4--|


E|-------------------------------------------------|-------------------------------------------------|
B|-------------------------------------------------|-------------------------------------------------|
G|-------------------------------------------------|-------------------------------------------------|
D|-5--5--5--5--5--5--5--5--5--5--5--5--5--5--5--5--|-6--6--6--6--6--6--6--6--6--6--6--6--6--6--6--6--|
A|-3--3--3--3--3--3--3--3--3--3--3--3--3--3--3--3--|-4--4--4--4--4--4--4--4--4--4--4--4--4--4--4--4--|
E|-------------------------------------------------|-------------------------------------------------|


E|--------|-------------------------------------------------|-------------------------------------------------|
B|--------|-------------------------------------------------|-------------------------------------------------|
G|--------|-------------------------------------------------|-------------------------------------------------|
D|-5------|-5--5--5--5--5--5--5--5--5--5--5--5--5--5--5--5--|-------------------------------------------------|
A|-3------|-3--3--3--3--3--3--3--3--3--3--3--3--3--3--3--3--|-6--6--6--6--6--6--6--6--6--6--6--6--6--6--6--6--|
E|--------|-------------------------------------------------|-4--4--4--4--4--4--4--4--4--4--4--4--4--4--4--4--|


E|-------------------------------------------------|-------------------------------------------------|
B|-------------------------------------------------|-------------------------------------------------|
G|-------------------------------------------------|-------------------------------------------------|
D|-5--5--5--5--5--5--5--5--5--5--5--5--5--5--5--5--|-6--6--6--6--6--6--6--6--6--6--6--6--6--6--6--6--|
A|-3--3--3--3--3--3--3--3--3--3--3--3--3--3--3--3--|-4--4--4--4--4--4--4--4--4--4--4--4--4--4--4--4--|
E|-------------------------------------------------|-------------------------------------------------|


E|--------|
B|--------|
G|--------|
D|-5------|
A|-3------|
E|--------|





Track 2: Lead Guitar

E|--------|--------|--------|--------|--------|--------|--------|--------|--------|
B|--------|--------|--------|--------|--------|--------|--------|--------|--------|
G|--------|--------|--------|--------|--------|--------|--------|--------|--------|
D|--------|--------|--------|--------|--------|--------|--------|--------|--------|
A|--------|--------|--------|--------|--------|--------|--------|--------|--------|
E|--------|--------|--------|--------|--------|--------|--------|--------|--------|


E|--------|--------|--------|--------|--------|--------|--------|--------|--------|
B|--------|--------|--------|--------|--------|--------|--------|--------|--------|
G|--------|--------|--------|--------|--------|--------|--------|--------|--------|
D|--------|--------|--------|--------|--------|--------|--------|--------|--------|
A|--------|--------|--------|--------|--------|--------|--------|--------|--------|
E|--------|--------|--------|--------|--------|--------|--------|--------|--------|


E|--------|--------|--------|--------|--------|--------|-------------------------------------------------|
B|--------|--------|--------|--------|--------|--------|-------------------------------------------------|
G|--------|--------|--------|--------|--------|--------|-------------------------------------------------|
D|--------|--------|--------|--------|--------|--------|-6--6--6--6--6--6--6--6--------------------------|
A|--------|--------|--------|--------|--------|--------|-------------------------8--8--8--8--5--5--5--5--|
E|--------|--------|--------|--------|--------|--------|-------------------------------------------------|


E|-------------------------------------------------|-------------------------------------------------|
B|-------------------------------------------------|-------------------------------------------------|
G|-------------------------------------------------|-------------------------------------------------|
D|-5--5--5--5--5--5--5--5--5--5--5--5--5--5--5--5--|-6--6--6--6--6--6--6--6--------------------------|
A|-------------------------------------------------|-------------------------8--8--8--8--5--5--5--5--|
E|-------------------------------------------------|-------------------------------------------------|


E|-------------------------------------------------|-------------------------------------------------|
B|-------------------------------------------------|-------------------------------------------------|
G|-------------------------------------------------|-------------------------------------------------|
D|-5--5--5--5--5--5--5--5--5--5--5--5--5--5--5--5--|-6--6--6--6--6--6--6--6--------------------------|
A|-------------------------------------------------|-------------------------8--8--8--8--5--5--5--5--|
E|-------------------------------------------------|-------------------------------------------------|


E|-------------------------------------------------|-------------------------------------------------|
B|-------------------------------------------------|-------------------------------------------------|
G|-------------------------------------------------|-------------------------------------------------|
D|-5--5--5--5--5--5--5--5--5--5--5--5--5--5--5--5--|-6--6--6--6--6--6--6--6--------------------------|
A|-------------------------------------------------|-------------------------8--8--8--8--5--5--5--5--|
E|-------------------------------------------------|-------------------------------------------------|


E|-------------------------------------------------|-------------------------------------------------|
B|-------------------------------------------------|-------------------------------------------------|
G|-------------------------------------------------|-------------------------------------------------|
D|-5--5--5--5--5--5--5--5--5--5--5--5--5--5--5--5--|-------------------------5--5--5--5--6--6--6--6--|
A|-------------------------------------------------|-3--3--3--3--3--3--3--3--------------------------|
E|-------------------------------------------------|-------------------------------------------------|


E|-------------------------------------------------|-------------------------------------------------|
B|-------------------------------------------------|-------------------------------------------------|
G|-------------------------------------------------|-------------------------------------------------|
D|-------------------------------------------------|-------------------------5--5--5--5--6--6--6--6--|
A|-------------------------6--6--6--6--5--5--5--5--|-3--3--3--3--3--3--3--3--------------------------|
E|-4--4--4--4--4--4--4--4--------------------------|-------------------------------------------------|


E|-------------------------------------------------|-------------------------------------------------|
B|-------------------------------------------------|-------------------------------------------------|
G|-------------------------------------------------|-------------------------------------------------|
D|-------------------------7--7--7--7--6--6--6--6--|-------------------------5--5--5--5--6--6--6--6--|
A|-4--4--4--4--4--4--4--4--------------------------|-3--3--3--3--3--3--3--3--------------------------|
E|-------------------------------------------------|-------------------------------------------------|


E|-------------------------------------------------|-------------------------------------------------|
B|-------------------------------------------------|-------------------------------------------------|
G|-------------------------------------------------|-------------------------------------------------|
D|-------------------------------------------------|-------------------------5--5--5--5--6--6--6--6--|
A|-------------------------6--6--6--6--5--5--5--5--|-3--3--3--3--3--3--3--3--------------------------|
E|-4--4--4--4--4--4--4--4--------------------------|-------------------------------------------------|


E|-------------------------------------------------|-------------------------------------------------|
B|-------------------------------------------------|-------------------------------------------------|
G|-------------------------------------------------|-------------------------------------------------|
D|-------------------------7--7--7--7--6--6--6--6--|-------------------------5--5--5--5--6--6--6--6--|
A|-4--4--4--4--4--4--4--4--------------------------|-3--3--3--3--3--3--3--3--------------------------|
E|-------------------------------------------------|-------------------------------------------------|


E|-------------------------------------------------|-------------------------------------------------|
B|-------------------------------------------------|-------------------------------------------------|
G|-------------------------------------------------|-------------------------------------------------|
D|-------------------------------------------------|-------------------------5--5--5--5--6--6--6--6--|
A|-------------------------6--6--6--6--5--5--5--5--|-3--3--3--3--3--3--3--3--------------------------|
E|-4--4--4--4--4--4--4--4--------------------------|-------------------------------------------------|


E|-------------------------------------------------|-------------------------------------------------|
B|-------------------------------------------------|-------------------------------------------------|
G|-------------------------------------------------|-------------------------------------------------|
D|-------------------------7--7--7--7--6--6--6--6--|-------------------------5--5--5--5--6--6--6--6--|
A|-4--4--4--4--4--4--4--4--------------------------|-3--3--3--3--3--3--3--3--------------------------|
E|-------------------------------------------------|-------------------------------------------------|


E|-------------------------------------------------|-------------------------------------------------|
B|-------------------------------------------------|-------------------------------------------------|
G|-------------------------------------------------|-------------------------------------------------|
D|-------------------------------------------------|-------------------------5--5--5--5--6--6--6--6--|
A|-------------------------6--6--6--6--5--5--5--5--|-3--3--3--3--3--3--3--3--------------------------|
E|-4--4--4--4--4--4--4--4--------------------------|-------------------------------------------------|


E|-------------------------------------------------|-------------------------------------------------|
B|-------------------------------------------------|-------------------------------------------------|
G|-------------------------------------------------|-------------------------------------------------|
D|-------------------------7--7--7--7--6--6--6--6--|-------------------------5--5--5--5--6--6--6--6--|
A|-4--4--4--4--4--4--4--4--------------------------|-3--3--3--3--3--3--3--3--------------------------|
E|-------------------------------------------------|-------------------------------------------------|


E|-------------------------------------------------|-------------------------------------------------|
B|-------------------------------------------------|-------------------------------------------------|
G|-------------------------------------------------|-------------------------------------------------|
D|-------------------------------------------------|-------------------------5--5--5--5--6--6--6--6--|
A|-------------------------6--6--6--6--5--5--5--5--|-3--3--3--3--3--3--3--3--------------------------|
E|-4--4--4--4--4--4--4--4--------------------------|-------------------------------------------------|


E|-------------------------------------------------|-------------------------------------------------|
B|-------------------------------------------------|-------------------------------------------------|
G|-------------------------------------------------|-------------------------------------------------|
D|-------------------------7--7--7--7--6--6--6--6--|-------------------------5--5--5--5--6--6--6--6--|
A|-4--4--4--4--4--4--4--4--------------------------|-3--3--3--3--3--3--3--3--------------------------|
E|-------------------------------------------------|-------------------------------------------------|


E|-------------------------------------------------|-------------------------------------------------|
B|-------------------------------------------------|-------------------------------------------------|
G|-------------------------------------------------|-------------------------------------------------|
D|-------------------------------------------------|-------------------------5--5--5--5--6--6--6--6--|
A|-------------------------6--6--6--6--5--5--5--5--|-3--3--3--3--3--3--3--3--------------------------|
E|-4--4--4--4--4--4--4--4--------------------------|-------------------------------------------------|


E|-------------------------------------------------|-------------------------------------------------|
B|-------------------------------------------------|-------------------------------------------------|
G|-------------------------------------------------|-------------------------------------------------|
D|-------------------------7--7--7--7--6--6--6--6--|-------------------------5--5--5--5--6--6--6--6--|
A|-4--4--4--4--4--4--4--4--------------------------|-3--3--3--3--3--3--3--3--------------------------|
E|-------------------------------------------------|-------------------------------------------------|


E|-------------------------------------------------|-------------------------------------------------|
B|-------------------------------------------------|-------------------------------------------------|
G|-------------------------------------------------|-------------------------------------------------|
D|-------------------------------------------------|-------------------------5--5--5--5--6--6--6--6--|
A|-------------------------6--6--6--6--5--5--5--5--|-3--3--3--3--3--3--3--3--------------------------|
E|-4--4--4--4--4--4--4--4--------------------------|-------------------------------------------------|


E|-------------------------------------------------|-------------------------------------------------|
B|-------------------------------------------------|-------------------------------------------------|
G|-------------------------------------------------|-------------------------------------------------|
D|-------------------------7--7--7--7--6--6--6--6--|-------------------------5--5--5--5--6--6--6--6--|
A|-4--4--4--4--4--4--4--4--------------------------|-3--3--3--3--3--3--3--3--------------------------|
E|-------------------------------------------------|-------------------------------------------------|


E|-------------------------------------------------|-------------------------------------------------|
B|-------------------------------------------------|-------------------------------------------------|
G|-------------------------------------------------|-------------------------------------------------|
D|-------------------------------------------------|-------------------------5--5--5--5--6--6--6--6--|
A|-------------------------6--6--6--6--5--5--5--5--|-3--3--3--3--3--3--3--3--------------------------|
E|-4--4--4--4--4--4--4--4--------------------------|-------------------------------------------------|


E|-------------------------------------------------|-------------------------------------------------|
B|-------------------------------------------------|-------------------------------------------------|
G|-------------------------------------------------|-------------------------------------------------|
D|-------------------------7--7--7--7--6--6--6--6--|-------------------------5--5--5--5--6--6--6--6--|
A|-4--4--4--4--4--4--4--4--------------------------|-3--3--3--3--3--3--3--3--------------------------|
E|-------------------------------------------------|-------------------------------------------------|


E|-------------------------------------------------|-------------------------------------------------|
B|-------------------------------------------------|-------------------------------------------------|
G|-------------------------------------------------|-------------------------------------------------|
D|-------------------------------------------------|-------------------------5--5--5--5--6--6--6--6--|
A|-------------------------6--6--6--6--5--5--5--5--|-3--3--3--3--3--3--3--3--------------------------|
E|-4--4--4--4--4--4--4--4--------------------------|-------------------------------------------------|


E|-------------------------------------------------|-------------------------------------------------|
B|-------------------------------------------------|-------------------------------------------------|
G|-------------------------------------------------|-------------------------------------------------|
D|-------------------------7--7--7--7--6--6--6--6--|-------------------------5--5--5--5--6--6--6--6--|
A|-4--4--4--4--4--4--4--4--------------------------|-3--3--3--3--3--3--3--3--------------------------|
E|-------------------------------------------------|-------------------------------------------------|


E|-------------------------------------------------|-------------------------------------------------|
B|-------------------------------------------------|-------------------------------------------------|
G|-------------------------------------------------|-------------------------------------------------|
D|-------------------------------------------------|-------------------------5--5--5--5--6--6--6--6--|
A|-------------------------6--6--6--6--5--5--5--5--|-3--3--3--3--3--3--3--3--------------------------|
E|-4--4--4--4--4--4--4--4--------------------------|-------------------------------------------------|


E|-------------------------------------------------|-------------------------------------------------|
B|-------------------------------------------------|-------------------------------------------------|
G|-------------------------------------------------|-------------------------------------------------|
D|-------------------------7--7--7--7--6--6--6--6--|-------------------------5--5--5--5--6--6--6--6--|
A|-4--4--4--4--4--4--4--4--------------------------|-3--3--3--3--3--3--3--3--------------------------|
E|-------------------------------------------------|-------------------------------------------------|


E|-------------------------------------------------|-------------------------------------------------|
B|-------------------------------------------------|-------------------------------------------------|
G|-------------------------------------------------|-------------------------------------------------|
D|-------------------------------------------------|-------------------------5--5--5--5--6--6--6--6--|
A|-------------------------6--6--6--6--5--5--5--5--|-3--3--3--3--3--3--3--3--------------------------|
E|-4--4--4--4--4--4--4--4--------------------------|-------------------------------------------------|


E|-------------------------------------------------|-------------------------------------------------|
B|-------------------------------------------------|-------------------------------------------------|
G|-------------------------------------------------|-------------------------------------------------|
D|-------------------------7--7--7--7--6--6--6--6--|-------------------------5--5--5--5--6--6--6--6--|
A|-4--4--4--4--4--4--4--4--------------------------|-3--3--3--3--3--3--3--3--------------------------|
E|-------------------------------------------------|-------------------------------------------------|


E|-------------------------------------------------|-------------------------------------------------|
B|-------------------------------------------------|-------------------------------------------------|
G|-------------------------------------------------|-------------------------------------------------|
D|-------------------------------------------------|-------------------------5--5--5--5--6--6--6--6--|
A|-------------------------6--6--6--6--5--5--5--5--|-3--3--3--3--3--3--3--3--------------------------|
E|-4--4--4--4--4--4--4--4--------------------------|-------------------------------------------------|


E|-------------------------------------------------|-------------------------------------------------|
B|-------------------------------------------------|-------------------------------------------------|
G|-------------------------------------------------|-------------------------------------------------|
D|-------------------------7--7--7--7--6--6--6--6--|-------------------------5--5--5--5--6--6--6--6--|
A|-4--4--4--4--4--4--4--4--------------------------|-3--3--3--3--3--3--3--3--------------------------|
E|-------------------------------------------------|-------------------------------------------------|


E|-------------------------------------------------|-------------------------------------------------|
B|-------------------------------------------------|-------------------------------------------------|
G|-------------------------------------------------|-------------------------------------------------|
D|-------------------------------------------------|-------------------------5--5--5--5--6--6--6--6--|
A|-------------------------6--6--6--6--5--5--5--5--|-3--3--3--3--3--3--3--3--------------------------|
E|-4--4--4--4--4--4--4--4--------------------------|-------------------------------------------------|


E|-------------------------------------------------|-------------------------------------------------|
B|-------------------------------------------------|-------------------------------------------------|
G|-------------------------------------------------|-------------------------------------------------|
D|-------------------------7--7--7--7--6--6--6--6--|-6--6--6--6--6--6--6--6--------------------------|
A|-4--4--4--4--4--4--4--4--------------------------|-------------------------8--8--8--8--------------|
E|-------------------------------------------------|-------------------------------------10-10-10-10-|


E|-------------------------------------------------|-------------------------------------------------|
B|-------------------------------------------------|-------------------------------------------------|
G|-------------------------------------------------|-------------------------------------------------|
D|-------------------------------------------------|-6--6--6--6--6--6--6--6--------------------------|
A|-10-10-10-10-10-10-10-10-10-10-10-10-10-10-10-10-|-------------------------8--8--8--8--------------|
E|-------------------------------------------------|-------------------------------------10-10-10-10-|


E|-------------------------------------------------|-------------------------------------------------|
B|-------------------------------------------------|-------------------------------------------------|
G|-------------------------------------------------|-------------------------------------------------|
D|-------------------------------------------------|-6--6--6--6--6--6--6--6--------------------------|
A|-10-10-10-10-10-10-10-10-10-10-10-10-10-10-10-10-|-------------------------8--8--8--8--------------|
E|-------------------------------------------------|-------------------------------------10-10-10-10-|


E|-------------------------------------------------|-------------------------------------------------|
B|-------------------------------------------------|-------------------------------------------------|
G|-------------------------------------------------|-------------------------------------------------|
D|-------------------------------------------------|-6--6--6--6--6--6--6--6--------------------------|
A|-10-10-10-10-10-10-10-10-10-10-10-10-10-10-10-10-|-------------------------8--8--8--8--------------|
E|-------------------------------------------------|-------------------------------------10-10-10-10-|


E|-------------------------------------------------|-------------------------------------------------|
B|-------------------------------------------------|-------------------------------------------------|
G|-------------------------------------------------|-------------------------------------------------|
D|-------------------------------------------------|-------------------------5--5--5--5--6--6--6--6--|
A|-10-10-10-10-10-10-10-10-10-10-10-10-10-10-10-10-|-3--3--3--3--3--3--3--3--------------------------|
E|-------------------------------------------------|-------------------------------------------------|


E|-------------------------------------------------|-------------------------------------------------|
B|-------------------------------------------------|-------------------------------------------------|
G|-------------------------------------------------|-------------------------------------------------|
D|-------------------------------------------------|-------------------------5--5--5--5--6--6--6--6--|
A|-------------------------6--6--6--6--5--5--5--5--|-3--3--3--3--3--3--3--3--------------------------|
E|-4--4--4--4--4--4--4--4--------------------------|-------------------------------------------------|


E|-------------------------------------------------|-------------------------------------------------|
B|-------------------------------------------------|-------------------------------------------------|
G|-------------------------------------------------|-------------------------------------------------|
D|-------------------------7--7--7--7--6--6--6--6--|-------------------------5--5--5--5--6--6--6--6--|
A|-4--4--4--4--4--4--4--4--------------------------|-3--3--3--3--3--3--3--3--------------------------|
E|-------------------------------------------------|-------------------------------------------------|


E|-------------------------------------------------|-------------------------------------------------|
B|-------------------------------------------------|-------------------------------------------------|
G|-------------------------------------------------|-------------------------------------------------|
D|-------------------------------------------------|-------------------------5--5--5--5--6--6--6--6--|
A|-------------------------6--6--6--6--5--5--5--5--|-3--3--3--3--3--3--3--3--------------------------|
E|-4--4--4--4--4--4--4--4--------------------------|-------------------------------------------------|


E|-------------------------------------------------|-------------------------------------------------|
B|-------------------------------------------------|-------------------------------------------------|
G|-------------------------------------------------|-------------------------------------------------|
D|-------------------------7--7--7--7--6--6--6--6--|-------------------------5--5--5--5--6--6--6--6--|
A|-4--4--4--4--4--4--4--4--------------------------|-3--3--3--3--3--3--3--3--------------------------|
E|-------------------------------------------------|-------------------------------------------------|


E|-------------------------------------------------|-------------------------------------------------|
B|-------------------------------------------------|-------------------------------------------------|
G|-------------------------------------------------|-------------------------------------------------|
D|-------------------------------------------------|-------------------------5--5--5--5--6--6--6--6--|
A|-------------------------6--6--6--6--5--5--5--5--|-3--3--3--3--3--3--3--3--------------------------|
E|-4--4--4--4--4--4--4--4--------------------------|-------------------------------------------------|


E|-------------------------------------------------|-------------------------------------------------|
B|-------------------------------------------------|-------------------------------------------------|
G|-------------------------------------------------|-------------------------------------------------|
D|-------------------------7--7--7--7--6--6--6--6--|-------------------------5--5--5--5--6--6--6--6--|
A|-4--4--4--4--4--4--4--4--------------------------|-3--3--3--3--3--3--3--3--------------------------|
E|-------------------------------------------------|-------------------------------------------------|


E|-------------------------------------------------|-------------------------------------------------|
B|-------------------------------------------------|-------------------------------------------------|
G|-------------------------------------------------|-------------------------------------------------|
D|-------------------------------------------------|-------------------------5--5--5--5--6--6--6--6--|
A|-------------------------6--6--6--6--5--5--5--5--|-3--3--3--3--3--3--3--3--------------------------|
E|-4--4--4--4--4--4--4--4--------------------------|-------------------------------------------------|


E|-------------------------------------------------|-------------------------------------------------|
B|-------------------------------------------------|-------------------------------------------------|
G|-------------------------------------------------|-------------------------------------------------|
D|-------------------------7--7--7--7--6--6--6--6--|-------------------------5--5--5--5--6--6--6--6--|
A|-4--4--4--4--4--4--4--4--------------------------|-3--3--3--3--3--3--3--3--------------------------|
E|-------------------------------------------------|-------------------------------------------------|


E|-------------------------------------------------|-------------------------------------------------|
B|-------------------------------------------------|-------------------------------------------------|
G|-------------------------------------------------|-------------------------------------------------|
D|-------------------------------------------------|-------------------------5--5--5--5--6--6--6--6--|
A|-------------------------6--6--6--6--5--5--5--5--|-3--3--3--3--3--3--3--3--------------------------|
E|-4--4--4--4--4--4--4--4--------------------------|-------------------------------------------------|


E|-------------------------------------------------|-------------------------------------------------|
B|-------------------------------------------------|-------------------------------------------------|
G|-------------------------------------------------|-------------------------------------------------|
D|-------------------------7--7--7--7--6--6--6--6--|-------------------------5--5--5--5--6--6--6--6--|
A|-4--4--4--4--4--4--4--4--------------------------|-3--3--3--3--3--3--3--3--------------------------|
E|-------------------------------------------------|-------------------------------------------------|


E|-------------------------------------------------|-------------------------------------------------|
B|-------------------------------------------------|-------------------------------------------------|
G|-------------------------------------------------|-------------------------------------------------|
D|-------------------------------------------------|-------------------------5--5--5--5--6--6--6--6--|
A|-------------------------6--6--6--6--5--5--5--5--|-3--3--3--3--3--3--3--3--------------------------|
E|-4--4--4--4--4--4--4--4--------------------------|-------------------------------------------------|


E|-------------------------------------------------|-------------------------------------------------|
B|-------------------------------------------------|-------------------------------------------------|
G|-------------------------------------------------|-------------------------------------------------|
D|-------------------------7--7--7--7--6--6--6--6--|-------------------------5--5--5--5--6--6--6--6--|
A|-4--4--4--4--4--4--4--4--------------------------|-3--3--3--3--3--3--3--3--------------------------|
E|-------------------------------------------------|-------------------------------------------------|


E|-------------------------------------------------|-------------------------------------------------|
B|-------------------------------------------------|-------------------------------------------------|
G|-------------------------------------------------|-------------------------------------------------|
D|-------------------------------------------------|-------------------------5--5--5--5--6--6--6--6--|
A|-------------------------6--6--6--6--5--5--5--5--|-3--3--3--3--3--3--3--3--------------------------|
E|-4--4--4--4--4--4--4--4--------------------------|-------------------------------------------------|


E|-------------------------------------------------|-------------------------------------------------|
B|-------------------------------------------------|-------------------------------------------------|
G|-------------------------------------------------|-------------------------------------------------|
D|-------------------------7--7--7--7--6--6--6--6--|-------------------------5--5--5--5--6--6--6--6--|
A|-4--4--4--4--4--4--4--4--------------------------|-3--3--3--3--3--3--3--3--------------------------|
E|-------------------------------------------------|-------------------------------------------------|


E|-------------------------------------------------|-------------------------------------------------|
B|-------------------------------------------------|-------------------------------------------------|
G|-------------------------------------------------|-------------------------------------------------|
D|-------------------------------------------------|-------------------------5--5--5--5--6--6--6--6--|
A|-------------------------6--6--6--6--5--5--5--5--|-3--3--3--3--3--3--3--3--------------------------|
E|-4--4--4--4--4--4--4--4--------------------------|-------------------------------------------------|


E|-------------------------------------------------|-------------------------------------------------|
B|-------------------------------------------------|-------------------------------------------------|
G|-------------------------------------------------|-------------------------------------------------|
D|-------------------------7--7--7--7--6--6--6--6--|-------------------------5--5--5--5--6--6--6--6--|
A|-4--4--4--4--4--4--4--4--------------------------|-3--3--3--3--3--3--3--3--------------------------|
E|-------------------------------------------------|-------------------------------------------------|


E|-------------------------------------------------|-------------------------------------------------|
B|-------------------------------------------------|-------------------------------------------------|
G|-------------------------------------------------|-------------------------------------------------|
D|-------------------------------------------------|-------------------------5--5--5--5--6--6--6--6--|
A|-------------------------6--6--6--6--5--5--5--5--|-3--3--3--3--3--3--3--3--------------------------|
E|-4--4--4--4--4--4--4--4--------------------------|-------------------------------------------------|


E|-------------------------------------------------|-------------------------------------------------|
B|-------------------------------------------------|-------------------------------------------------|
G|-------------------------------------------------|-------------------------------------------------|
D|-------------------------7--7--7--7--6--6--6--6--|-------------------------5--5--5--5--6--6--6--6--|
A|-4--4--4--4--4--4--4--4--------------------------|-3--3--3--3--3--3--3--3--------------------------|
E|-------------------------------------------------|-------------------------------------------------|


E|-------------------------------------------------|-------------------------------------------------|
B|-------------------------------------------------|-------------------------------------------------|
G|-------------------------------------------------|-------------------------------------------------|
D|-------------------------------------------------|-------------------------5--5--5--5--6--6--6--6--|
A|-------------------------6--6--6--6--5--5--5--5--|-3--3--3--3--3--3--3--3--------------------------|
E|-4--4--4--4--4--4--4--4--------------------------|-------------------------------------------------|


E|-------------------------------------------------|-------------------------------------------------|
B|-------------------------------------------------|-------------------------------------------------|
G|-------------------------------------------------|-------------------------------------------------|
D|-------------------------7--7--7--7--6--6--6--6--|-------------------------5--5--5--5--6--6--6--6--|
A|-4--4--4--4--4--4--4--4--------------------------|-3--3--3--3--3--3--3--3--------------------------|
E|-------------------------------------------------|-------------------------------------------------|


E|-------------------------------------------------|-------------------------------------------------|
B|-------------------------------------------------|-------------------------------------------------|
G|-------------------------------------------------|-------------------------------------------------|
D|-------------------------------------------------|-------------------------5--5--5--5--6--6--6--6--|
A|-------------------------6--6--6--6--5--5--5--5--|-3--3--3--3--3--3--3--3--------------------------|
E|-4--4--4--4--4--4--4--4--------------------------|-------------------------------------------------|


E|-------------------------------------------------|-------------------------------------------------|
B|-------------------------------------------------|-------------------------------------------------|
G|-------------------------------------------------|-------------------------------------------------|
D|-------------------------7--7--7--7--6--6--6--6--|-------------------------5--5--5--5--6--6--6--6--|
A|-4--4--4--4--4--4--4--4--------------------------|-3--3--3--3--3--3--3--3--------------------------|
E|-------------------------------------------------|-------------------------------------------------|


E|-------------------------------------------------|-------------------------------------------------|
B|-------------------------------------------------|-------------------------------------------------|
G|-------------------------------------------------|-------------------------------------------------|
D|-------------------------------------------------|-------------------------5--5--5--5--6--6--6--6--|
A|-------------------------6--6--6--6--5--5--5--5--|-3--3--3--3--3--3--3--3--------------------------|
E|-4--4--4--4--4--4--4--4--------------------------|-------------------------------------------------|


E|-------------------------------------------------|-------------------------------------------------|
B|-------------------------------------------------|-------------------------------------------------|
G|-------------------------------------------------|-------------------------------------------------|
D|-------------------------7--7--7--7--6--6--6--6--|-------------------------5--5--5--5--6--6--6--6--|
A|-4--4--4--4--4--4--4--4--------------------------|-3--3--3--3--3--3--3--3--------------------------|
E|-------------------------------------------------|-------------------------------------------------|


E|-------------------------------------------------|-------------------------------------------------|
B|-------------------------------------------------|-------------------------------------------------|
G|-------------------------------------------------|-------------------------------------------------|
D|-------------------------------------------------|-------------------------5--5--5--5--6--6--6--6--|
A|-------------------------6--6--6--6--5--5--5--5--|-3--3--3--3--3--3--3--3--------------------------|
E|-4--4--4--4--4--4--4--4--------------------------|-------------------------------------------------|


E|-------------------------------------------------|-------------------------------------------------|
B|-------------------------------------------------|-------------------------------------------------|
G|-------------------------------------------------|-------------------------------------------------|
D|-------------------------7--7--7--7--6--6--6--6--|-6--6--6--6--6--6--6--6--------------------------|
A|-4--4--4--4--4--4--4--4--------------------------|-------------------------8--8--8--8--------------|
E|-------------------------------------------------|-------------------------------------10-10-10-10-|


E|-------------------------------------------------|-------------------------------------------------|
B|-------------------------------------------------|-------------------------------------------------|
G|-------------------------------------------------|-------------------------------------------------|
D|-------------------------------------------------|-6--6--6--6--6--6--6--6--------------------------|
A|-10-10-10-10-10-10-10-10-10-10-10-10-10-10-10-10-|-------------------------8--8--8--8--------------|
E|-------------------------------------------------|-------------------------------------10-10-10-10-|


E|-------------------------------------------------|-------------------------------------------------|
B|-------------------------------------------------|-------------------------------------------------|
G|-------------------------------------------------|-------------------------------------------------|
D|-------------------------------------------------|-6--6--6--6--6--6--6--6--------------------------|
A|-10-10-10-10-10-10-10-10-10-10-10-10-10-10-10-10-|-------------------------8--8--8--8--------------|
E|-------------------------------------------------|-------------------------------------10-10-10-10-|


E|-------------------------------------------------|-------------------------------------------------|
B|-------------------------------------------------|-------------------------------------------------|
G|-------------------------------------------------|-------------------------------------------------|
D|-------------------------------------------------|-6--6--6--6--6--6--6--6--------------------------|
A|-10-10-10-10-10-10-10-10-10-10-10-10-10-10-10-10-|-------------------------8--8--8--8--------------|
E|-------------------------------------------------|-------------------------------------10-10-10-10-|


E|-------------------------------------------------|----------------------------------------|
B|-------------------------------------------------|----------------------------------------|
G|-------------------------------------------------|-5----8--7--5--5--8--7--5--5--8--7--5---|
D|-------------------------------------------------|----------------------------------------|
A|-10-10-10-10-10-10-10-10-10-10-10-10-10-10-10-10-|----------------------------------------|
E|-------------------------------------------------|----------------------------------------|


E|----------------------------------------|----------------------------------------|
B|------7--6--------7--6--------7--6------|----------------------------------------|
G|-8----------8--8--------8--8--------8---|-5----8--7--5--5--8--7--5--5--8--7--5---|
D|----------------------------------------|----------------------------------------|
A|----------------------------------------|----------------------------------------|
E|----------------------------------------|----------------------------------------|


E|-------------------------------------------------|----------------------------------------|
B|-------------------------------------------------|----------------------------------------|
G|-6--6--8--8--9--9--8--8--6--6--8--8--9--9--8--8--|-5----8--7--5--5--8--7--5--5--8--7--5---|
D|-------------------------------------------------|----------------------------------------|
A|-------------------------------------------------|----------------------------------------|
E|-------------------------------------------------|----------------------------------------|


E|----------------------------------------|----------------------------------------|
B|------7--6--------7--6--------7--6------|----------------------------------------|
G|-8----------8--8--------8--8--------8---|-5----8--7--5--5--8--7--5--5--8--7--5---|
D|----------------------------------------|----------------------------------------|
A|----------------------------------------|----------------------------------------|
E|----------------------------------------|----------------------------------------|


E|-------------------------------------------------|----------------------------------------|
B|-------------------------------------------------|----------------------------------------|
G|-6--6--8--8--9--9--8--8--6--6--8--8--9--9--8--8--|-5----8--7--5--5--8--7--5--5--8--7--5---|
D|-------------------------------------------------|----------------------------------------|
A|-------------------------------------------------|----------------------------------------|
E|-------------------------------------------------|----------------------------------------|


E|----------------------------------------|----------------------------------------|
B|------7--6--------7--6--------7--6------|----------------------------------------|
G|-8----------8--8--------8--8--------8---|-5----8--7--5--5--8--7--5--5--8--7--5---|
D|----------------------------------------|----------------------------------------|
A|----------------------------------------|----------------------------------------|
E|----------------------------------------|----------------------------------------|


E|-------------------------------------------------|----------------------------------------|
B|-------------------------------------------------|----------------------------------------|
G|-6--6--8--8--9--9--8--8--6--6--8--8--9--9--8--8--|-5----8--7--5--5--8--7--5--5--8--7--5---|
D|-------------------------------------------------|----------------------------------------|
A|-------------------------------------------------|----------------------------------------|
E|-------------------------------------------------|----------------------------------------|


E|----------------------------------------|----------------------------------------|
B|------7--6--------7--6--------7--6------|----------------------------------------|
G|-8----------8--8--------8--8--------8---|-5----8--7--5--5--8--7--5--5--8--7--5---|
D|----------------------------------------|----------------------------------------|
A|----------------------------------------|----------------------------------------|
E|----------------------------------------|----------------------------------------|


E|-------------------------------------------------|-------------------------------------------------|
B|-------------------------------------------------|-------------------------------------------------|
G|-6--6--8--8--9--9--8--8--6--6--8--8--9--9--8--8--|-------------------------------------------------|
D|-------------------------------------------------|-------------------------5--5--5--5--6--6--6--6--|
A|-------------------------------------------------|-3--3--3--3--3--3--3--3--------------------------|
E|-------------------------------------------------|-------------------------------------------------|


E|-------------------------------------------------|-------------------------------------------------|
B|-------------------------------------------------|-------------------------------------------------|
G|-------------------------------------------------|-------------------------------------------------|
D|-------------------------------------------------|-------------------------5--5--5--5--6--6--6--6--|
A|-------------------------6--6--6--6--5--5--5--5--|-3--3--3--3--3--3--3--3--------------------------|
E|-4--4--4--4--4--4--4--4--------------------------|-------------------------------------------------|


E|-------------------------------------------------|--------|-------------------------------------------------|
B|-------------------------------------------------|--------|-------------------------------------------------|
G|-------------------------------------------------|--------|-------------------------------------------------|
D|-------------------------7--7--7--7--6--6--6--6--|--------|-------------------------5--5--5--5--6--6--6--6--|
A|-4--4--4--4--4--4--4--4--------------------------|--------|-3--3--3--3--3--3--3--3--------------------------|
E|-------------------------------------------------|--------|-------------------------------------------------|


E|-------------------------------------------------|-------------------------------------------------|
B|-------------------------------------------------|-------------------------------------------------|
G|-------------------------------------------------|-------------------------------------------------|
D|-------------------------------------------------|-------------------------5--5--5--5--6--6--6--6--|
A|-------------------------6--6--6--6--5--5--5--5--|-3--3--3--3--3--3--3--3--------------------------|
E|-4--4--4--4--4--4--4--4--------------------------|-------------------------------------------------|


E|-------------------------------------------------|--------|
B|-------------------------------------------------|--------|
G|-------------------------------------------------|--------|
D|-------------------------7--7--7--7--6--6--6--6--|--------|
A|-4--4--4--4--4--4--4--4--------------------------|--------|
E|-------------------------------------------------|--------|