Site menu:

    

Browse: 0-9 A B C D E F G H I J K L N O P Q R S T U V W X Y Z

bright eyes - haligh haligh a lie haligh:



Title: Haligh, Haligh, A Lie, Haligh
Artist: 
Album: Fevers and Mirrors
Author: Bright Eyes


Track 1: Acoustic

E|----------2----------------|----------2----------------|------------------------|
B|---------------2-----------|---------------2-----------|----------3----2----3---|
G|------2----------------2---|------2----------------2---|------2-----------------|
D|-4-----------------4-------|-0-----------------0-------|------------------------|
A|---------------------------|---------------------------|-0----------------------|
E|---------------------------|---------------------------|------------------------|


E|------2---------------------|----------2----------------|----------2----------------|
B|------3---------------------|---------------2-----------|---------------2-----------|
G|------4---------------------|------2----------------2---|------2----------------2---|
D|------4-----------------0---|-4-----------------4-------|-0-----------------0-------|
A|-2----------2---2---4-------|---------------------------|---------------------------|
E|----------------------------|---------------------------|---------------------------|


E|------------------------|------2---------------------|----------2----------------|
B|----------3----2----3---|------3---------------------|---------------2-----------|
G|------2-----------------|------4---------------------|------2----------------2---|
D|------------------------|------4-----------------0---|-4-----------------4-------|
A|-0----------------------|-2----------2---2---4-------|---------------------------|
E|------------------------|----------------------------|---------------------------|


E|----------2----------------|---------------------------|------2---------------------|
B|---------------2-----------|----------3----2-----------|------3---------------------|
G|------2----------------2---|------2----------------2---|------4---------------------|
D|-0-----------------0-------|-------------------2-------|------4-----------------0---|
A|---------------------------|-0-------------------------|-2----------2---2---4-------|
E|---------------------------|---------------------------|----------------------------|


E|----------2----------------|----------2----------------|---------------------------|
B|---------------2-----------|---------------2-----------|----------3----2-----------|
G|------2----------------2---|------2----------------2---|------2----------------2---|
D|-4-----------------4-------|-0-----------------0-------|-------------------2-------|
A|---------------------------|---------------------------|-0-------------------------|
E|---------------------------|---------------------------|---------------------------|


E|------2---------------------|----------2----------------|----------2----------------|
B|------3---------------------|---------------2-----------|---------------2-----------|
G|------4---------------------|------2----------------2---|------2----------------2---|
D|------4-----------------0---|-4-----------------4-------|-0-----------------0-------|
A|-2----------2---2---4-------|---------------------------|---------------------------|
E|----------------------------|---------------------------|---------------------------|


E|---------------------------|------2---------------------|----------2----------------|
B|----------3----2-----------|------3---------------------|---------------2-----------|
G|------2----------------2---|------4---------------------|------2----------------2---|
D|-------------------2-------|------4-----------------0---|-4-----------------4-------|
A|-0-------------------------|-2----------2---2---4-------|---------------------------|
E|---------------------------|----------------------------|---------------------------|


E|----------2----------------|---------------------------|------2---------------------|
B|---------------2-----------|----------3----2-----------|------3---------------------|
G|------2----------------2---|------2----------------2---|------4---------------------|
D|-0-----------------0-------|-------------------2-------|------4-----------------0---|
A|---------------------------|-0-------------------------|-2----------2---2---4-------|
E|---------------------------|---------------------------|----------------------------|


E|----------2----------------|----------2----------------|---------------------------|
B|---------------2-----------|---------------2-----------|----------3----2-----------|
G|------2----------------2---|------2----------------2---|------2----------------2---|
D|-4-----------------4-------|-0-----------------0-------|-------------------2-------|
A|---------------------------|---------------------------|-0-------------------------|
E|---------------------------|---------------------------|---------------------------|


E|------2---------------------|----------2----------------|----------2----------------|
B|------3---------------------|---------------2-----------|---------------2-----------|
G|------4---------------------|------2----------------2---|------2----------------2---|
D|------4-----------------0---|-4-----------------4-------|-0-----------------0-------|
A|-2----------2---2---4-------|---------------------------|---------------------------|
E|----------------------------|---------------------------|---------------------------|


E|---------------------------|------2---------------------|----------2----------------|
B|----------3----2-----------|------3---------------------|---------------2-----------|
G|------2----------------2---|------4---------------------|------2----------------2---|
D|-------------------2-------|------4-----------------0---|-4-----------------4-------|
A|-0-------------------------|-2----------2---2---4-------|---------------------------|
E|---------------------------|----------------------------|---------------------------|


E|----------2----------------|---------------------------|------2---------------------|
B|---------------2-----------|----------3----2-----------|------3---------------------|
G|------2----------------2---|------2----------------2---|------4---------------------|
D|-0-----------------0-------|-------------------2-------|------4-----------------0---|
A|---------------------------|-0-------------------------|-2----------2---2---4-------|
E|---------------------------|---------------------------|----------------------------|


E|----------2----------------|----------2----------------|---------------------------|
B|---------------2-----------|---------------2-----------|----------3----2-----------|
G|------2----------------2---|------2----------------2---|------2----------------2---|
D|-4-----------------4-------|-0-----------------0-------|-------------------2-------|
A|---------------------------|---------------------------|-0-------------------------|
E|---------------------------|---------------------------|---------------------------|


E|--------|-3----3----3----3----|-2----2---2----2---2---2---|-2----2---2----2---2---2---|
B|--------|-3----3----3----3----|-3----3---3----3---3---3---|-3----3---3----3---3---3---|
G|-0------|-0----0----0----0----|-4----4---4----4---4---4---|-4----4---4----4---4---4---|
D|--------|-0----0----0----0----|-4----4---4----4---4---4---|-4----4---4----4---4---4---|
A|--------|---------------------|-2----2---2----2---2---2---|-2----2---2----2---2---2---|
E|--------|---------------------|---------------------------|---------------------------|


E|-0----0---0----0---0---0---|-0----0---0----0---0---0---|-3----3---3----3---3---3---|
B|-2----2---2----2---2---2---|-2----2---2----2---2---2---|-3----3---3----3---3---3---|
G|-2----2---2----2---2---2---|-2----2---2----2---2---2---|-0----0---0----0---0---0---|
D|-2----2---2----2---2---2---|-2----2---2----2---2---2---|-0----0---0----0---0---0---|
A|-0----0---0----0---0---0---|-0----0---0----0---0---0---|-2----2---2----2---2---2---|
E|---------------------------|---------------------------|-3----3---3----3---3---3---|


E|-3----3---3----3---3---3---|-0----0---0----0---0---0---|-0----0---0----0---0---0---|
B|-3----3---3----3---3---3---|-2----2---2----2---2---2---|-2----2---2----2---2---2---|
G|-0----0---0----0---0---0---|-2----2---2----2---2---2---|-2----2---2----2---2---2---|
D|-0----0---0----0---0---0---|-2----2---2----2---2---2---|-2----2---2----2---2---2---|
A|-2----2---2----2---2---2---|-0----0---0----0---0---0---|-0----0---0----0---0---0---|
E|-3----3---3----3---3---3---|---------------------------|---------------------------|


E|-2----2---2----2---2---2---|-2----2---2----2---2---2---|-0----0---0----0---0---0---|
B|-3----3---3----3---3---3---|-3----3---3----3---3---3---|-2----2---2----2---2---2---|
G|-4----4---4----4---4---4---|-4----4---4----4---4---4---|-2----2---2----2---2---2---|
D|-4----4---4----4---4---4---|-4----4---4----4---4---4---|-2----2---2----2---2---2---|
A|-2----2---2----2---2---2---|-2----2---2----2---2---2---|-0----0---0----0---0---0---|
E|---------------------------|---------------------------|---------------------------|


E|-0----0---0----0---0---0---|-3----3---3----3---3---3---|-3----3---3----3---3---3---|
B|-2----2---2----2---2---2---|-3----3---3----3---3---3---|-3----3---3----3---3---3---|
G|-2----2---2----2---2---2---|-0----0---0----0---0---0---|-0----0---0----0---0---0---|
D|-2----2---2----2---2---2---|-0----0---0----0---0---0---|-0----0---0----0---0---0---|
A|-0----0---0----0---0---0---|-2----2---2----2---2---2---|-2----2---2----2---2---2---|
E|---------------------------|-3----3---3----3---3---3---|-3----3---3----3---3---3---|


E|-0----0---0----0---0---0---|-0----0---0----0---0---0---|------2------|-2-----2-------------------|
B|-2----2---2----2---2---2---|-2----2---2----2---2---2---|------3------|-3-----3-------------------|
G|-2----2---2----2---2---2---|-2----2---2----2---2---2---|------4------|-4-----4-------------------|
D|-2----2---2----2---2---2---|-2----2---2----2---2---2---|------4------|-4-----4---------------0---|
A|-0----0---0----0---0---0---|-0----0---0----0---0---0---|------2------|-2-----2---2---2---4-------|
E|---------------------------|---------------------------|-------------|---------------------------|


E|----------2----------------|----------2----------------|---------------------------|
B|---------------2-----------|---------------2-----------|----------3----2-----------|
G|------2----------------2---|------2----------------2---|------2----------------2---|
D|-4-----------------4-------|-0-----------------0-------|-------------------2-------|
A|---------------------------|---------------------------|-0-------------------------|
E|---------------------------|---------------------------|---------------------------|


E|------2---------------------|----------2----------------|----------2----------------|
B|------3---------------------|---------------2-----------|---------------2-----------|
G|------4---------------------|------2----------------2---|------2----------------2---|
D|------4-----------------0---|-4-----------------4-------|-0-----------------0-------|
A|-2----------2---2---4-------|---------------------------|---------------------------|
E|----------------------------|---------------------------|---------------------------|


E|---------------------------|------2---------------------|----------2----------------|
B|----------3----2-----------|------3---------------------|---------------2-----------|
G|------2----------------2---|------4---------------------|------2----------------2---|
D|-------------------2-------|------4-----------------0---|-4-----------------4-------|
A|-0-------------------------|-2----------2---2---4-------|---------------------------|
E|---------------------------|----------------------------|---------------------------|


E|----------2----------------|---------------------------|------2---------------------|
B|---------------2-----------|----------3----2-----------|------3---------------------|
G|------2----------------2---|------2----------------2---|------4---------------------|
D|-0-----------------0-------|-------------------2-------|------4-----------------0---|
A|---------------------------|-0-------------------------|-2----------2---2---4-------|
E|---------------------------|---------------------------|----------------------------|


E|----------2----------------|----------2----------------|---------------------------|
B|---------------2-----------|---------------2-----------|----------3----2-----------|
G|------2----------------2---|------2----------------2---|------2----------------2---|
D|-4-----------------4-------|-0-----------------0-------|-------------------2-------|
A|---------------------------|---------------------------|-0-------------------------|
E|---------------------------|---------------------------|---------------------------|


E|------2---------------------|----------2----------------|----------2----------------|
B|------3---------------------|---------------2-----------|---------------2-----------|
G|------4---------------------|------2----------------2---|------2----------------2---|
D|------4-----------------0---|-4-----------------4-------|-0-----------------0-------|
A|-2----------2---2---4-------|---------------------------|---------------------------|
E|----------------------------|---------------------------|---------------------------|


E|---------------------------|------2---------------------|----------2----------------|
B|----------3----2-----------|------3---------------------|---------------2-----------|
G|------2----------------2---|------4---------------------|------2----------------2---|
D|-------------------2-------|------4-----------------0---|-4-----------------4-------|
A|-0-------------------------|-2----------2---2---4-------|---------------------------|
E|---------------------------|----------------------------|---------------------------|


E|----------2----------------|---------------------------|------2---------------------|
B|---------------2-----------|----------3----2-----------|------3---------------------|
G|------2----------------2---|------2----------------2---|------4---------------------|
D|-0-----------------0-------|-------------------2-------|------4-----------------0---|
A|---------------------------|-0-------------------------|-2----------2---2---4-------|
E|---------------------------|---------------------------|----------------------------|


E|----------2----------------|----------2----------------|---------------------------|
B|---------------2-----------|---------------2-----------|----------3----2-----------|
G|------2----------------2---|------2----------------2---|------2----------------2---|
D|-4-----------------4-------|-0-----------------0-------|-------------------2-------|
A|---------------------------|---------------------------|-0-------------------------|
E|---------------------------|---------------------------|---------------------------|


E|------2---------------------|----------2----------------|----------2----------------|
B|------3---------------------|---------------2-----------|---------------2-----------|
G|------4---------------------|------2----------------2---|------2----------------2---|
D|------4-----------------0---|-4-----------------4-------|-0-----------------0-------|
A|-2----------2---2---4-------|---------------------------|---------------------------|
E|----------------------------|---------------------------|---------------------------|


E|---------------------------|-3---3---3---3---3---3---3---3---|-3---3---3---3---3---3---3---3---|
B|----------3----2-----------|-3---3---3---3---3---3---3---3---|-3---3---3---3---3---3---3---3---|
G|------2----------------2---|-0---0---0---0---0---0---0---0---|-0---0---0---0---0---0---0---0---|
D|-------------------2-------|-0---0---0---0---0---0---0---0---|-0---0---0---0---0---0---0---0---|
A|-0-------------------------|---------------------------------|-2---2---2---2---2---2---2---2---|
E|---------------------------|---------------------------------|-3---3---3---3---3---3---3---3---|


E|-2----2---2----2---2---2---|-2----2---2----2---2---2---|-0----0---0----0---0---0---|
B|-3----3---3----3---3---3---|-3----3---3----3---3---3---|-2----2---2----2---2---2---|
G|-4----4---4----4---4---4---|-4----4---4----4---4---4---|-2----2---2----2---2---2---|
D|-4----4---4----4---4---4---|-4----4---4----4---4---4---|-2----2---2----2---2---2---|
A|-2----2---2----2---2---2---|-2----2---2----2---2---2---|-0----0---0----0---0---0---|
E|---------------------------|---------------------------|---------------------------|


E|-0----0---0----0---0---0---|-3----3---3----3---3---3---|-3----3---3----3---3---3---|
B|-2----2---2----2---2---2---|-3----3---3----3---3---3---|-3----3---3----3---3---3---|
G|-2----2---2----2---2---2---|-0----0---0----0---0---0---|-0----0---0----0---0---0---|
D|-2----2---2----2---2---2---|-0----0---0----0---0---0---|-0----0---0----0---0---0---|
A|-0----0---0----0---0---0---|-2----2---2----2---2---2---|-2----2---2----2---2---2---|
E|---------------------------|-3----3---3----3---3---3---|-3----3---3----3---3---3---|


E|-0----0---0----0---0---0---|-0----0---0----0---0---0---|-2----2---2----2---2---2---|
B|-2----2---2----2---2---2---|-2----2---2----2---2---2---|-3----3---3----3---3---3---|
G|-2----2---2----2---2---2---|-2----2---2----2---2---2---|-4----4---4----4---4---4---|
D|-2----2---2----2---2---2---|-2----2---2----2---2---2---|-4----4---4----4---4---4---|
A|-0----0---0----0---0---0---|-0----0---0----0---0---0---|-2----2---2----2---2---2---|
E|---------------------------|---------------------------|---------------------------|


E|-2----2---2----2---2---2---|-0----0---0----0---0---0---|-0----0---0----0---0---0---|
B|-3----3---3----3---3---3---|-2----2---2----2---2---2---|-2----2---2----2---2---2---|
G|-4----4---4----4---4---4---|-2----2---2----2---2---2---|-2----2---2----2---2---2---|
D|-4----4---4----4---4---4---|-2----2---2----2---2---2---|-2----2---2----2---2---2---|
A|-2----2---2----2---2---2---|-0----0---0----0---0---0---|-0----0---0----0---0---0---|
E|---------------------------|---------------------------|---------------------------|


E|-3----3---3----3---3---3---|-3----3---3----3---3---3---|-0----0---0----0---0---0---|
B|-3----3---3----3---3---3---|-3----3---3----3---3---3---|-2----2---2----2---2---2---|
G|-0----0---0----0---0---0---|-0----0---0----0---0---0---|-2----2---2----2---2---2---|
D|-0----0---0----0---0---0---|-0----0---0----0---0---0---|-2----2---2----2---2---2---|
A|-2----2---2----2---2---2---|-2----2---2----2---2---2---|-0----0---0----0---0---0---|
E|-3----3---3----3---3---3---|-3----3---3----3---3---3---|---------------------------|


E|-0----0---0----0---0---0---|-2----2---2----2---2---2---|-2----2---2----2---2---2---|
B|-2----2---2----2---2---2---|-3----3---3----3---3---3---|-3----3---3----3---3---3---|
G|-2----2---2----2---2---2---|-4----4---4----4---4---4---|-4----4---4----4---4---4---|
D|-2----2---2----2---2---2---|-4----4---4----4---4---4---|-4----4---4----4---4---4---|
A|-0----0---0----0---0---0---|-2----2---2----2---2---2---|-2----2---2----2---2---2---|
E|---------------------------|---------------------------|---------------------------|


E|-0----0---0----0---0---0---|-0----0---0----0---0---0---|-3----3---3----3---3---3---|
B|-2----2---2----2---2---2---|-2----2---2----2---2---2---|-3----3---3----3---3---3---|
G|-2----2---2----2---2---2---|-2----2---2----2---2---2---|-0----0---0----0---0---0---|
D|-2----2---2----2---2---2---|-2----2---2----2---2---2---|-0----0---0----0---0---0---|
A|-0----0---0----0---0---0---|-0----0---0----0---0---0---|-2----2---2----2---2---2---|
E|---------------------------|---------------------------|-3----3---3----3---3---3---|


E|-3----3---3----3---3---3---|-0----0---0----0---0---0---|-0----0---0----0---0---0---|
B|-3----3---3----3---3---3---|-2----2---2----2---2---2---|-2----2---2----2---2---2---|
G|-0----0---0----0---0---0---|-2----2---2----2---2---2---|-2----2---2----2---2---2---|
D|-0----0---0----0---0---0---|-2----2---2----2---2---2---|-2----2---2----2---2---2---|
A|-2----2---2----2---2---2---|-0----0---0----0---0---0---|-0----0---0----0---0---0---|
E|-3----3---3----3---3---3---|---------------------------|---------------------------|


E|-2----2---2----2---2---2---|-2----2---2----2---2---2---|-0----0---0----0---0---0---|
B|-3----3---3----3---3---3---|-3----3---3----3---3---3---|-2----2---2----2---2---2---|
G|-4----4---4----4---4---4---|-4----4---4----4---4---4---|-2----2---2----2---2---2---|
D|-4----4---4----4---4---4---|-4----4---4----4---4---4---|-2----2---2----2---2---2---|
A|-2----2---2----2---2---2---|-2----2---2----2---2---2---|-0----0---0----0---0---0---|
E|---------------------------|---------------------------|---------------------------|


E|-0----0---0----0---0---0---|-3----3---3----3---3---3---|-3----3---3----3---3---3---|
B|-2----2---2----2---2---2---|-3----3---3----3---3---3---|-3----3---3----3---3---3---|
G|-2----2---2----2---2---2---|-0----0---0----0---0---0---|-0----0---0----0---0---0---|
D|-2----2---2----2---2---2---|-0----0---0----0---0---0---|-0----0---0----0---0---0---|
A|-0----0---0----0---0---0---|-2----2---2----2---2---2---|-2----2---2----2---2---2---|
E|---------------------------|-3----3---3----3---3---3---|-3----3---3----3---3---3---|


E|-0----0---0----0---0---0---|-0----0---0----0---0---0---|-2----2----2---2---2---0---|
B|-2----2---2----2---2---2---|-2----2---2----2---2---2---|-2----2----2---2---2---0---|
G|-2----2---2----2---2---2---|-2----2---2----2---2---2---|-2----2----2---2---2---0---|
D|-2----2---2----2---2---2---|-2----2---2----2---2---2---|-4----4----4---4---4---0---|
A|-0----0---0----0---0---0---|-0----0---0----0---0---0---|-4----4----4---4---4---0---|
E|---------------------------|---------------------------|-2----2----2---2---2---0---|


E|-3----3----3---3---3---0---|-0----0----0---0---0---0---|-2----2----2---2---2----|
B|-3----3----3---3---3---0---|-2----2----2---2---2---0---|-3----3----3---3---3----|
G|-0----0----0---0---0---0---|-2----2----2---2---2---0---|-2----2----2---2---2----|
D|-0----0----0---0---0---0---|-2----2----2---2---2---0---|-0----0----0---0---0----|
A|-2----2----2---2---2---0---|-0----0----0---0---0---0---|------------------------|
E|-3----3----3---3---3---0---|---------------------------|------------------------|


E|-2----2----2---2---2---0---|-3----3----3---3---3---0---|-0----0----0---0---0---0---|
B|-2----2----2---2---2---0---|-3----3----3---3---3---0---|-2----2----2---2---2---0---|
G|-2----2----2---2---2---0---|-0----0----0---0---0---0---|-2----2----2---2---2---0---|
D|-4----4----4---4---4---0---|-0----0----0---0---0---0---|-2----2----2---2---2---0---|
A|-4----4----4---4---4---0---|-2----2----2---2---2---0---|-0----0----0---0---0---0---|
E|-2----2----2---2---2---0---|-3----3----3---3---3---0---|---------------------------|


E|-0----0----0---0---0---0---|-2----2----2---2---2---0---|-3----3----3---3---3---0---|
B|-2----2----2---2---2---0---|-2----2----2---2---2---0---|-3----3----3---3---3---0---|
G|-2----2----2---2---2---0---|-2----2----2---2---2---0---|-0----0----0---0---0---0---|
D|-2----2----2---2---2---0---|-4----4----4---4---4---0---|-0----0----0---0---0---0---|
A|-0----0----0---0---0---0---|-4----4----4---4---4---0---|-2----2----2---2---2---0---|
E|---------------------------|-2----2----2---2---2---0---|-3----3----3---3---3---0---|


E|-0----0----0---0---0---0---|-2----2----2---2---2----|-------------|-------------|
B|-2----2----2---2---2---0---|-3----3----3---3---3----|------2------|------3------|
G|-2----2----2---2---2---0---|-2----2----2---2---2----|------2------|------0------|
D|-2----2----2---2---2---0---|-0----0----0---0---0----|------4------|------0------|
A|-0----0----0---0---0---0---|------------------------|-------------|-------------|
E|---------------------------|------------------------|-------------|-------------|


E|-------------|------------|-------------------------------|-2--------------------------|
B|-------3-----|-2----------|------3------------------------|-3--------------------------|
G|-------------|------------|------4------------------------|-4--------------------------|
D|-2-----------|------------|------4---------------0--------|-4-----------------0--------|
A|-------------|--------0---|-2--------2---2---4-------2----|-2-----2---2---4-------2----|
E|-------------|------------|-------------------------------|----------------------------|


E|-2--------------------------|
B|-3--------------------------|
G|-4--------------------------|
D|-4-----------------0--------|
A|-2-----2---2---4-------2----|
E|----------------------------|





Track 2: Slide

E|--------|--------|--------|--------|--------|--------|--------|--------|--------|
B|--------|--------|--------|--------|--------|--------|--------|--------|--------|
G|--------|--------|--------|--------|--------|--------|--------|--------|--------|
D|--------|--------|--------|--------|--------|--------|--------|--------|--------|
A|--------|--------|--------|--------|--------|--------|--------|--------|--------|
E|--------|--------|--------|--------|--------|--------|--------|--------|--------|


E|--------|--------|--------|--------|--------|--------|--------|--------|--------|
B|--------|--------|--------|--------|--------|--------|--------|--------|--------|
G|--------|--------|--------|--------|--------|--------|--------|--------|--------|
D|--------|--------|--------|--------|--------|--------|--------|--------|--------|
A|--------|--------|--------|--------|--------|--------|--------|--------|--------|
E|--------|--------|--------|--------|--------|--------|--------|--------|--------|


E|--------|--------|--------|--------|--------|--------|-------------|--------|--------|
B|--------|--------|--------|--------|--------|--------|-------------|--------|--------|
G|--------|--------|--------|--------|--------|--------|------11-----|-11-----|-9------|
D|--------|--------|--------|--------|--------|--------|-------------|--------|--------|
A|--------|--------|--------|--------|--------|--------|-------------|--------|--------|
E|--------|--------|--------|--------|--------|--------|-------------|--------|--------|


E|--------|--------|--------|--------|-------------|-------------|--------|--------|
B|--------|--------|--------|--------|-------------|------14-----|-17-----|--------|
G|-6------|-6------|-14-----|-14-----|-------------|-------------|--------|-14-----|
D|--------|--------|--------|--------|-7-----9-----|-------------|--------|--------|
A|--------|--------|--------|--------|-------------|-------------|--------|--------|
E|--------|--------|--------|--------|-------------|-------------|--------|--------|


E|-----------------|--------|------------|--------|--------|-15---------------------|
B|-----------------|--------|-14--12-----|--------|-19-----|------15----------------|
G|-11--------------|-11-----|------------|--------|--------|-----------16---14--11--|
D|-------12----12--|--------|------------|-11-----|--------|------------------------|
A|-----------------|--------|------------|--------|--------|------------------------|
E|-----------------|--------|------------|--------|--------|------------------------|


E|--------|-------------|--------|--------------------|--------|------------10--12--|
B|--------|-------------|--------|--------------------|--------|-12---------10--12--|
G|-11-----|-11----11----|-9------|-9------------------|--------|-------12-----------|
D|--------|-------------|--------|-------11---14--12--|-12-----|--------------------|
A|--------|-------------|--------|--------------------|--------|--------------------|
E|--------|-------------|--------|--------------------|--------|--------------------|


E|-12-----|------------------------|--------|-------------|--------|--------------------|
B|-12-----|-15--14-----------------|--------|-------------|--------|--------------------|
G|--------|-----------14---9---11--|-11-----|-11----11----|-9------|-9------------------|
D|--------|------------------------|--------|-------------|--------|-------11---14--12--|
A|--------|------------------------|--------|-------------|--------|--------------------|
E|--------|------------------------|--------|-------------|--------|--------------------|


E|--------|------------10--12--|-12-----|------------------------|-------------|--------|
B|--------|-12---------10--12--|-12-----|-15--14-----------------|------12-----|-12-----|
G|--------|-------12-----------|--------|-----------14---9---11--|------11-----|-11-----|
D|-12-----|--------------------|--------|------------------------|-------------|--------|
A|--------|--------------------|--------|------------------------|-------------|--------|
E|--------|--------------------|--------|------------------------|-------------|--------|


E|--------|--------|--------|--------|--------|--------|--------|--------|--------|
B|--------|--------|--------|--------|--------|--------|--------|--------|--------|
G|--------|--------|--------|--------|--------|--------|--------|--------|--------|
D|--------|--------|--------|--------|--------|--------|--------|--------|--------|
A|--------|--------|--------|--------|--------|--------|--------|--------|--------|
E|--------|--------|--------|--------|--------|--------|--------|--------|--------|


E|--------|--------|--------|--------|--------|--------|--------|------14-----|--------------------|
B|--------|--------|--------|--------|--------|--------|--------|------14-----|-14--12-------------|
G|--------|--------|--------|--------|--------|--------|--------|-------------|----------14----14--|
D|--------|--------|--------|--------|--------|--------|--------|-------------|--------------------|
A|--------|--------|--------|--------|--------|--------|--------|-------------|--------------------|
E|--------|--------|--------|--------|--------|--------|--------|-------------|--------------------|


E|--------|--------|--------|--------|--------|--------|-------------|--------|--------|
B|--------|--------|-14-----|-10-----|--------|--------|------14-----|-17-----|--------|
G|-9------|-11-----|--------|--------|--------|--------|-------------|--------|-14-----|
D|--------|--------|--------|--------|-11-----|-12-----|-------------|--------|--------|
A|--------|--------|--------|--------|--------|--------|-------------|--------|--------|
E|--------|--------|--------|--------|--------|--------|-------------|--------|--------|


E|-----------------|--------|-----------------|--------|--------|-14-------------|
B|-----------------|--------|-14--------------|--------|--------|----------------|
G|-11--------------|-11-----|-------14----14--|-9------|--------|--------9---11--|
D|-------12----12--|--------|-----------------|--------|--------|----------------|
A|-----------------|--------|-----------------|--------|--------|----------------|
E|-----------------|--------|-----------------|--------|--------|----------------|


E|--------|-------------|--------|--------------------|--------|------------10--12--|
B|--------|-------------|--------|--------------------|--------|-12---------10--12--|
G|-11-----|-11----11----|-9------|-9------------------|--------|-------12-----------|
D|--------|-------------|--------|-------11---14--12--|-12-----|--------------------|
A|--------|-------------|--------|--------------------|--------|--------------------|
E|--------|-------------|--------|--------------------|--------|--------------------|


E|-12-----|------------------------|--------|-------------|--------|--------------------|
B|-12-----|-15--14-----------------|--------|-------------|--------|--------------------|
G|--------|-----------14---9---11--|-11-----|-11----11----|-9------|-9------------------|
D|--------|------------------------|--------|-------------|--------|-------11---14--12--|
A|--------|------------------------|--------|-------------|--------|--------------------|
E|--------|------------------------|--------|-------------|--------|--------------------|


E|--------|------------10--12--|-12-----|------------------------|--------|-------------|
B|--------|-12---------10--12--|-12-----|-15--14-----------------|--------|-------------|
G|--------|-------12-----------|--------|-----------14---9---11--|-11-----|-11----11----|
D|-12-----|--------------------|--------|------------------------|--------|-------------|
A|--------|--------------------|--------|------------------------|--------|-------------|
E|--------|--------------------|--------|------------------------|--------|-------------|


E|--------|--------------------|--------|------------10--12--|-12-----|------------------------|
B|--------|--------------------|--------|-12---------10--12--|-12-----|-15--14-----------------|
G|-9------|-9------------------|--------|-------12-----------|--------|-----------14---9---11--|
D|--------|-------11---14--12--|-12-----|--------------------|--------|------------------------|
A|--------|--------------------|--------|--------------------|--------|------------------------|
E|--------|--------------------|--------|--------------------|--------|------------------------|


E|--------|-------------|--------|--------------------|--------|------------10--12--|
B|--------|-------------|--------|--------------------|--------|-12---------10--12--|
G|-11-----|-11----11----|-9------|-9------------------|--------|-------12-----------|
D|--------|-------------|--------|-------11---14--12--|-12-----|--------------------|
A|--------|-------------|--------|--------------------|--------|--------------------|
E|--------|-------------|--------|--------------------|--------|--------------------|


E|-12-----|------------------------|---------------------|---------------------|---------------------|
B|-12-----|-15--14-----------------|-10---10---10---10---|-3----3----3----3----|-5----5----5----5----|
G|--------|-----------14---9---11--|---------------------|---------------------|---------------------|
D|--------|------------------------|---------------------|---------------------|---------------------|
A|--------|------------------------|---------------------|---------------------|---------------------|
E|--------|------------------------|---------------------|---------------------|---------------------|


E|-----------10----|-------7----------|-------3-----3---|-------5-----|-------------|
B|-3-----10--------|-7----------7-----|-3---------------|-5-----------|-5-----------|
G|-----------------|------------------|-----------------|-------------|-------6-----|
D|-----------------|------------------|-----------------|-------------|-------------|
A|-----------------|------------------|-----------------|-------------|-------------|
E|-----------------|------------------|-----------------|-------------|-------------|


E|---------------------|---------------------|---------------------|-----------10----|
B|-10---10---10---10---|-3----3----3----3----|-5----5----5----5----|-3-----10--------|
G|---------------------|---------------------|---------------------|-----------------|
D|---------------------|---------------------|---------------------|-----------------|
A|---------------------|---------------------|---------------------|-----------------|
E|---------------------|---------------------|---------------------|-----------------|


E|------9------|-------------|--------|--------|--------|--------|--------|
B|-------------|------3------|-5------|-5------|--------|--------|--------|
G|-------------|-------------|--------|--------|--------|--------|--------|
D|-------------|-------------|--------|--------|--------|--------|--------|
A|-------------|-------------|--------|--------|--------|--------|--------|
E|-------------|-------------|--------|--------|--------|--------|--------|





Track 3: Slide 2

E|--------|--------|--------|--------|--------|--------|--------|--------|--------|
B|--------|--------|--------|--------|--------|--------|--------|--------|--------|
G|--------|--------|--------|--------|--------|--------|--------|--------|--------|
D|--------|--------|--------|--------|--------|--------|--------|--------|--------|
A|--------|--------|--------|--------|--------|--------|--------|--------|--------|
E|--------|--------|--------|--------|--------|--------|--------|--------|--------|


E|--------|--------|--------|--------|--------|--------|--------|--------|--------|
B|--------|--------|--------|--------|--------|--------|--------|--------|--------|
G|--------|--------|--------|--------|--------|--------|--------|--------|--------|
D|--------|--------|--------|--------|--------|--------|--------|--------|--------|
A|--------|--------|--------|--------|--------|--------|--------|--------|--------|
E|--------|--------|--------|--------|--------|--------|--------|--------|--------|


E|--------|--------|--------|--------|--------|--------|--------|--------|--------|
B|--------|--------|--------|--------|--------|--------|--------|--------|--------|
G|--------|--------|--------|--------|--------|--------|--------|--------|--------|
D|--------|--------|--------|--------|--------|--------|--------|--------|--------|
A|--------|--------|--------|--------|--------|--------|--------|--------|--------|
E|--------|--------|--------|--------|--------|--------|--------|--------|--------|


E|--------|--------|--------|--------|--------|----------------17---|------------|
B|--------|--------|--------|--------|--------|------17---17--------|-17--17-----|
G|--------|--------|--------|--------|--------|---------------------|------------|
D|--------|--------|--------|--------|--------|---------------------|------------|
A|--------|--------|--------|--------|--------|---------------------|------------|
E|--------|--------|--------|--------|--------|---------------------|------------|


E|--------|--------|--------|-14--12-----|--------|-19-----|--------|--------|--------|
B|-14-----|-12-----|-14-----|------------|--------|--------|--------|--------|--------|
G|--------|--------|--------|------------|-14-----|--------|--------|--------|--------|
D|--------|--------|--------|------------|--------|--------|--------|--------|--------|
A|--------|--------|--------|------------|--------|--------|--------|--------|--------|
E|--------|--------|--------|------------|--------|--------|--------|--------|--------|


E|--------|--------|--------|--------|--------|--------|--------|--------|--------|
B|--------|--------|--------|--------|--------|--------|--------|--------|--------|
G|--------|--------|--------|--------|--------|--------|--------|--------|--------|
D|--------|--------|--------|--------|--------|--------|--------|--------|--------|
A|--------|--------|--------|--------|--------|--------|--------|--------|--------|
E|--------|--------|--------|--------|--------|--------|--------|--------|--------|


E|--------|--------|--------|--------|--------|--------|--------|--------|--------|
B|--------|--------|--------|--------|--------|--------|--------|--------|--------|
G|--------|--------|--------|--------|--------|--------|--------|--------|--------|
D|--------|--------|--------|--------|--------|--------|--------|--------|--------|
A|--------|--------|--------|--------|--------|--------|--------|--------|--------|
E|--------|--------|--------|--------|--------|--------|--------|--------|--------|


E|--------|--------|--------|--------|--------|--------|--------|--------|--------|
B|--------|--------|--------|--------|--------|--------|--------|--------|--------|
G|--------|--------|--------|--------|--------|--------|--------|--------|--------|
D|--------|--------|--------|--------|--------|--------|--------|--------|--------|
A|--------|--------|--------|--------|--------|--------|--------|--------|--------|
E|--------|--------|--------|--------|--------|--------|--------|--------|--------|


E|--------|--------|--------|--------|--------|-------------|-14--12-------------|
B|--------|--------|--------|--------|--------|-------------|----------15----15--|
G|--------|--------|--------|--------|--------|------11-----|--------------------|
D|--------|--------|--------|--------|--------|------11-----|--------------------|
A|--------|--------|--------|--------|--------|-------------|--------------------|
E|--------|--------|--------|--------|--------|-------------|--------------------|


E|--------|------------------|-14-----|-10-----|--------|--------|----------------17---|
B|-10-----|-12----15----12---|--------|--------|-10-----|-12-----|------17---17--------|
G|--------|------------------|--------|--------|--------|--------|---------------------|
D|--------|------------------|--------|--------|--------|--------|---------------------|
A|--------|------------------|--------|--------|--------|--------|---------------------|
E|--------|------------------|--------|--------|--------|--------|---------------------|


E|------------|--------|--------|--------|-14--------------|--------|-----------10---12---|
B|-17--17-----|-14-----|-12-----|-10-----|-------15----15--|-10-----|------12-------------|
G|------------|--------|--------|--------|-----------------|--------|-12------------------|
D|------------|--------|--------|--------|-----------------|--------|---------------------|
A|------------|--------|--------|--------|-----------------|--------|---------------------|
E|------------|--------|--------|--------|-----------------|--------|---------------------|


E|--------|--------|--------|--------|--------|--------|--------|--------|--------|
B|--------|--------|--------|--------|--------|--------|--------|--------|--------|
G|--------|--------|--------|--------|--------|--------|--------|--------|--------|
D|--------|--------|--------|--------|--------|--------|--------|--------|--------|
A|--------|--------|--------|--------|--------|--------|--------|--------|--------|
E|--------|--------|--------|--------|--------|--------|--------|--------|--------|


E|--------|--------|--------|--------|--------|--------|--------|--------|--------|
B|--------|--------|--------|--------|--------|--------|--------|--------|--------|
G|--------|--------|--------|--------|--------|--------|--------|--------|--------|
D|--------|--------|--------|--------|--------|--------|--------|--------|--------|
A|--------|--------|--------|--------|--------|--------|--------|--------|--------|
E|--------|--------|--------|--------|--------|--------|--------|--------|--------|


E|--------|--------|--------|--------|--------|--------|--------|--------|--------|
B|--------|--------|--------|--------|--------|--------|--------|--------|--------|
G|--------|--------|--------|--------|--------|--------|--------|--------|--------|
D|--------|--------|--------|--------|--------|--------|--------|--------|--------|
A|--------|--------|--------|--------|--------|--------|--------|--------|--------|
E|--------|--------|--------|--------|--------|--------|--------|--------|--------|


E|--------|--------|--------|--------|--------|--------|--------|--------|--------|
B|--------|--------|--------|--------|--------|--------|--------|--------|--------|
G|--------|--------|--------|--------|--------|--------|--------|--------|--------|
D|--------|--------|--------|--------|--------|--------|--------|--------|--------|
A|--------|--------|--------|--------|--------|--------|--------|--------|--------|
E|--------|--------|--------|--------|--------|--------|--------|--------|--------|


E|--------|--------|--------|--------|--------|--------|--------|--------|--------|
B|--------|--------|--------|--------|--------|--------|--------|--------|--------|
G|--------|--------|--------|--------|--------|--------|--------|--------|--------|
D|--------|--------|--------|--------|--------|--------|--------|--------|--------|
A|--------|--------|--------|--------|--------|--------|--------|--------|--------|
E|--------|--------|--------|--------|--------|--------|--------|--------|--------|


E|--------|--------|--------|--------|--------|--------|--------|
B|--------|--------|--------|--------|--------|--------|--------|
G|--------|--------|--------|--------|--------|--------|--------|
D|--------|--------|--------|--------|--------|--------|--------|
A|--------|--------|--------|--------|--------|--------|--------|
E|--------|--------|--------|--------|--------|--------|--------|





Track 4: Slide

E|--------|--------|--------|--------|--------|--------|--------|--------|--------|
B|--------|--------|--------|--------|--------|--------|--------|--------|--------|
G|--------|--------|--------|--------|--------|--------|--------|--------|--------|
D|--------|--------|--------|--------|--------|--------|--------|--------|--------|
A|--------|--------|--------|--------|--------|--------|--------|--------|--------|
E|--------|--------|--------|--------|--------|--------|--------|--------|--------|


E|--------|--------|--------|--------|--------|--------|--------|--------|--------|
B|--------|--------|--------|--------|--------|--------|--------|--------|--------|
G|--------|--------|--------|--------|--------|--------|--------|--------|--------|
D|--------|--------|--------|--------|--------|--------|--------|--------|--------|
A|--------|--------|--------|--------|--------|--------|--------|--------|--------|
E|--------|--------|--------|--------|--------|--------|--------|--------|--------|


E|--------|--------|--------|--------|--------|--------|--------|--------|--------|
B|--------|--------|--------|--------|--------|--------|--------|--------|--------|
G|--------|--------|--------|--------|--------|--------|--------|--------|--------|
D|--------|--------|--------|--------|--------|--------|--------|--------|--------|
A|--------|--------|--------|--------|--------|--------|--------|--------|--------|
E|--------|--------|--------|--------|--------|--------|--------|--------|--------|


E|--------|--------|--------|--------|--------|--------|--------|--------|--------|
B|--------|--------|--------|--------|--------|--------|--------|--------|--------|
G|--------|--------|--------|--------|--------|--------|--------|--------|--------|
D|--------|--------|--------|--------|--------|--------|--------|--------|--------|
A|--------|--------|--------|--------|--------|--------|--------|--------|--------|
E|--------|--------|--------|--------|--------|--------|--------|--------|--------|


E|--------|--------|--------|--------|--------|--------|--------|--------|--------|
B|--------|--------|--------|--------|--------|--------|--------|--------|--------|
G|--------|--------|--------|--------|--------|--------|--------|--------|--------|
D|--------|--------|--------|--------|--------|--------|--------|--------|--------|
A|--------|--------|--------|--------|--------|--------|--------|--------|--------|
E|--------|--------|--------|--------|--------|--------|--------|--------|--------|


E|--------|--------|--------|--------|--------|--------|--------|--------|--------|
B|--------|--------|--------|--------|--------|--------|--------|--------|--------|
G|--------|--------|--------|--------|--------|--------|--------|--------|--------|
D|--------|--------|--------|--------|--------|--------|--------|--------|--------|
A|--------|--------|--------|--------|--------|--------|--------|--------|--------|
E|--------|--------|--------|--------|--------|--------|--------|--------|--------|


E|--------|--------|--------|--------|--------|--------|--------|--------|--------|
B|--------|--------|--------|--------|--------|--------|--------|--------|--------|
G|--------|--------|--------|--------|--------|--------|--------|--------|--------|
D|--------|--------|--------|--------|--------|--------|--------|--------|--------|
A|--------|--------|--------|--------|--------|--------|--------|--------|--------|
E|--------|--------|--------|--------|--------|--------|--------|--------|--------|


E|--------|--------|--------|--------|--------|--------|--------|--------|--------|
B|--------|--------|--------|--------|--------|--------|--------|--------|--------|
G|--------|--------|--------|--------|--------|--------|--------|--------|--------|
D|--------|--------|--------|--------|--------|--------|--------|--------|--------|
A|--------|--------|--------|--------|--------|--------|--------|--------|--------|
E|--------|--------|--------|--------|--------|--------|--------|--------|--------|


E|--------|--------|--------|--------|--------|--------|--------|--------|--------|
B|--------|--------|--------|--------|--------|--------|--------|--------|--------|
G|--------|--------|--------|--------|--------|--------|--------|--------|--------|
D|--------|--------|--------|--------|--------|--------|--------|--------|--------|
A|--------|--------|--------|--------|--------|--------|--------|--------|--------|
E|--------|--------|--------|--------|--------|--------|--------|--------|--------|


E|--------|--------|--------|--------|--------|--------|--------|--------|--------|
B|--------|--------|--------|--------|--------|--------|--------|--------|--------|
G|--------|--------|--------|--------|--------|--------|--------|--------|--------|
D|--------|--------|--------|--------|--------|--------|--------|--------|--------|
A|--------|--------|--------|--------|--------|--------|--------|--------|--------|
E|--------|--------|--------|--------|--------|--------|--------|--------|--------|


E|--------|--------|--------|--------|--------|--------|--------|--------|--------|
B|--------|--------|--------|--------|--------|--------|--------|--------|--------|
G|--------|--------|--------|--------|--------|--------|--------|--------|--------|
D|--------|--------|--------|--------|--------|--------|--------|--------|--------|
A|--------|--------|--------|--------|--------|--------|--------|--------|--------|
E|--------|--------|--------|--------|--------|--------|--------|--------|--------|


E|--------|--------|--------|--------|--------|--------|--------|--------|--------|
B|--------|--------|--------|--------|--------|--------|--------|--------|--------|
G|--------|--------|--------|--------|--------|--------|--------|--------|--------|
D|--------|--------|--------|--------|--------|--------|--------|--------|--------|
A|--------|--------|--------|--------|--------|--------|--------|--------|--------|
E|--------|--------|--------|--------|--------|--------|--------|--------|--------|


E|--------|--------|--------|--------|--------|--------|--------|--------|--------|
B|--------|--------|--------|--------|--------|--------|--------|--------|--------|
G|--------|--------|--------|--------|--------|--------|--------|--------|--------|
D|--------|--------|--------|--------|--------|--------|--------|--------|--------|
A|--------|--------|--------|--------|--------|--------|--------|--------|--------|
E|--------|--------|--------|--------|--------|--------|--------|--------|--------|


E|--------|--------|--------|--------|--------|--------|--------|---------------------|
B|--------|--------|--------|--------|--------|--------|--------|---------------------|
G|--------|--------|--------|--------|--------|--------|--------|-7----7----7----7----|
D|--------|--------|--------|--------|--------|--------|--------|---------------------|
A|--------|--------|--------|--------|--------|--------|--------|---------------------|
E|--------|--------|--------|--------|--------|--------|--------|---------------------|


E|---------------------|---------------------|--------|--------|--------|-----------------|
B|---------------------|---------------------|-3------|--------|--------|-----------------|
G|-4----4----4----4----|-2----2----2----2----|--------|--------|--------|-------9-----9---|
D|---------------------|---------------------|--------|-9------|-5------|-11--------------|
A|---------------------|---------------------|--------|--------|--------|-----------------|
E|---------------------|---------------------|--------|--------|--------|-----------------|


E|--------|---------------------|---------------------|---------------------|--------|
B|--------|---------------------|---------------------|---------------------|-3------|
G|--------|-7----7----7----7----|-4----4----4----4----|-2----2----2----2----|--------|
D|-7------|---------------------|---------------------|---------------------|--------|
A|--------|---------------------|---------------------|---------------------|--------|
E|--------|---------------------|---------------------|---------------------|--------|


E|-------------|-------------|--------|--------|--------|--------|--------|
B|------10-----|-------------|--------|--------|--------|--------|--------|
G|-------------|------4------|-6------|-6------|--------|--------|--------|
D|-------------|-------------|--------|--------|--------|--------|--------|
A|-------------|-------------|--------|--------|--------|--------|--------|
E|-------------|-------------|--------|--------|--------|--------|--------|





Track 5: Bass

G|--------|--------|--------|--------|--------|--------|--------|--------|--------|
D|--------|--------|--------|--------|--------|--------|--------|--------|--------|
A|--------|--------|--------|--------|--------|--------|--------|--------|--------|
E|--------|--------|--------|--------|--------|--------|--------|--------|--------|


G|--------|--------|--------|--------|--------|--------|--------|--------|--------|
D|--------|--------|--------|--------|--------|--------|--------|--------|--------|
A|--------|--------|--------|--------|--------|--------|--------|--------|--------|
E|--------|--------|--------|--------|--------|--------|--------|--------|--------|


G|--------|--------|--------|--------|--------|--------|------------------------|-----------------------|
D|--------|--------|--------|--------|--------|--------|------------------------|-----------------------|
A|--------|--------|--------|--------|--------|--------|----------------0---2---|-5-----5---2---5---2---|
E|--------|--------|--------|--------|--------|--------|------2-----2-----------|-----------------------|


G|-----------------------|-----------------------|------------------------|-----------------------|
D|-----------------------|-----------------------|------------------------|-----------------------|
A|-0-----0-------0-------|-2-----2-------0-------|----------------0---2---|-5-----5---2---5---2---|
E|-----------2-------2---|-----------2-------2---|------2-----2-----------|-----------------------|


G|-----------------------|-----------------------|---------------------------------|
D|-----------------------|-----------------------|---------------------------------|
A|-0-----0-------0-------|-2-----2-------0-------|---------------------------------|
E|-----------2-------2---|-----------2-------2---|-3---3---3---3---3---3---3---3---|


G|---------------------------------|------------------------|------------------------|
D|---------------------------------|------------------------|------------------------|
A|-------------------------0---2---|-2----0---2-----0---2---|-2----0---2----2---5----|
E|-3---3---3---3---3---3-----------|------------------------|------------------------|


G|------------------------|---------------------|------------------------|---------------------|
D|------------------------|---------------------|------------------------|---------------------|
A|-0--------0-------------|----------0-----2----|------------------------|---------------------|
E|------3---------3-------|------3--------------|-3----2---3-----2---3---|-3----2---3-----2----|


G|------------------------|---------------------------|------------------------|------------------------|
D|------------------------|---------------------------|------------------------|------------------------|
A|------------------------|-----------------------2---|-2----0---2-----0---2---|-2----0---2----2---5----|
E|-5----2---5-----2---5---|-5----2---5----2---5-------|------------------------|------------------------|


G|------------------------|---------------------|------------------------|---------------------|
D|------------------------|---------------------|------------------------|---------------------|
A|-0--------0-------------|----------0-----2----|------------------------|---------------------|
E|------3---------3-------|------3--------------|-3----2---3-----2---3---|-3----2---3-----2----|


G|------------------------|---------------------------|-------------|--------|--------|
D|------------------------|---------------------------|-------------|--------|--------|
A|------------------------|-----------------------2---|------2------|-2------|--------|
E|-5----2---5-----2---5---|-5----2---5----2---5-------|-------------|--------|--------|


G|--------|--------|--------|--------|--------|--------|--------|--------|--------|
D|--------|--------|--------|--------|--------|--------|--------|--------|--------|
A|--------|--------|--------|--------|--------|--------|--------|--------|--------|
E|--------|--------|--------|--------|--------|--------|--------|--------|--------|


G|--------|--------|--------|--------|--------|--------|------------------------|-----------------------|
D|--------|--------|--------|--------|--------|--------|------------------------|-----------------------|
A|--------|--------|--------|--------|--------|--------|----------------0---2---|-5-----5---2---5---2---|
E|--------|--------|--------|--------|--------|--------|------2-----2-----------|-----------------------|


G|-----------------------|-----------------------|------------------------|-----------------------|
D|-----------------------|-----------------------|------------------------|-----------------------|
A|-0-----0-------0-------|-2-----2-------0-------|----------------0---2---|-5-----5---2---5---2---|
E|-----------2-------2---|-----------2-------2---|------2-----2-----------|-----------------------|


G|-----------------------|-----------------------|---------------------------------|
D|-----------------------|-----------------------|---------------------------------|
A|-0-----0-------0-------|-2-----2-------0-------|---------------------------------|
E|-----------2-------2---|-----------2-------2---|-3---3---3---3---3---3---3---3---|


G|---------------------------------|------------------------|------------------------|
D|---------------------------------|------------------------|------------------------|
A|-------------------------0---2---|-2----0---2-----0---2---|-2----0---2----2---5----|
E|-3---3---3---3---3---3-----------|------------------------|------------------------|


G|------------------------|---------------------|------------------------|---------------------|
D|------------------------|---------------------|------------------------|---------------------|
A|-0--------0-------------|----------0-----2----|------------------------|---------------------|
E|------3---------3-------|------3--------------|-3----2---3-----2---3---|-3----2---3-----2----|


G|------------------------|---------------------------|------------------------|------------------------|
D|------------------------|---------------------------|------------------------|------------------------|
A|------------------------|-----------------------2---|-2----0---2-----0---2---|-2----0---2----2---5----|
E|-5----2---5-----2---5---|-5----2---5----2---5-------|------------------------|------------------------|


G|------------------------|---------------------|------------------------|---------------------|
D|------------------------|---------------------|------------------------|---------------------|
A|-0--------0-------------|----------0-----2----|------------------------|---------------------|
E|------3---------3-------|------3--------------|-3----2---3-----2---3---|-3----2---3-----2----|


G|------------------------|---------------------------|------------------------|------------------------|
D|------------------------|---------------------------|------------------------|------------------------|
A|------------------------|-----------------------2---|-2----0---2-----0---2---|-2----0---2----2---5----|
E|-5----2---5-----2---5---|-5----2---5----2---5-------|------------------------|------------------------|


G|------------------------|---------------------|------------------------|---------------------|
D|------------------------|---------------------|------------------------|---------------------|
A|-0--------0-------------|----------0-----2----|------------------------|---------------------|
E|------3---------3-------|------3--------------|-3----2---3-----2---3---|-3----2---3-----2----|


G|------------------------|---------------------------|------------------------|------------------------|
D|------------------------|---------------------------|------------------------|------------------------|
A|------------------------|-----------------------2---|-2----0---2-----0---2---|-2----0---2----2---5----|
E|-5----2---5-----2---5---|-5----2---5----2---5-------|------------------------|------------------------|


G|------------------------|---------------------|------------------------|---------------------|
D|------------------------|---------------------|------------------------|---------------------|
A|-0--------0-------------|----------0-----2----|------------------------|---------------------|
E|------3---------3-------|------3--------------|-3----2---3-----2---3---|-3----2---3-----2----|


G|------------------------|---------------------------|---------------------------|
D|------------------------|---------------------------|---------------------------|
A|------------------------|-----------------------2---|---------------------------|
E|-5----2---5-----2---5---|-5----2---5----2---5-------|-2----2----2---0---2---0---|


G|---------------------------|---------------------|---------------------|---------------------------|
D|---------------------------|---------------------|-0----0----0----0----|---------------------------|
A|---------------------------|-0----0----0----0----|---------------------|---------------------------|
E|-3----3----3---2---3---2---|---------------------|---------------------|-2----2----2---0---2---0---|


G|---------------------------|---------------------------|---------------------------|
D|---------------------------|---------------------------|---------------------------|
A|---------------------------|-0----0----0-------0-------|-0----0----0-------0-------|
E|-3----3----3---2---3---2---|---------------2-------2---|---------------2-------2---|


G|---------------------------|---------------------------|---------------------|---------------------|
D|---------------------------|---------------------------|---------------------|-0----0----0----0----|
A|---------------------------|---------------------------|-0----0----0----0----|---------------------|
E|-2----2----2---0---2---0---|-3----3----3---2---3---2---|---------------------|---------------------|


G|-------------|-------------|--------|--------|--------|--------|--------|--------|
D|-------------|-------------|--------|--------|--------|--------|--------|--------|
A|-------------|-------------|-0------|-0------|--------|--------|--------|--------|
E|------2------|------3------|--------|--------|--------|--------|--------|--------|


G|--------|--------|--------|--------|--------|--------|--------|--------|--------|
D|--------|--------|--------|--------|--------|--------|--------|--------|--------|
A|--------|--------|--------|--------|--------|--------|--------|--------|--------|
E|--------|--------|--------|--------|--------|--------|--------|--------|--------|


G|--------|--------|--------|--------|
D|--------|--------|--------|--------|
A|--------|--------|--------|--------|
E|--------|--------|--------|--------|