Site menu:

    

Browse: 0-9 A B C D E F G H I J K L N O P Q R S T U V W X Y Z

bob - joy to the world:



Title: Joy To The World
Artist: 
Album: Ska la la la la
Author: B.O.B.


Track 1: Guitar

E|------------------|--------|------------------|--------|------------------|--------|
B|------------------|--------|------------------|--------|------------------|--------|
G|------------------|--------|------------------|--------|------------------|--------|
D|-2-----5-----7----|-7------|-2-----5-----7----|-7------|-2-----5-----7----|-7------|
A|-2-----5-----7----|-7------|-2-----5-----7----|-7------|-2-----5-----7----|-7------|
E|-0-----3-----5----|-5------|-0-----3-----5----|-5------|-0-----3-----5----|-5------|


E|------------------|--------|------------------|--------|------------------|--------|
B|------------------|--------|------------------|--------|------------------|--------|
G|------------------|--------|------------------|--------|------------------|--------|
D|-2-----5-----7----|-7------|-2-----5-----7----|-7------|-2-----5-----7----|-7------|
A|-2-----5-----7----|-7------|-2-----5-----7----|-7------|-2-----5-----7----|-7------|
E|-0-----3-----5----|-5------|-0-----3-----5----|-5------|-0-----3-----5----|-5------|


E|--------|--------|--------|----------------|--------|--------|--------|--------|
B|--------|--------|--------|----------------|--------|--------|--------|--------|
G|--------|--------|--------|----------------|--------|--------|--------|--------|
D|-2------|-2------|-2------|-2------2---2---|--------|--------|--------|--------|
A|-2------|-2------|-2------|-2------2---2---|--------|--------|--------|--------|
E|-0------|-0------|-0------|-0------0---0---|--------|--------|--------|--------|


E|--------|--------|--------|--------|--------|-----------------|------------------------|
B|--------|--------|--------|--------|--------|-----------------|------------------------|
G|--------|--------|--------|--------|--------|-----------------|------------------------|
D|--------|--------|--------|--------|--------|-------2-----5---|------7----7----7---7---|
A|--------|--------|--------|--------|--------|-------2-----5---|------7----7----7---7---|
E|--------|--------|--------|--------|--------|-------0-----3---|------5----5----5---5---|


E|---------------------------|------------------------|---------------------------|
B|---------------------------|------------------------|---------------------------|
G|---------------------------|------------------------|---------------------------|
D|-7---7---7---7---2-----5---|------7----7----7---7---|-7---7---7---7---2-----5---|
A|-7---7---7---7---2-----5---|------7----7----7---7---|-7---7---7---7---2-----5---|
E|-5---5---5---5---0-----3---|------5----5----5---5---|-5---5---5---5---0-----3---|


E|------------------------|---------------------------|------------------------|-----------------------|
B|------------------------|---------------------------|------------------------|-----------------------|
G|------------------------|---------------------------|------------------------|-----------------------|
D|------7----7----7---7---|-7---7---7---7---2-----5---|------7----7----7---7---|-7---7---7---7---------|
A|------7----7----7---7---|-7---7---7---7---2-----5---|------7----7----7---7---|-7---7---7---7---------|
E|------5----5----5---5---|-5---5---5---5---0-----3---|------5----5----5---5---|-5---5---5---5---------|


E|--------|--------|--------|--------|--------|--------|--------|--------|--------|
B|--------|--------|--------|--------|--------|--------|--------|--------|--------|
G|--------|--------|--------|--------|--------|--------|--------|--------|--------|
D|--------|--------|--------|--------|--------|--------|--------|--------|--------|
A|--------|--------|--------|--------|--------|--------|--------|--------|--------|
E|--------|--------|--------|--------|--------|--------|--------|--------|--------|


E|------------------|--------|-----------------------------------------|-----------------------------------------|
B|------------------|--------|-----------------------------------------|-----------------------------------------|
G|------------------|--------|-----------------------------------------|-----------------------------------------|
D|-2-----5-----7----|-7------|-----------------------------------------|-----------------------------------------|
A|-2-----5-----7----|-7------|-------------7--7--7--5---5----------5---|-------------7--7--7--5---5----------5---|
E|-0-----3-----5----|-5------|-0--0--0--0------------------5---7-------|-0--0--0--0------------------5---7-------|


E|-----------------------------------------|-----------------------------------------|
B|-----------------------------------------|-----------------------------------------|
G|-----------------------------------------|-----------------------------------------|
D|-----------------------------------------|-----------------------------------------|
A|-------------7--7--7--5---5----------5---|-------------7--7--7--5---5----------5---|
E|-0--0--0--0------------------5---7-------|-0--0--0--0------------------5---7-------|


E|-----------------------------------------|-----------------------------------------|
B|-----------------------------------------|-----------------------------------------|
G|-----------------------------------------|-----------------------------------------|
D|-----------------------------------------|-----------------------------------------|
A|-------------7--7--7--5---5----------5---|-------------7--7--7--5---5----------5---|
E|-0--0--0--0------------------5---7-------|-0--0--0--0------------------5---7-------|


E|-----------------------------------------|-----------------------------------------|
B|-----------------------------------------|-----------------------------------------|
G|-----------------------------------------|-----------------------------------------|
D|-----------------------------------------|-----------------------------------------|
A|-------------7--7--7--5---5----------5---|-------------7--7--7--5---5----------5---|
E|-0--0--0--0------------------5---7-------|-0--0--0--0------------------5---7-------|


E|-----------------------------------------|-----------------------------------------|
B|-----------------------------------------|-----------------------------------------|
G|-----------------------------------------|-----------------------------------------|
D|-----------------------------------------|-----------------------------------------|
A|-------------7--7--7--5---5----------5---|-------------7--7--7--5---5----------5---|
E|-0--0--0--0------------------5---7-------|-0--0--0--0------------------5---7-------|


E|-----------------------------------------|-----------------------------------------|
B|-----------------------------------------|-----------------------------------------|
G|-----------------------------------------|-----------------------------------------|
D|-----------------------------------------|-----------------------------------------|
A|-------------7--7--7--5---5----------5---|-------------7--7--7--5---5----------5---|
E|-0--0--0--0------------------5---7-------|-0--0--0--0------------------5---7-------|


E|-----------------------------------------|-----------------------------------------|
B|-----------------------------------------|-----------------------------------------|
G|-----------------------------------------|-----------------------------------------|
D|-----------------------------------------|-----------------------------------------|
A|-------------7--7--7--5---5----------5---|-------------7--7--7--5---5----------5---|
E|-0--0--0--0------------------5---7-------|-0--0--0--0------------------5---7-------|


E|-----------------------------------------|-----------------------------------------|
B|-----------------------------------------|-----------------------------------------|
G|-----------------------------------------|-----------------------------------------|
D|-----------------------------------------|-----------------------------------------|
A|-------------7--7--7--5---5----------5---|-------------7--7--7--5---5----------5---|
E|-0--0--0--0------------------5---7-------|-0--0--0--0------------------5---7-------|


E|-----------------------------------------|-----------------------------------------|
B|-----------------------------------------|-----------------------------------------|
G|-----------------------------------------|-----------------------------------------|
D|-----------------------------------------|-----------------------------------------|
A|-------------7--7--7--5---5----------5---|-------------7--7--7--5---5----------5---|
E|-0--0--0--0------------------5---7-------|-0--0--0--0------------------5---7-------|


E|-----------------------------------------|-----------------------------------------|
B|-----------------------------------------|-----------------------------------------|
G|-----------------------------------------|-----------------------------------------|
D|-----------------------------------------|-----------------------------------------|
A|-------------7--7--7--5---5----------5---|-------------7--7--7--5---5----------5---|
E|-0--0--0--0------------------5---7-------|-0--0--0--0------------------5---7-------|


E|-----------------------------------------|-----------------------------------------|
B|-----------------------------------------|-----------------------------------------|
G|-----------------------------------------|-----------------------------------------|
D|-----------------------------------------|-----------------------------------------|
A|-------------7--7--7--5---5----------5---|-------------7--7--7--5---5----------5---|
E|-0--0--0--0------------------5---7-------|-0--0--0--0------------------5---7-------|


E|-----------------------------------------|-----------------------------------------|
B|-----------------------------------------|-----------------------------------------|
G|-----------------------------------------|-----------------------------------------|
D|-----------------------------------------|-----------------------------------------|
A|-------------7--7--7--5---5----------5---|-------------7--7--7--5---5----------5---|
E|-0--0--0--0------------------5---7-------|-0--0--0--0------------------5---7-------|


E|--------|--------|--------|--------|--------|--------|--------|--------|--------|
B|--------|--------|--------|--------|--------|--------|--------|--------|--------|
G|--------|--------|--------|--------|--------|--------|--------|--------|--------|
D|--------|--------|--------|--------|--------|--------|--------|--------|--------|
A|--------|--------|--------|--------|--------|--------|--------|--------|--------|
E|--------|--------|--------|--------|--------|--------|--------|--------|--------|


E|-----------------|-----------------|-------------------------------|-------------------------------------------|
B|-----------------|-----------------|-------------------------------|-------------------------------------------|
G|-----------------|-----------------|-------------------------------|-------------------------------------------|
D|-------2-----5---|------7----7-----|-------------------------------|-------------------------------------------|
A|-------2-----5---|------7----7-----|-------------------7--7--7--5--|----5----------5---------------7--7--7--5--|
E|-------0-----3---|------5----5-----|-------0--0--0--0--------------|-------5---7-------0--0--0--0--------------|


E|-----------------------------|-----------------|-------------------------------|
B|-----------------------------|-----------------|-------------------------------|
G|-----------------------------|-----------------|-------------------------------|
D|-------------------2-----5---|------7----7-----|-------------------------------|
A|----5----------5---2-----5---|------7----7-----|-------------------7--7--7--5--|
E|-------5---7-------0-----3---|------5----5-----|-------0--0--0--0--------------|


E|-------------------------------------------|-----------------------------|-----------------|
B|-------------------------------------------|-----------------------------|-----------------|
G|-------------------------------------------|-----------------------------|-----------------|
D|-------------------------------------------|-------------------2-----5---|------7----7-----|
A|----5----------5---------------7--7--7--5--|----5----------5---2-----5---|------7----7-----|
E|-------5---7-------0--0--0--0--------------|-------5---7-------0-----3---|------5----5-----|


E|-----------------|-----------------|-----------------|-----------------|-----------------|
B|-----------------|-----------------|-----------------|-----------------|-----------------|
G|-----------------|-----------------|-----------------|-----------------|-----------------|
D|-------2-----5---|------7----7-----|-------2-----5---|------7----7-----|-------2-----5---|
A|-------2-----5---|------7----7-----|-------2-----5---|------7----7-----|-------2-----5---|
E|-------0-----3---|------5----5-----|-------0-----3---|------5----5-----|-------0-----3---|


E|-----------------|-----------------|-----------------|-----------------|-----------------|
B|-----------------|-----------------|-----------------|-----------------|-----------------|
G|-----------------|-----------------|-----------------|-----------------|-----------------|
D|------7----7-----|-------2-----5---|------7----7-----|-------2-----5---|------7----7-----|
A|------7----7-----|-------2-----5---|------7----7-----|-------2-----5---|------7----7-----|
E|------5----5-----|-------0-----3---|------5----5-----|-------0-----3---|------5----5-----|


E|-----------------|-----------------|-----------------|-----------------|-------------------------------|
B|-----------------|-----------------|-----------------|-----------------|-------------------------------|
G|-----------------|-----------------|-----------------|-----------------|-------------------------------|
D|-------2-----5---|------7----7-----|-------2-----5---|------7----7-----|-------------------------------|
A|-------2-----5---|------7----7-----|-------2-----5---|------7----7-----|-------------------7--7--7--5--|
E|-------0-----3---|------5----5-----|-------0-----3---|------5----5-----|-------0--0--0--0--------------|


E|--------------------------------|-----------------|
B|--------------------------------|-----------------|
G|-------------------9-------9----|-9----9----------|
D|-------------------9-------9----|-9----9----------|
A|----5----------5---7-------7----|-7----7----------|
E|-------5---7-------0-------0----|-0----0----------|





Track 2: Organ

E|--------|--------|--------|--------|--------|--------|-0---12--12-----|-12-----12--0---|
B|--------|--------|--------|--------|--------|--------|----------------|----------------|
G|--------|--------|--------|--------|--------|--------|----------------|----------------|
D|--------|--------|--------|--------|--------|--------|----------------|----------------|
A|--------|--------|--------|--------|--------|--------|----------------|----------------|
E|--------|--------|--------|--------|--------|--------|----------------|----------------|


E|-0---12--12-----|-12-----|-12-----|-12-----|-7------|-7------|-7------|-7------|
B|----------------|--------|--------|--------|--------|--------|--------|--------|
G|----------------|--------|--------|--------|--------|--------|--------|--------|
D|----------------|--------|--------|--------|--------|--------|--------|--------|
A|----------------|--------|--------|--------|--------|--------|--------|--------|
E|----------------|--------|--------|--------|--------|--------|--------|--------|


E|--------|--------|--------|--------|--------|--------|--------|--------|--------|
B|--------|--------|--------|--------|--------|--------|--------|--------|--------|
G|--------|--------|--------|--------|--------|--------|--------|--------|--------|
D|--------|--------|--------|--------|--------|--------|--------|--------|--------|
A|--------|--------|--------|--------|--------|--------|--------|--------|--------|
E|--------|--------|--------|--------|--------|--------|--------|--------|--------|


E|-------12----|-------12----|-------12----|-------12----|-------12----|-------12----|
B|-------------|-------------|-------------|-------------|-------------|-------------|
G|-------------|-------------|-------------|-------------|-------------|-------------|
D|-------------|-------------|-------------|-------------|-------------|-------------|
A|-------------|-------------|-------------|-------------|-------------|-------------|
E|-------------|-------------|-------------|-------------|-------------|-------------|


E|-------12----|------12---17----|--------|--------|--------|--------|--------|--------|
B|-------------|-----------------|--------|--------|--------|--------|--------|--------|
G|-------------|-----------------|--------|--------|--------|--------|--------|--------|
D|-------------|-----------------|--------|--------|--------|--------|--------|--------|
A|-------------|-----------------|--------|--------|--------|--------|--------|--------|
E|-------------|-----------------|--------|--------|--------|--------|--------|--------|


E|--------|--------|--------|--------|-0---12--12-----|-12-----|--------|--------|
B|--------|--------|--------|--------|----------------|--------|--------|--------|
G|--------|--------|--------|--------|----------------|--------|--------|--------|
D|--------|--------|--------|--------|----------------|--------|--------|--------|
A|--------|--------|--------|--------|----------------|--------|--------|--------|
E|--------|--------|--------|--------|----------------|--------|--------|--------|


E|--------|--------|--------|--------|--------|--------|--------|--------|--------|
B|--------|--------|--------|--------|--------|--------|--------|--------|--------|
G|--------|--------|--------|--------|--------|--------|--------|--------|--------|
D|--------|--------|--------|--------|--------|--------|--------|--------|--------|
A|--------|--------|--------|--------|--------|--------|--------|--------|--------|
E|--------|--------|--------|--------|--------|--------|--------|--------|--------|


E|--------|--------|--------|--------|--------|-12-----|-12----10---10---10--|-12-----|
B|--------|--------|--------|--------|--------|--------|---------------------|--------|
G|--------|--------|--------|--------|--------|--------|---------------------|--------|
D|--------|--------|--------|--------|--------|--------|---------------------|--------|
A|--------|--------|--------|--------|--------|--------|---------------------|--------|
E|--------|--------|--------|--------|--------|--------|---------------------|--------|


E|-12----10---10---10--|-12-----|-12----10---10---10--|-12-----|-12-------------|--------|
B|---------------------|--------|---------------------|--------|----------------|--------|
G|---------------------|--------|---------------------|--------|----------------|--------|
D|---------------------|--------|---------------------|--------|----------------|--------|
A|---------------------|--------|---------------------|--------|----------------|--------|
E|---------------------|--------|---------------------|--------|----------------|--------|


E|--------|--------|--------|--------|--------|--------|--------|--------|-------0---12--12---|
B|--------|--------|--------|--------|--------|--------|--------|--------|--------------------|
G|--------|--------|--------|--------|--------|--------|--------|--------|--------------------|
D|--------|--------|--------|--------|--------|--------|--------|--------|--------------------|
A|--------|--------|--------|--------|--------|--------|--------|--------|--------------------|
E|--------|--------|--------|--------|--------|--------|--------|--------|--------------------|


E|-------12----|--------|--------|-------0---12--12---|-------12----|--------|--------|
B|-------------|--------|--------|--------------------|-------------|--------|--------|
G|-------------|--------|--------|--------------------|-------------|--------|--------|
D|-------------|--------|--------|--------------------|-------------|--------|--------|
A|-------------|--------|--------|--------------------|-------------|--------|--------|
E|-------------|--------|--------|--------------------|-------------|--------|--------|


E|--------|--------|--------|--------|--------|--------|--------|--------|-------12----|
B|--------|--------|--------|--------|--------|--------|--------|--------|-------------|
G|--------|--------|--------|--------|--------|--------|--------|--------|-------------|
D|--------|--------|--------|--------|--------|--------|--------|--------|-------------|
A|--------|--------|--------|--------|--------|--------|--------|--------|-------------|
E|--------|--------|--------|--------|--------|--------|--------|--------|-------------|


E|-------12----10--|-----10---10--12----|-------12----|-------12----|-------12----10--|
B|-----------------|--------------------|-------------|-------------|-----------------|
G|-----------------|--------------------|-------------|-------------|-----------------|
D|-----------------|--------------------|-------------|-------------|-----------------|
A|-----------------|--------------------|-------------|-------------|-----------------|
E|-----------------|--------------------|-------------|-------------|-----------------|


E|-----10---10--12----|-------12----|--------|--------|--------|
B|--------------------|-------------|--------|--------|--------|
G|--------------------|-------------|--------|--------|--------|
D|--------------------|-------------|--------|--------|--------|
A|--------------------|-------------|--------|--------|--------|
E|--------------------|-------------|--------|--------|--------|





Track 3: Brass

E|--------|--------|--------|--------|--------|--------|--------|--------|-0-----3-----5----|
B|--------|--------|--------|--------|--------|--------|--------|--------|------------------|
G|--------|--------|--------|--------|--------|--------|--------|--------|-------0-----2----|
D|--------|--------|--------|--------|--------|--------|--------|--------|-2----------------|
A|--------|--------|--------|--------|--------|--------|--------|--------|------------------|
E|--------|--------|--------|--------|--------|--------|--------|--------|------------------|


E|-5------|-7-----10----12---|-12-----|--------|--------|--------|--------|--------|
B|--------|------------------|--------|--------|--------|--------|--------|--------|
G|-2------|-4-----7-----9----|-9------|--------|--------|--------|--------|--------|
D|--------|------------------|--------|--------|--------|--------|--------|--------|
A|--------|------------------|--------|--------|--------|--------|--------|--------|
E|--------|------------------|--------|--------|--------|--------|--------|--------|


E|--------|--------|--------|--------|--------|--------|--------|--------|-------------|
B|--------|--------|--------|--------|--------|--------|--------|--------|-------------|
G|--------|--------|--------|--------|--------|--------|--------|--------|-------------|
D|--------|--------|--------|--------|--------|--------|--------|--------|-------------|
A|--------|--------|--------|--------|--------|--------|--------|--------|-------------|
E|--------|--------|--------|--------|--------|--------|--------|--------|-------------|


E|-------------|-------0-----3---|------5----5-----|-------------|-------------|-------7-----10--|
B|-------------|-----------------|-----------------|-------------|-------------|-----------------|
G|-------------|-------------0---|------2----2-----|-------------|-------------|-------4-----7---|
D|-------------|-------2---------|-----------------|-------------|-------------|-----------------|
A|-------------|-----------------|-----------------|-------------|-------------|-----------------|
E|-------------|-----------------|-----------------|-------------|-------------|-----------------|


E|------12---12----|--------|--------|--------|--------|--------|--------|--------|
B|-----------------|--------|--------|--------|--------|--------|--------|--------|
G|------9----9-----|--------|--------|--------|--------|--------|--------|--------|
D|-----------------|--------|--------|--------|--------|--------|--------|--------|
A|-----------------|--------|--------|--------|--------|--------|--------|--------|
E|-----------------|--------|--------|--------|--------|--------|--------|--------|


E|--------|--------|--------|-0-----3-----5----|-5------|--------|--------|--------|
B|--------|--------|--------|------------------|--------|--------|--------|--------|
G|--------|--------|--------|-------0-----2----|-2------|--------|--------|--------|
D|--------|--------|--------|-2----------------|--------|--------|--------|--------|
A|--------|--------|--------|------------------|--------|--------|--------|--------|
E|--------|--------|--------|------------------|--------|--------|--------|--------|


E|--------|--------|--------|--------|--------|-4---4---4------|-4------5---7---|--------|
B|--------|--------|--------|--------|--------|----------------|----------------|--------|
G|--------|--------|--------|--------|--------|-1---1---1------|-1------2---4---|--------|
D|--------|--------|--------|--------|--------|----------------|----------------|--------|
A|--------|--------|--------|--------|--------|----------------|----------------|--------|
E|--------|--------|--------|--------|--------|----------------|----------------|--------|


E|--------|-4---4---4------|-4------5---7---|--------|--------|-7---7---7------|-7------5---4---|
B|--------|----------------|----------------|--------|--------|----------------|----------------|
G|--------|-1---1---1------|-1------2---4---|--------|--------|-4---4---4------|-4------2---1---|
D|--------|----------------|----------------|--------|--------|----------------|----------------|
A|--------|----------------|----------------|--------|--------|----------------|----------------|
E|--------|----------------|----------------|--------|--------|----------------|----------------|


E|--------|--------|-4---4---4------|-4--------------|--------|--------|--------|--------|
B|--------|--------|----------------|--------7---5---|--------|--------|--------|--------|
G|--------|--------|-1---1---1------|-1--------------|--------|--------|--------|--------|
D|--------|--------|----------------|--------4---2---|--------|--------|--------|--------|
A|--------|--------|----------------|----------------|--------|--------|--------|--------|
E|--------|--------|----------------|----------------|--------|--------|--------|--------|


E|--------|--------|--------|--------|--------|--------|--------|-------0-----3---|
B|--------|--------|--------|--------|--------|--------|--------|-----------------|
G|--------|--------|--------|--------|--------|--------|--------|-------------0---|
D|--------|--------|--------|--------|--------|--------|--------|-------2---------|
A|--------|--------|--------|--------|--------|--------|--------|-----------------|
E|--------|--------|--------|--------|--------|--------|--------|-----------------|


E|------5----5-----|--------|--------|--------|--------|--------|--------|--------|
B|-----------------|--------|--------|--------|--------|--------|--------|--------|
G|------2----2-----|--------|--------|--------|--------|--------|--------|--------|
D|-----------------|--------|--------|--------|--------|--------|--------|--------|
A|-----------------|--------|--------|--------|--------|--------|--------|--------|
E|-----------------|--------|--------|--------|--------|--------|--------|--------|


E|--------|--------|--------|--------|--------|--------|--------|-------------|-------------|
B|--------|--------|--------|--------|--------|--------|--------|-------------|-------------|
G|--------|--------|--------|--------|--------|--------|--------|-------------|-------------|
D|--------|--------|--------|--------|--------|--------|--------|-------------|-------------|
A|--------|--------|--------|--------|--------|--------|--------|-------------|-------------|
E|--------|--------|--------|--------|--------|--------|--------|-------------|-------------|


E|-------0-----3---|------5----5-----|-------------|-------------|-------7-----10--|
B|-----------------|-----------------|-------------|-------------|-----------------|
G|-------------0---|------2----2-----|-------------|-------------|-------4-----7---|
D|-------2---------|-----------------|-------------|-------------|-----------------|
A|-----------------|-----------------|-------------|-------------|-----------------|
E|-----------------|-----------------|-------------|-------------|-----------------|


E|------12---12----|-------------|-------12-----------|--------|
B|-----------------|-------------|--------------------|--------|
G|------9----9-----|-------------|-------9------------|--------|
D|-----------------|-------------|--------------------|--------|
A|-----------------|-------------|--------------------|--------|
E|-----------------|-------------|--------------------|--------|





Track 4: Right

E|--------|--------|--------|--------|--------|--------|--------|--------|--------|
B|--------|--------|--------|--------|--------|--------|--------|--------|--------|
G|--------|--------|--------|--------|--------|--------|--------|--------|--------|
D|--------|--------|--------|--------|--------|--------|--------|--------|--------|
A|--------|--------|--------|--------|--------|--------|--------|--------|--------|
E|--------|--------|--------|--------|--------|--------|--------|--------|--------|


E|--------|--------|--------|--------|--------|--------|--------|------------------------|
B|--------|--------|--------|--------|--------|--------|--------|------------------------|
G|--------|--------|--------|--------|--------|--------|--------|------------------------|
D|--------|--------|--------|--------|--------|--------|--------|-2-----2---2---2----2---|
A|--------|--------|--------|--------|--------|--------|--------|-2-----2---2---2----2---|
E|--------|--------|--------|--------|--------|--------|--------|-0-----0---0---0----0---|


E|---------------------------|---------------------------|---------------------------|
B|---------------------------|---------------------------|---------------------------|
G|-4---4----4----------------|-2---2----2---4---4----4---|-6---6----6---6---6----6---|
D|-4---4----4---2---2----2---|-2---2----2---4---4----4---|-6---6----6---6---6----6---|
A|-2---2----2---2---2----2---|-0---0----0---2---2----2---|-4---4----4---4---4----4---|
E|--------------0---0----0---|---------------------------|---------------------------|


E|---------------------------|---------------------------|---------------------------|
B|---------------------------|---------------------------|---------------------------|
G|---------------------------|---------------------------|---------------------------|
D|-2---2----2---2---2----2---|-2---2----2---2---2----2---|-2---2----2---2---2----2---|
A|-2---2----2---2---2----2---|-2---2----2---2---2----2---|-2---2----2---2---2----2---|
E|-0---0----0---0---0----0---|-0---0----0---0---0----0---|-0---0----0---0---0----0---|


E|---------------------------|---------------------------|-----------------|--------|
B|---------------------------|---------------------------|-----------------|--------|
G|-4---4----4---4---4----4---|---------------------------|-4----4----------|--------|
D|-4---4----4---4---4----4---|-2---2----2---2---2----2---|-4----4----------|--------|
A|-2---2----2---2---2----2---|-2---2----2---2---2----2---|-2----2----------|--------|
E|---------------------------|-0---0----0---0---0----0---|-----------------|--------|


E|--------|--------|--------|--------|--------|--------|-----------------|---------------------------|
B|--------|--------|--------|--------|--------|--------|-----------------|---------------------------|
G|--------|--------|--------|--------|--------|--------|-----------------|--------------4---4----4---|
D|--------|--------|--------|--------|--------|--------|-------2-----2---|-2---2----2---4---4----4---|
A|--------|--------|--------|--------|--------|--------|-------2-----2---|-2---2----2---2---2----2---|
E|--------|--------|--------|--------|--------|--------|-------0-----0---|-0---0----0----------------|


E|---------------------------|---------------------------|---------------------------|
B|---------------------------|---------------------------|---------------------------|
G|--------------2---2----2---|-4---4----4---6---6----6---|-6---6----6----------------|
D|-2---2----2---2---2----2---|-4---4----4---6---6----6---|-6---6----6---2---2----2---|
A|-2---2----2---0---0----0---|-2---2----2---4---4----4---|-4---4----4---2---2----2---|
E|-0---0----0----------------|---------------------------|--------------0---0----0---|


E|---------------------------|---------------------------|---------------------------|
B|---------------------------|---------------------------|---------------------------|
G|---------------------------|---------------------------|--------------4---4----4---|
D|-2---2----2---2---2----2---|-2---2----2---2---2----2---|-2---2----2---4---4----4---|
A|-2---2----2---2---2----2---|-2---2----2---2---2----2---|-2---2----2---2---2----2---|
E|-0---0----0---0---0----0---|-0---0----0---0---0----0---|-0---0----0----------------|


E|---------------------------|------------------------|--------|--------|--------|
B|---------------------------|------------------------|--------|--------|--------|
G|-4---4----4----------------|--------------4----4----|--------|--------|--------|
D|-4---4----4---2---2----2---|-2---2----2---4----4----|--------|--------|--------|
A|-2---2----2---2---2----2---|-2---2----2---2----2----|--------|--------|--------|
E|--------------0---0----0---|-0---0----0-------------|--------|--------|--------|


E|--------|--------|--------|--------|--------|--------|--------|--------|--------|
B|--------|--------|--------|--------|--------|--------|--------|--------|--------|
G|--------|--------|--------|--------|--------|--------|--------|--------|--------|
D|--------|--------|--------|--------|--------|--------|--------|--------|--------|
A|--------|--------|--------|--------|--------|--------|--------|--------|--------|
E|--------|--------|--------|--------|--------|--------|--------|--------|--------|


E|--------|--------|--------|--------|--------|--------|--------|--------|--------|
B|--------|--------|--------|--------|--------|--------|--------|--------|--------|
G|--------|--------|--------|--------|--------|--------|--------|--------|--------|
D|--------|--------|--------|--------|--------|--------|--------|--------|--------|
A|--------|--------|--------|--------|--------|--------|--------|--------|--------|
E|--------|--------|--------|--------|--------|--------|--------|--------|--------|


E|--------|--------|--------|--------|--------|------------------------|---------------------------|
B|--------|--------|--------|--------|--------|------------------------|---------------------------|
G|--------|--------|--------|--------|--------|------------------------|-4---4----4----------------|
D|--------|--------|--------|--------|--------|-2-----2---2---2----2---|-4---4----4---2---2----2---|
A|--------|--------|--------|--------|--------|-2-----2---2---2----2---|-2---2----2---2---2----2---|
E|--------|--------|--------|--------|--------|-0-----0---0---0----0---|--------------0---0----0---|


E|---------------------------|---------------------------|---------------------------|
B|---------------------------|---------------------------|---------------------------|
G|-2---2----2---4---4----4---|-6---6----6---6---6----6---|---------------------------|
D|-2---2----2---4---4----4---|-6---6----6---6---6----6---|-2---2----2---2---2----2---|
A|-0---0----0---2---2----2---|-4---4----4---4---4----4---|-2---2----2---2---2----2---|
E|---------------------------|---------------------------|-0---0----0---0---0----0---|


E|---------------------------|---------------------------|---------------------------|
B|---------------------------|---------------------------|---------------------------|
G|---------------------------|---------------------------|-4---4----4---4---4----4---|
D|-2---2----2---2---2----2---|-2---2----2---2---2----2---|-4---4----4---4---4----4---|
A|-2---2----2---2---2----2---|-2---2----2---2---2----2---|-2---2----2---2---2----2---|
E|-0---0----0---0---0----0---|-0---0----0---0---0----0---|---------------------------|


E|---------------------------|-----------------|--------|--------|--------|--------|
B|---------------------------|-----------------|--------|--------|--------|--------|
G|---------------------------|-4----4----------|--------|--------|--------|--------|
D|-2---2----2---2---2----2---|-4----4----------|--------|--------|--------|--------|
A|-2---2----2---2---2----2---|-2----2----------|--------|--------|--------|--------|
E|-0---0----0---0---0----0---|-----------------|--------|--------|--------|--------|


E|--------|--------|--------|--------|--------|--------|--------|--------|--------|
B|--------|--------|--------|--------|--------|--------|--------|--------|--------|
G|--------|--------|--------|--------|--------|--------|--------|--------|--------|
D|--------|--------|--------|--------|--------|--------|--------|--------|--------|
A|--------|--------|--------|--------|--------|--------|--------|--------|--------|
E|--------|--------|--------|--------|--------|--------|--------|--------|--------|


E|--------|--------|--------|--------|--------|--------|--------|--------|--------|
B|--------|--------|--------|--------|--------|--------|--------|--------|--------|
G|--------|--------|--------|--------|--------|--------|--------|--------|--------|
D|--------|--------|--------|--------|--------|--------|--------|--------|--------|
A|--------|--------|--------|--------|--------|--------|--------|--------|--------|
E|--------|--------|--------|--------|--------|--------|--------|--------|--------|


E|--------|--------|--------|--------|
B|--------|--------|--------|--------|
G|--------|--------|--------|--------|
D|--------|--------|--------|--------|
A|--------|--------|--------|--------|
E|--------|--------|--------|--------|





Track 5: Left

E|--------|--------|--------|--------|--------|--------|--------|--------|--------|
B|--------|--------|--------|--------|--------|--------|--------|--------|--------|
G|--------|--------|--------|--------|--------|--------|--------|--------|--------|
D|--------|--------|--------|--------|--------|--------|--------|--------|--------|
A|--------|--------|--------|--------|--------|--------|--------|--------|--------|
E|--------|--------|--------|--------|--------|--------|--------|--------|--------|


E|--------|--------|--------|--------|--------|--------|--------|------------------------|
B|--------|--------|--------|--------|--------|--------|--------|------------------------|
G|--------|--------|--------|--------|--------|--------|--------|-9-----9---8---9----9---|
D|--------|--------|--------|--------|--------|--------|--------|-9-----9---9---9----9---|
A|--------|--------|--------|--------|--------|--------|--------|-7-----7---7---7----7---|
E|--------|--------|--------|--------|--------|--------|--------|------------------------|


E|---------------------------|---------------------------|---------------------------|
B|---------------------------|---------------------------|---------------------------|
G|--------------9---9----9---|---------------------------|-6---6----6---6---6----6---|
D|-9---9----9---9---9----9---|-7---7----7---9---9----9---|-6---6----6---6---6----6---|
A|-9---9----9---7---7----7---|-7---7----7---9---9----9---|-4---4----4---4---4----4---|
E|-7---7----7----------------|-5---5----5---7---7----7---|---------------------------|


E|---------------------------|---------------------------|---------------------------|
B|---------------------------|---------------------------|---------------------------|
G|-9---9----8------------9---|-9---9----8------------9---|-9---9----9---9---9----9---|
D|-9---9----9---11--9----9---|-9---9----9---11--9----9---|-9---9----9---9---9----9---|
A|-7---7----7---7---7----7---|-7---7----7---7---7----7---|-7---7----7---7---7----7---|
E|---------------------------|---------------------------|---------------------------|


E|---------------------------|---------------------------|-----------------|--------|
B|---------------------------|---------------------------|-----------------|--------|
G|---------------------------|-9---9----9---9---9----9---|-----------------|--------|
D|-9---9----9---9---9----9---|-9---9----9---9---9----9---|-9----9----------|--------|
A|-9---9----9---9---9----9---|-7---7----7---7---7----7---|-9----9----------|--------|
E|-7---7----7---7---7----7---|---------------------------|-7----7----------|--------|


E|--------|--------|--------|--------|--------|--------|-----------------|---------------------------|
B|--------|--------|--------|--------|--------|--------|-----------------|---------------------------|
G|--------|--------|--------|--------|--------|--------|-------9-----9---|-8---9----9----------------|
D|--------|--------|--------|--------|--------|--------|-------9-----9---|-9---9----9---9---9----9---|
A|--------|--------|--------|--------|--------|--------|-------7-----7---|-7---7----7---9---9----9---|
E|--------|--------|--------|--------|--------|--------|-----------------|--------------7---7----7---|


E|---------------------------|---------------------------|---------------------------|
B|---------------------------|---------------------------|---------------------------|
G|-9---9----9----------------|--------------6---6----6---|-6---6----6---9---9----8---|
D|-9---9----9---7---7----7---|-9---9----9---6---6----6---|-6---6----6---9---9----9---|
A|-7---7----7---7---7----7---|-9---9----9---4---4----4---|-4---4----4---7---7----7---|
E|--------------5---5----5---|-7---7----7----------------|---------------------------|


E|---------------------------|---------------------------|---------------------------|
B|---------------------------|---------------------------|---------------------------|
G|----------9---9---9----8---|----------9---9---9----9---|-9---9----9----------------|
D|-11--9----9---9---9----9---|-11--9----9---9---9----9---|-9---9----9---9---9----9---|
A|-7---7----7---7---7----7---|-7---7----7---7---7----7---|-7---7----7---9---9----9---|
E|---------------------------|---------------------------|--------------7---7----7---|


E|---------------------------|------------------------|--------|--------|--------|
B|---------------------------|------------------------|--------|--------|--------|
G|--------------9---9----9---|-9---9----9-------------|--------|--------|--------|
D|-9---9----9---9---9----9---|-9---9----9---9----9----|--------|--------|--------|
A|-9---9----9---7---7----7---|-7---7----7---9----9----|--------|--------|--------|
E|-7---7----7----------------|--------------7----7----|--------|--------|--------|


E|--------|--------|--------|--------|--------|--------|--------|--------|--------|
B|--------|--------|--------|--------|--------|--------|--------|--------|--------|
G|--------|--------|--------|--------|--------|--------|--------|--------|--------|
D|--------|--------|--------|--------|--------|--------|--------|--------|--------|
A|--------|--------|--------|--------|--------|--------|--------|--------|--------|
E|--------|--------|--------|--------|--------|--------|--------|--------|--------|


E|--------|--------|--------|--------|--------|--------|--------|--------|--------|
B|--------|--------|--------|--------|--------|--------|--------|--------|--------|
G|--------|--------|--------|--------|--------|--------|--------|--------|--------|
D|--------|--------|--------|--------|--------|--------|--------|--------|--------|
A|--------|--------|--------|--------|--------|--------|--------|--------|--------|
E|--------|--------|--------|--------|--------|--------|--------|--------|--------|


E|--------|--------|--------|--------|--------|------------------------|---------------------------|
B|--------|--------|--------|--------|--------|------------------------|---------------------------|
G|--------|--------|--------|--------|--------|-9-----9---8---9----9---|--------------9---9----9---|
D|--------|--------|--------|--------|--------|-9-----9---9---9----9---|-9---9----9---9---9----9---|
A|--------|--------|--------|--------|--------|-7-----7---7---7----7---|-9---9----9---7---7----7---|
E|--------|--------|--------|--------|--------|------------------------|-7---7----7----------------|


E|---------------------------|---------------------------|---------------------------|
B|---------------------------|---------------------------|---------------------------|
G|---------------------------|-6---6----6---6---6----6---|-9---9----8------------9---|
D|-7---7----7---9---9----9---|-6---6----6---6---6----6---|-9---9----9---11--9----9---|
A|-7---7----7---9---9----9---|-4---4----4---4---4----4---|-7---7----7---7---7----7---|
E|-5---5----5---7---7----7---|---------------------------|---------------------------|


E|---------------------------|---------------------------|---------------------------|
B|---------------------------|---------------------------|---------------------------|
G|-9---9----8------------9---|-9---9----9---9---9----9---|---------------------------|
D|-9---9----9---11--9----9---|-9---9----9---9---9----9---|-9---9----9---9---9----9---|
A|-7---7----7---7---7----7---|-7---7----7---7---7----7---|-9---9----9---9---9----9---|
E|---------------------------|---------------------------|-7---7----7---7---7----7---|


E|---------------------------|-----------------|--------|--------|--------|--------|
B|---------------------------|-----------------|--------|--------|--------|--------|
G|-9---9----9---9---9----9---|-----------------|--------|--------|--------|--------|
D|-9---9----9---9---9----9---|-9----9----------|--------|--------|--------|--------|
A|-7---7----7---7---7----7---|-9----9----------|--------|--------|--------|--------|
E|---------------------------|-7----7----------|--------|--------|--------|--------|


E|--------|--------|--------|--------|--------|--------|--------|--------|--------|
B|--------|--------|--------|--------|--------|--------|--------|--------|--------|
G|--------|--------|--------|--------|--------|--------|--------|--------|--------|
D|--------|--------|--------|--------|--------|--------|--------|--------|--------|
A|--------|--------|--------|--------|--------|--------|--------|--------|--------|
E|--------|--------|--------|--------|--------|--------|--------|--------|--------|


E|--------|--------|--------|--------|--------|--------|--------|--------|--------|
B|--------|--------|--------|--------|--------|--------|--------|--------|--------|
G|--------|--------|--------|--------|--------|--------|--------|--------|--------|
D|--------|--------|--------|--------|--------|--------|--------|--------|--------|
A|--------|--------|--------|--------|--------|--------|--------|--------|--------|
E|--------|--------|--------|--------|--------|--------|--------|--------|--------|


E|--------|--------|--------|--------|
B|--------|--------|--------|--------|
G|--------|--------|--------|--------|
D|--------|--------|--------|--------|
A|--------|--------|--------|--------|
E|--------|--------|--------|--------|





Track 6: Untitled

G|--------|--------|--------|--------|------------------|--------|------------------|
D|--------|--------|--------|--------|------------------|--------|------------------|
A|--------|--------|--------|--------|-------------0----|-0------|-------------0----|
E|--------|--------|--------|--------|-0-----3----------|--------|-0-----3----------|


G|--------|------------------|------------------------------|------------------|------------------------------|
D|--------|------------------|------------------------------|------------------|------------------------------|
A|-0------|------------------|------------------------------|------------------|------------------------------|
E|--------|-0-----3-----5----|-5---3---5---6---5---3---0----|-0-----3-----5----|-5---3---5---6---5---3---0----|


G|--------|-------------|------------------|---------------------|---------------------------------|
D|--------|-------------|------------------|---------------------|---------------------------------|
A|--------|--------7----|-7-----5----------|---------------------|---------------------------------|
E|-0------|-0-----------|-------------7----|-7---6-----5----3----|-0---0-------0---0---0-------0---|


G|---------------------------------|---------------------------------|---------------------------------|
D|---------------------------------|---------------------------------|---------------------------------|
A|-2---2-------2-------------------|-0---0-------0---2---2-------2---|-4---4-------4---4---4-------4---|
E|-----------------0---0-------0---|---------------------------------|---------------------------------|


G|---------------------------------|---------------------------------|---------------------------------|
D|---------------------------------|---------------------------------|-2---2-------2---2---2-------2---|
A|---------------------------------|---------------------------------|---------------------------------|
E|-0---0-------0---0---0-------0---|-0---0-------0---0---0-------0---|---------------------------------|


G|---------------------------------|---------------------------------|---------------------|
D|---------------------------------|---------------------------------|---------------------|
A|-2---2-------2---2---2-------2---|---------------------------------|-2----7--------------|
E|---------------------------------|-0---0-------0---0---0-------0---|-----------0-----3---|


G|------------------------|------------------------|---------------------------|------------------------|
D|------------------------|------------------------|---------------------------|------------------------|
A|------------------------|------------------------|------0--------------------|------------------------|
E|------5----5----5---3---|-5---6---5----0-----3---|-----------5---3---5---3---|-5---6---5----0-----3---|


G|---------------------------|------------------------------|------------------------------|
D|---------------------------|------------------------------|------------------------------|
A|------0--------------------|------------------------------|------------------------------|
E|-----------5---3---5---3---|-5---6---5----0-------0---3---|-----3---5----5---3---5---3---|


G|------------------------------|---------------------------------|---------------------------------|
D|------------------------------|---------------------------------|---------------------------------|
A|------------------------------|-----------------2---2-------2---|-----------------0---0-------0---|
E|-5---7---12---0---0-------0---|-0---0-------0-------------------|-0---0-------0-------------------|


G|---------------------------------|---------------------------------|---------------------------------|
D|---------------------------------|---------------------------------|---------------------------------|
A|-2---2-------2---4---4-------4---|-4---4-------4-------------------|---------------------------------|
E|---------------------------------|-----------------0---0-------0---|-0---0-------0---0---0-------0---|


G|---------------------------------|---------------------------------|---------------------------------|
D|-----------------2---2-------2---|-2---2-------2-------------------|---------------------------------|
A|---------------------------------|-----------------2---2-------2---|-2---2-------2-------------------|
E|-0---0-------0-------------------|---------------------------------|-----------------0---0-------0---|


G|---------------------------|------------------|------------------------------|--------|
D|---------------------------|------------------|------------------------------|--------|
A|-----------------2----7----|-------------0----|------------------------------|--------|
E|-0---0-------0-------------|-0-----3----------|-5---3---5---3---5---6---5----|--------|


G|--------|--------|-------------|------------------------|------------------------|
D|--------|--------|-------------|------------------------|------------------------|
A|--------|--------|-------------|------------------------|------------------------|
E|--------|--------|-12-----3----|-0---0----0----0----0---|-0---0----0----0----0---|


G|------------------------|------------------------|------------------------|------------------------|
D|------------------------|------------------------|------------------------|------------------------|
A|------------------------|------------------------|------------------------|------------------------|
E|-0---0----0----0----0---|-0---0----0----0----0---|-0---0----0----0----0---|-0---0----0----0----0---|


G|------------------------|------------------------|------------------------|------------------------|
D|------------------------|------------------------|------------------------|------------------------|
A|------------------------|------------------------|------------------------|------------------------|
E|-0---0----0----0----0---|-0---0----0----0----0---|-0---0----0----0----0---|-0---0----0----0----0---|


G|------------------------|------------------------|---------------------------|------------------------------|
D|------------------------|------------------------|---------------------------|------------------------------|
A|------------------------|------------------------|-----7----5------------5---|----------7---5-----------5---|
E|-0---0----0----0----0---|-0---0----0----0----0---|-0-------------5---7-------|-0---0------------5---7-------|


G|------------------------------|------------------------------|------------------------------|
D|------------------------------|------------------------------|------------------------------|
A|----------7---5-----------5---|----------7---5-----------5---|----------7---5-----------5---|
E|-0---0------------5---7-------|-0---0------------5---7-------|-0---0------------5---7-------|


G|------------------------------|------------------------------|------------------------------|
D|------------------------------|------------------------------|------------------------------|
A|----------7---5-----------5---|----------7---5-----------5---|----------7---5-----------5---|
E|-0---0------------5---7-------|-0---0------------5---7-------|-0---0------------5---7-------|


G|---------------------------------|---------------------------------|---------------------------------|
D|---------------------------------|---------------------------------|---------------------------------|
A|---------------------------------|-2---2-------2-------------------|-0---0-------0---2---2-------2---|
E|-0---0-------0---0---0-------0---|-----------------0---0-------0---|---------------------------------|


G|---------------------------------|---------------------------------|---------------------------------|
D|---------------------------------|---------------------------------|---------------------------------|
A|-4---4-------4---4---4-------4---|---------------------------------|---------------------------------|
E|---------------------------------|-0---0-------0---0---0-------0---|-0---0-------0---0---0-------0---|


G|---------------------------------|---------------------------------|---------------------------------|
D|-2---2-------2---2---2-------2---|---------------------------------|---------------------------------|
A|---------------------------------|-2---2-------2---2---2-------2---|---------------------------------|
E|---------------------------------|---------------------------------|-0---0-------0---0---0-------0---|


G|---------------------|---------------------------|---------------------------|------------------------------|
D|---------------------|---------------------------|---------------------------|------------------------------|
A|-2----7--------------|------0--------------------|-----------------------7---|-5-----------5------------7---|
E|-----------0-----3---|-----------5---3---5---3---|-5---6---5----0---0--------|-----5---7-------0---0--------|


G|---------------------------|---------------------------|---------------------------|
D|---------------------------|---------------------------|---------------------------|
A|-5-----------5-------------|------0--------------------|-----------------------7---|
E|-----5---7-------0-----3---|-----------5---3---5---3---|-5---6---5----0---0--------|


G|------------------------------|---------------------------|------------------------|
D|------------------------------|---------------------------|------------------------|
A|-5-----------5------------7---|-5-----------5-------------|------------------------|
E|-----5---7-------0---0--------|-----5---7-------0----0----|-0----0----0----0---0---|


G|---------------------|------------------------|------------------------|---------------------|
D|---------------------|------------------------|------------------------|---------------------|
A|---------------------|------------------------|------------------------|---------------------|
E|------0----0----0----|-0----0----0----0---0---|------0----0----0---0---|------0----0----0----|


G|---------------------------------|---------------------------------|---------------------------|
D|---------------------------------|---------------------------------|-----7---9---7-------------|
A|-----------------7---7---7---7---|-7---7---7---7---7---7---7---7---|-7-------------------------|
E|-0---0---0---0-------------------|---------------------------------|-----------------0-----3---|


G|---------------------|---------------------------|---------------------------|---------------------------|
D|---------------------|---------------------------|---------------------------|---------------------------|
A|------0--------------|---------------------------|---------0-----------------|---------------------------|
E|-----------5---0-----|-5---6---5---3---0-----3---|-----3--------0---0----3---|-5---6---5---3---0-----3---|


G|---------------------------|------------------------|---------------------------|
D|---------------------------|------------------------|---------------------------|
A|------0--------------------|------------------------|------0--------------------|
E|-----------5---3---5---3---|-5---6---5----0-----3---|-----------5---3---5---3---|


G|---------------------------|------------------------------|-------------|
D|---------------------------|------------------------------|-------------|
A|----------------------7----|-5-----------5----------------|-------------|
E|-5---6---5----0---0--------|-----5---7-------12---0-------|-------------|