Site menu:

    

Browse: 0-9 A B C D E F G H I J K L N O P Q R S T U V W X Y Z

athlete - shake those windows:



Title: Shake Those Windows
Artist: 
Album: Vehicles and Animals
Author: Joel Pott, Carey Willets, Steve Roberts, Tim Wanstall


Track 1: Joel Pott

E|------3---------3----|------3---------3----|------3---------3----|------3---------3----|
B|------3---------3----|------3---------3----|------3---------3----|------3---------3----|
G|------0---------0----|------0---------0----|------0---------0----|------0---------0----|
D|---------------------|---------------------|-2---------2---------|-2---------2---------|
A|-2---------2---------|-2---------2---------|-3---------3---------|-3---------3---------|
E|-3---------3---------|-3---------3---------|---------------------|---------------------|


E|------3---------3----|------3---------3----|------3---------3----|------3---------3----|
B|------3---------3----|------3---------3----|------3---------3----|------3---------3----|
G|------0---------0----|------0---------0----|------0---------0----|------0---------0----|
D|---------------------|---------------------|-2---------2---------|-2---------2---------|
A|-2---------2---------|-2---------2---------|-3---------3---------|-3---------3---------|
E|-3---------3---------|-3---------3---------|---------------------|---------------------|


E|------3---------3----|------3---------3----|------3---------3----|------3---------3----|
B|------3---------3----|------3---------3----|------3---------3----|------3---------3----|
G|------0---------0----|------0---------0----|------0---------0----|------0---------0----|
D|---------------------|---------------------|-2---------2---------|-2---------2---------|
A|-2---------2---------|-2---------2---------|-3---------3---------|-3---------3---------|
E|-3---------3---------|-3---------3---------|---------------------|---------------------|


E|------2---------2----|------2---------2----|------0---------0----|------0---------0----|
B|------3---------3----|------3---------3----|------1---------1----|------1---------1----|
G|---------------------|---------------------|---------------------|---------------------|
D|-4---------4---------|-4---------4---------|-2---------2---------|-2---------2---------|
A|-2---------2---------|-2---------2---------|-0---------0---------|-0---------0---------|
E|---------------------|---------------------|---------------------|---------------------|


E|------2---------2----|------2---------2----|------0---------0----|------0---------0----|
B|------3---------3----|------3---------3----|------1---------1----|------1---------1----|
G|---------------------|---------------------|---------------------|---------------------|
D|-4---------4---------|-4---------4---------|-2---------2---------|-2---------2---------|
A|-2---------2---------|-2---------2---------|-0---------0---------|-0---------0---------|
E|---------------------|---------------------|---------------------|---------------------|


E|------3---------3----|------3---------3----|-0---0-------0---0------------|-3------|
B|------3---------3----|------3---------3----|-1---1-------1---1------------|-3------|
G|------0---------0----|------0---------0----|-0---0-------0---0------------|-0------|
D|---------------------|---------------------|-2---2-------2---2------------|-2------|
A|-2---------2---------|-2---------2---------|-3---3-------3---3------------|-3------|
E|-3---------3---------|-3---------3---------|------------------------------|--------|


E|------3---------3----|------3---------3----|-0---0-------0---0------------|-3------|
B|------3---------3----|------3---------3----|-1---1-------1---1------------|-3------|
G|------0---------0----|------0---------0----|-0---0-------0---0------------|-0------|
D|---------------------|---------------------|-2---2-------2---2------------|-2------|
A|-2---------2---------|-2---------2---------|-3---3-------3---3------------|-3------|
E|-3---------3---------|-3---------3---------|------------------------------|--------|


E|------3---------3----|------3---------3----|------3---------3----|------3---------3----|
B|------3---------3----|------3---------3----|------3---------3----|------3---------3----|
G|------0---------0----|------0---------0----|------0---------0----|------0---------0----|
D|---------------------|---------------------|---------------------|---------------------|
A|-2---------2---------|-2---------2---------|-2---------2---------|-2---------2---------|
E|-3---------3---------|-3---------3---------|-3---------3---------|-3---------3---------|


E|------3---------3----|------3---------3----|------3---------3----|------3---------3----|
B|------3---------3----|------3---------3----|------3---------3----|------3---------3----|
G|------0---------0----|------0---------0----|------0---------0----|------0---------0----|
D|-2---------2---------|-2---------2---------|---------------------|---------------------|
A|-3---------3---------|-3---------3---------|-2---------2---------|-2---------2---------|
E|---------------------|---------------------|-3---------3---------|-3---------3---------|


E|------3---------3----|------3---------3----|------3---------3----|------3---------3----|
B|------3---------3----|------3---------3----|------3---------3----|------3---------3----|
G|------0---------0----|------0---------0----|------0---------0----|------0---------0----|
D|-2---------2---------|-2---------2---------|---------------------|---------------------|
A|-3---------3---------|-3---------3---------|-2---------2---------|-2---------2---------|
E|---------------------|---------------------|-3---------3---------|-3---------3---------|


E|------3---------3----|------3---------3----|-2---2---2---2---2---2---2---2---|-2---2---2---2---2---2---2---2---|
B|------3---------3----|------3---------3----|-3---3---3---3---3---3---3---3---|-3---3---3---3---3---3---3---3---|
G|------0---------0----|------0---------0----|-4---4---4---4---4---4---4---4---|-4---4---4---4---4---4---4---4---|
D|-2---------2---------|-2---------2---------|-4---4---4---4---4---4---4---4---|-4---4---4---4---4---4---4---4---|
A|-3---------3---------|-3---------3---------|-2---2---2---2---2---2---2---2---|-2---2---2---2---2---2---2---2---|
E|---------------------|---------------------|---------------------------------|---------------------------------|


E|-0---0---0---0---0---0---0---0---|-0---0---0---0---0---0---0---0---|-2---2---2---2---2---2---2---2---|
B|-1---1---1---1---1---1---1---1---|-1---1---1---1---1---1---1---1---|-3---3---3---3---3---3---3---3---|
G|-2---2---2---2---2---2---2---2---|-2---2---2---2---2---2---2---2---|-4---4---4---4---4---4---4---4---|
D|-2---2---2---2---2---2---2---2---|-2---2---2---2---2---2---2---2---|-4---4---4---4---4---4---4---4---|
A|-0---0---0---0---0---0---0---0---|-0---0---0---0---0---0---0---0---|-2---2---2---2---2---2---2---2---|
E|---------------------------------|---------------------------------|---------------------------------|


E|-2---2---2---2---2---2---2---2---|-0---0---0---0---0---0---0---0---|-0---0---0---0---0---0---0---0---|
B|-3---3---3---3---3---3---3---3---|-1---1---1---1---1---1---1---1---|-1---1---1---1---1---1---1---1---|
G|-4---4---4---4---4---4---4---4---|-2---2---2---2---2---2---2---2---|-2---2---2---2---2---2---2---2---|
D|-4---4---4---4---4---4---4---4---|-2---2---2---2---2---2---2---2---|-2---2---2---2---2---2---2---2---|
A|-2---2---2---2---2---2---2---2---|-0---0---0---0---0---0---0---0---|-0---0---0---0---0---0---0---0---|
E|---------------------------------|---------------------------------|---------------------------------|


E|--------------3-------2----|--------------3----7----|--------------8-------7----|
B|-----3---------------------|-----3------------------|-----8---------------------|
G|-4--------4-------4--------|-4--------4-------------|-9--------9-------9--------|
D|---------------------------|------------------------|---------------------------|
A|---------------------------|------------------------|---------------------------|
E|---------------------------|------------------------|---------------------------|


E|--------------10------10---|--------------3-------2----|--------------3----7----|
B|-----8---------------------|-----3---------------------|-----3------------------|
G|-9--------9-------9--------|-4--------4-------4--------|-4--------4-------------|
D|---------------------------|---------------------------|------------------------|
A|---------------------------|---------------------------|------------------------|
E|---------------------------|---------------------------|------------------------|


E|--------------8-------7----|--------------10------10---|--------------3-------2----|
B|-----8---------------------|-----8---------------------|-----3---------------------|
G|-9--------9-------9--------|-9--------9-------9--------|-4--------4-------4--------|
D|---------------------------|---------------------------|---------------------------|
A|---------------------------|---------------------------|---------------------------|
E|---------------------------|---------------------------|---------------------------|


E|--------------3----7----|--------------8-------7----|--------------10------10---|
B|-----3------------------|-----8---------------------|-----8---------------------|
G|-4--------4-------------|-9--------9-------9--------|-9--------9-------9--------|
D|------------------------|---------------------------|---------------------------|
A|------------------------|---------------------------|---------------------------|
E|------------------------|---------------------------|---------------------------|


E|--------------3-------2----|--------------3----7----|--------------8-------7----|
B|-----3---------------------|-----3------------------|-----8---------------------|
G|-4--------4-------4--------|-4--------4-------------|-9--------9-------9--------|
D|---------------------------|------------------------|---------------------------|
A|---------------------------|------------------------|---------------------------|
E|---------------------------|------------------------|---------------------------|


E|--------------10------10---|--------------3-------2----|--------------3----7----|
B|-----8---------------------|-----3---------------------|-----3------------------|
G|-9--------9-------9--------|-4--------4-------4--------|-4--------4-------------|
D|---------------------------|---------------------------|------------------------|
A|---------------------------|---------------------------|------------------------|
E|---------------------------|---------------------------|------------------------|


E|-------------10--10--7---7-------|--------|-------------10--10--7---7-------|--------|
B|-----8---8-----------------------|--------|-----8---8-----------------------|--------|
G|-9-------------------------------|--------|-9-------------------------------|--------|
D|---------------------------------|--------|---------------------------------|--------|
A|---------------------------------|--------|---------------------------------|--------|
E|---------------------------------|--------|---------------------------------|--------|


E|-------------10--10--7---7-------|--------|-------------10--10--7---7-------|--------|
B|-----8---8-----------------------|--------|-----8---8-----------------------|--------|
G|-9-------------------------------|--------|-9-------------------------------|--------|
D|---------------------------------|--------|---------------------------------|--------|
A|---------------------------------|--------|---------------------------------|--------|
E|---------------------------------|--------|---------------------------------|--------|


E|-------------10--10--7---7-------|--------|--------------8-------7----|--------------10------10---|
B|-----8---8-----------------------|--------|-----8---------------------|-----8---------------------|
G|-9-------------------------------|--------|-9--------9-------9--------|-9--------9-------9--------|
D|---------------------------------|--------|---------------------------|---------------------------|
A|---------------------------------|--------|---------------------------|---------------------------|
E|---------------------------------|--------|---------------------------|---------------------------|


E|--------------3-------2----|--------------3----7----|--------------8-------7----|
B|-----3---------------------|-----3------------------|-----8---------------------|
G|-4--------4-------4--------|-4--------4-------------|-9--------9-------9--------|
D|---------------------------|------------------------|---------------------------|
A|---------------------------|------------------------|---------------------------|
E|---------------------------|------------------------|---------------------------|


E|--------------10------10---|--------------3-------2----|--------------3----7----|
B|-----8---------------------|-----3---------------------|-----3------------------|
G|-9--------9-------9--------|-4--------4-------4--------|-4--------4-------------|
D|---------------------------|---------------------------|------------------------|
A|---------------------------|---------------------------|------------------------|
E|---------------------------|---------------------------|------------------------|


E|--------------8-------7----|--------------10------10---|--------------3-------2----|
B|-----8---------------------|-----8---------------------|-----3---------------------|
G|-9--------9-------9--------|-9--------9-------9--------|-4--------4-------4--------|
D|---------------------------|---------------------------|---------------------------|
A|---------------------------|---------------------------|---------------------------|
E|---------------------------|---------------------------|---------------------------|


E|--------------3----7----|--------------8-------7----|--------------10------10---|
B|-----3------------------|-----8---------------------|-----8---------------------|
G|-4--------4-------------|-9--------9-------9--------|-9--------9-------9--------|
D|------------------------|---------------------------|---------------------------|
A|------------------------|---------------------------|---------------------------|
E|------------------------|---------------------------|---------------------------|


E|--------------3-------2----|--------------3----7----|--------|--------|--------|
B|-----3---------------------|-----3------------------|--------|--------|--------|
G|-4--------4-------4--------|-4--------4-------------|--------|--------|--------|
D|---------------------------|------------------------|--------|--------|--------|
A|---------------------------|------------------------|--------|--------|--------|
E|---------------------------|------------------------|--------|--------|--------|


E|--------|--------|--------|--------|--------|--------|--------|--------|--------|
B|--------|--------|--------|--------|--------|--------|--------|--------|--------|
G|--------|--------|--------|--------|--------|--------|--------|--------|--------|
D|--------|--------|--------|--------|--------|--------|--------|--------|--------|
A|--------|--------|--------|--------|--------|--------|--------|--------|--------|
E|--------|--------|--------|--------|--------|--------|--------|--------|--------|


E|--------|--------|--------|--------|--------|--------|--------|--------|--------|
B|--------|--------|--------|--------|--------|--------|--------|--------|--------|
G|--------|--------|--------|--------|--------|--------|--------|--------|--------|
D|--------|--------|--------|--------|--------|--------|--------|--------|--------|
A|--------|--------|--------|--------|--------|--------|--------|--------|--------|
E|--------|--------|--------|--------|--------|--------|--------|--------|--------|


E|--------|--------|--------|--------|--------|--------|--------|--------|--------|
B|--------|--------|--------|--------|--------|--------|--------|--------|--------|
G|--------|--------|--------|--------|--------|--------|--------|--------|--------|
D|--------|--------|--------|--------|--------|--------|--------|--------|--------|
A|--------|--------|--------|--------|--------|--------|--------|--------|--------|
E|--------|--------|--------|--------|--------|--------|--------|--------|--------|


E|--------|
B|--------|
G|--------|
D|--------|
A|--------|
E|--------|





Track 2: Second guitar

E|--------|--------|--------|--------|--------|--------|--------|--------|--------|
B|--------|--------|--------|--------|--------|--------|--------|--------|--------|
G|--------|--------|--------|--------|--------|--------|--------|--------|--------|
D|--------|--------|--------|--------|--------|--------|--------|--------|--------|
A|--------|--------|--------|--------|--------|--------|--------|--------|--------|
E|--------|--------|--------|--------|--------|--------|--------|--------|--------|


E|--------|--------|--------|--------|--------|--------|--------|--------|--------|
B|--------|--------|--------|--------|--------|--------|--------|--------|--------|
G|--------|--------|--------|--------|--------|--------|--------|--------|--------|
D|--------|--------|--------|--------|--------|--------|--------|--------|--------|
A|--------|--------|--------|--------|--------|--------|--------|--------|--------|
E|--------|--------|--------|--------|--------|--------|--------|--------|--------|


E|--------|--------|--------|--------|--------|--------|--------|--------|--------|
B|--------|--------|--------|--------|--------|--------|--------|--------|--------|
G|--------|--------|--------|--------|--------|--------|--------|--------|--------|
D|--------|--------|--------|--------|--------|--------|--------|--------|--------|
A|--------|--------|--------|--------|--------|--------|--------|--------|--------|
E|--------|--------|--------|--------|--------|--------|--------|--------|--------|


E|--------|--------|--------|--------|--------|--------|--------|--------|--------|
B|--------|--------|--------|--------|--------|--------|--------|--------|--------|
G|--------|--------|--------|--------|--------|--------|--------|--------|--------|
D|--------|--------|--------|--------|--------|--------|--------|--------|--------|
A|--------|--------|--------|--------|--------|--------|--------|--------|--------|
E|--------|--------|--------|--------|--------|--------|--------|--------|--------|


E|--------|--------|--------|--------|--------|--------|--------|--------|--------|
B|--------|--------|--------|--------|--------|--------|--------|--------|--------|
G|--------|--------|--------|--------|--------|--------|--------|--------|--------|
D|--------|--------|--------|--------|--------|--------|--------|--------|--------|
A|--------|--------|--------|--------|--------|--------|--------|--------|--------|
E|--------|--------|--------|--------|--------|--------|--------|--------|--------|


E|--------|--------|--------|--------|--------|-3---3---3---3---3---3---3---3---|-3---3---3---3---3---3---3---3---|
B|--------|--------|--------|--------|--------|-3---3---3---3---3---3---3---3---|-3---3---3---3---3---3---3---3---|
G|--------|--------|--------|--------|--------|-0---0---0---0---0---0---0---0---|-0---0---0---0---0---0---0---0---|
D|--------|--------|--------|--------|--------|-0---0---0---0---0---0---0---0---|-0---0---0---0---0---0---0---0---|
A|--------|--------|--------|--------|--------|-2---2---2---2---2---2---2---2---|-2---2---2---2---2---2---2---2---|
E|--------|--------|--------|--------|--------|-3---3---3---3---3---3---3---3---|-3---3---3---3---3---3---3---3---|


E|-3---3---3---3---3---3---3---3---|-3---3---3---3---3---3---3---3---|-3---3---3---3---3---3---3---3---|
B|-3---3---3---3---3---3---3---3---|-3---3---3---3---3---3---3---3---|-3---3---3---3---3---3---3---3---|
G|-0---0---0---0---0---0---0---0---|-0---0---0---0---0---0---0---0---|-0---0---0---0---0---0---0---0---|
D|-2---2---2---2---2---2---2---2---|-2---2---2---2---2---2---2---2---|-0---0---0---0---0---0---0---0---|
A|-3---3---3---3---3---3---3---3---|-3---3---3---3---3---3---3---3---|-2---2---2---2---2---2---2---2---|
E|---------------------------------|---------------------------------|-3---3---3---3---3---3---3---3---|


E|-3---3---3---3---3---3---3---3---|-3---3---3---3---3---3---3---3---|-3---3---3---3---3---3---3---3---|
B|-3---3---3---3---3---3---3---3---|-3---3---3---3---3---3---3---3---|-3---3---3---3---3---3---3---3---|
G|-0---0---0---0---0---0---0---0---|-0---0---0---0---0---0---0---0---|-0---0---0---0---0---0---0---0---|
D|-0---0---0---0---0---0---0---0---|-2---2---2---2---2---2---2---2---|-2---2---2---2---2---2---2---2---|
A|-2---2---2---2---2---2---2---2---|-3---3---3---3---3---3---3---3---|-3---3---3---3---3---3---3---3---|
E|-3---3---3---3---3---3---3---3---|---------------------------------|---------------------------------|


E|-3---3---3---3---3---3---3---3---|-3---3---3---3---3---3---3---3---|-3---3---3---3---3---3---3---3---|
B|-3---3---3---3---3---3---3---3---|-3---3---3---3---3---3---3---3---|-3---3---3---3---3---3---3---3---|
G|-0---0---0---0---0---0---0---0---|-0---0---0---0---0---0---0---0---|-0---0---0---0---0---0---0---0---|
D|-0---0---0---0---0---0---0---0---|-0---0---0---0---0---0---0---0---|-2---2---2---2---2---2---2---2---|
A|-2---2---2---2---2---2---2---2---|-2---2---2---2---2---2---2---2---|-3---3---3---3---3---3---3---3---|
E|-3---3---3---3---3---3---3---3---|-3---3---3---3---3---3---3---3---|---------------------------------|


E|-3---3---3---3---3---3---3---3---|-3---3---3---3---3---3---3---3---|-3---3---3---3---3---3---3---3---|
B|-3---3---3---3---3---3---3---3---|-3---3---3---3---3---3---3---3---|-3---3---3---3---3---3---3---3---|
G|-0---0---0---0---0---0---0---0---|-0---0---0---0---0---0---0---0---|-0---0---0---0---0---0---0---0---|
D|-2---2---2---2---2---2---2---2---|-0---0---0---0---0---0---0---0---|-0---0---0---0---0---0---0---0---|
A|-3---3---3---3---3---3---3---3---|-2---2---2---2---2---2---2---2---|-2---2---2---2---2---2---2---2---|
E|---------------------------------|-3---3---3---3---3---3---3---3---|-3---3---3---3---3---3---3---3---|


E|-3---3---3---3---3---3---3---3---|-3---3---3---3---3---3---3---3---|-3---3---3---3---3---3---3---3---|
B|-3---3---3---3---3---3---3---3---|-3---3---3---3---3---3---3---3---|-3---3---3---3---3---3---3---3---|
G|-0---0---0---0---0---0---0---0---|-0---0---0---0---0---0---0---0---|-0---0---0---0---0---0---0---0---|
D|-2---2---2---2---2---2---2---2---|-2---2---2---2---2---2---2---2---|-0---0---0---0---0---0---0---0---|
A|-3---3---3---3---3---3---3---3---|-3---3---3---3---3---3---3---3---|-2---2---2---2---2---2---2---2---|
E|---------------------------------|---------------------------------|-3---3---3---3---3---3---3---3---|


E|-3---3---3---3---3---3---3---3---|--------|--------|--------|--------|--------|--------|
B|-3---3---3---3---3---3---3---3---|--------|--------|--------|--------|--------|--------|
G|-0---0---0---0---0---0---0---0---|--------|--------|--------|--------|--------|--------|
D|-0---0---0---0---0---0---0---0---|--------|--------|--------|--------|--------|--------|
A|-2---2---2---2---2---2---2---2---|--------|--------|--------|--------|--------|--------|
E|-3---3---3---3---3---3---3---3---|--------|--------|--------|--------|--------|--------|


E|--------|--------|--------|--------|-3---3---3---3---3---3---3---3---|-3---3---3---3---3---3---3---3---|
B|--------|--------|--------|--------|-3---3---3---3---3---3---3---3---|-3---3---3---3---3---3---3---3---|
G|--------|--------|--------|--------|-0---0---0---0---0---0---0---0---|-0---0---0---0---0---0---0---0---|
D|--------|--------|--------|--------|-2---2---2---2---2---2---2---2---|-2---2---2---2---2---2---2---2---|
A|--------|--------|--------|--------|-3---3---3---3---3---3---3---3---|-3---3---3---3---3---3---3---3---|
E|--------|--------|--------|--------|---------------------------------|---------------------------------|


E|-3---3---3---3---3---3---3---3---|-3---3---3---3---3---3---3---3---|-3---3---3---3---3---3---3---3---|
B|-3---3---3---3---3---3---3---3---|-3---3---3---3---3---3---3---3---|-3---3---3---3---3---3---3---3---|
G|-0---0---0---0---0---0---0---0---|-0---0---0---0---0---0---0---0---|-0---0---0---0---0---0---0---0---|
D|-0---0---0---0---0---0---0---0---|-0---0---0---0---0---0---0---0---|-2---2---2---2---2---2---2---2---|
A|-2---2---2---2---2---2---2---2---|-2---2---2---2---2---2---2---2---|-3---3---3---3---3---3---3---3---|
E|-3---3---3---3---3---3---3---3---|-3---3---3---3---3---3---3---3---|---------------------------------|


E|-3---3---3---3---3---3---3---3---|-3---3---3---3---3---3---3---3---|-3---3---3---3---3---3---3---3---|
B|-3---3---3---3---3---3---3---3---|-3---3---3---3---3---3---3---3---|-3---3---3---3---3---3---3---3---|
G|-0---0---0---0---0---0---0---0---|-0---0---0---0---0---0---0---0---|-0---0---0---0---0---0---0---0---|
D|-2---2---2---2---2---2---2---2---|-0---0---0---0---0---0---0---0---|-0---0---0---0---0---0---0---0---|
A|-3---3---3---3---3---3---3---3---|-2---2---2---2---2---2---2---2---|-2---2---2---2---2---2---2---2---|
E|---------------------------------|-3---3---3---3---3---3---3---3---|-3---3---3---3---3---3---3---3---|


E|-3---3---3---3---3---3---3---3---|-3---3---3---3---3---3---3---3---|-3---3---3---3---3---3---3---3---|
B|-3---3---3---3---3---3---3---3---|-3---3---3---3---3---3---3---3---|-3---3---3---3---3---3---3---3---|
G|-0---0---0---0---0---0---0---0---|-0---0---0---0---0---0---0---0---|-0---0---0---0---0---0---0---0---|
D|-2---2---2---2---2---2---2---2---|-2---2---2---2---2---2---2---2---|-0---0---0---0---0---0---0---0---|
A|-3---3---3---3---3---3---3---3---|-3---3---3---3---3---3---3---3---|-2---2---2---2---2---2---2---2---|
E|---------------------------------|---------------------------------|-3---3---3---3---3---3---3---3---|


E|-3---3---3---3---3---3---3---3---|-3---3---3---3---3---3---3---3---|-3---3---3---3---3---3---3---3---|
B|-3---3---3---3---3---3---3---3---|-3---3---3---3---3---3---3---3---|-3---3---3---3---3---3---3---3---|
G|-0---0---0---0---0---0---0---0---|-0---0---0---0---0---0---0---0---|-0---0---0---0---0---0---0---0---|
D|-0---0---0---0---0---0---0---0---|-2---2---2---2---2---2---2---2---|-2---2---2---2---2---2---2---2---|
A|-2---2---2---2---2---2---2---2---|-3---3---3---3---3---3---3---3---|-3---3---3---3---3---3---3---3---|
E|-3---3---3---3---3---3---3---3---|---------------------------------|---------------------------------|


E|-3---3---3---3---3---3---3---3---|-3---3---3---3---3---3---3---3---|--------|--------|
B|-3---3---3---3---3---3---3---3---|-3---3---3---3---3---3---3---3---|--------|--------|
G|-0---0---0---0---0---0---0---0---|-0---0---0---0---0---0---0---0---|--------|--------|
D|-0---0---0---0---0---0---0---0---|-0---0---0---0---0---0---0---0---|--------|--------|
A|-2---2---2---2---2---2---2---2---|-2---2---2---2---2---2---2---2---|--------|--------|
E|-3---3---3---3---3---3---3---3---|-3---3---3---3---3---3---3---3---|--------|--------|


E|--------|--------|--------|--------|--------|--------|--------|--------|--------|
B|--------|--------|--------|--------|--------|--------|--------|--------|--------|
G|--------|--------|--------|--------|--------|--------|--------|--------|--------|
D|--------|--------|--------|--------|--------|--------|--------|--------|--------|
A|--------|--------|--------|--------|--------|--------|--------|--------|--------|
E|--------|--------|--------|--------|--------|--------|--------|--------|--------|


E|--------|--------|--------|--------|--------|--------|--------|--------|--------|
B|--------|--------|--------|--------|--------|--------|--------|--------|--------|
G|--------|--------|--------|--------|--------|--------|--------|--------|--------|
D|--------|--------|--------|--------|--------|--------|--------|--------|--------|
A|--------|--------|--------|--------|--------|--------|--------|--------|--------|
E|--------|--------|--------|--------|--------|--------|--------|--------|--------|


E|--------|--------|--------|--------|--------|--------|--------|--------|--------|
B|--------|--------|--------|--------|--------|--------|--------|--------|--------|
G|--------|--------|--------|--------|--------|--------|--------|--------|--------|
D|--------|--------|--------|--------|--------|--------|--------|--------|--------|
A|--------|--------|--------|--------|--------|--------|--------|--------|--------|
E|--------|--------|--------|--------|--------|--------|--------|--------|--------|


E|--------|--------|
B|--------|--------|
G|--------|--------|
D|--------|--------|
A|--------|--------|
E|--------|--------|





Track 3: Dist.

E|--------|--------|--------|--------|--------|--------|--------|--------|--------|
B|--------|--------|--------|--------|--------|--------|--------|--------|--------|
G|--------|--------|--------|--------|--------|--------|--------|--------|--------|
D|--------|--------|--------|--------|--------|--------|--------|--------|--------|
A|--------|--------|--------|--------|--------|--------|--------|--------|--------|
E|--------|--------|--------|--------|--------|--------|--------|--------|--------|


E|--------|--------|--------|--------|--------|--------|--------|--------|--------|
B|--------|--------|--------|--------|--------|--------|--------|--------|--------|
G|--------|--------|--------|--------|--------|--------|--------|--------|--------|
D|--------|--------|--------|--------|--------|--------|--------|--------|--------|
A|--------|--------|--------|--------|--------|--------|--------|--------|--------|
E|--------|--------|--------|--------|--------|--------|--------|--------|--------|


E|--------|--------|--------|--------|--------|--------|--------|--------|--------|
B|--------|--------|--------|--------|--------|--------|--------|--------|--------|
G|--------|--------|--------|--------|--------|--------|--------|--------|--------|
D|--------|--------|--------|--------|--------|--------|--------|--------|--------|
A|--------|--------|--------|--------|--------|--------|--------|--------|--------|
E|--------|--------|--------|--------|--------|--------|--------|--------|--------|


E|--------|--------|--------|--------|--------|--------|--------|--------|--------|
B|--------|--------|--------|--------|--------|--------|--------|--------|--------|
G|--------|--------|--------|--------|--------|--------|--------|--------|--------|
D|--------|--------|--------|--------|--------|--------|--------|--------|--------|
A|--------|--------|--------|--------|--------|--------|--------|--------|--------|
E|--------|--------|--------|--------|--------|--------|--------|--------|--------|


E|--------|--------|--------|--------|--------|--------|--------|--------|--------|
B|--------|--------|--------|--------|--------|--------|--------|--------|--------|
G|--------|--------|--------|--------|--------|--------|--------|--------|--------|
D|--------|--------|--------|--------|--------|--------|--------|--------|--------|
A|--------|--------|--------|--------|--------|--------|--------|--------|--------|
E|--------|--------|--------|--------|--------|--------|--------|--------|--------|


E|--------|--------|--------|--------|--------|--------|--------|--------|--------|
B|--------|--------|--------|--------|--------|--------|--------|--------|--------|
G|--------|--------|--------|--------|--------|--------|--------|--------|--------|
D|--------|--------|--------|--------|--------|--------|--------|--------|--------|
A|--------|--------|--------|--------|--------|--------|--------|--------|--------|
E|--------|--------|--------|--------|--------|--------|--------|--------|--------|


E|--------|--------|--------|--------|--------|--------|--------|--------|--------|
B|--------|--------|--------|--------|--------|--------|--------|--------|--------|
G|--------|--------|--------|--------|--------|--------|--------|--------|--------|
D|--------|--------|--------|--------|--------|--------|--------|--------|--------|
A|--------|--------|--------|--------|--------|--------|--------|--------|--------|
E|--------|--------|--------|--------|--------|--------|--------|--------|--------|


E|--------|--------|--------|--------|--------|--------|--------|--------|--------|
B|--------|--------|--------|--------|--------|--------|--------|--------|--------|
G|--------|--------|--------|--------|--------|--------|--------|--------|--------|
D|--------|--------|--------|--------|--------|--------|--------|--------|--------|
A|--------|--------|--------|--------|--------|--------|--------|--------|--------|
E|--------|--------|--------|--------|--------|--------|--------|--------|--------|


E|--------|--------|--------|--------|--------|--------|--------|--------|--------|
B|--------|--------|--------|--------|--------|--------|--------|--------|--------|
G|--------|--------|--------|--------|--------|--------|--------|--------|--------|
D|--------|--------|--------|--------|--------|--------|--------|--------|--------|
A|--------|--------|--------|--------|--------|--------|--------|--------|--------|
E|--------|--------|--------|--------|--------|--------|--------|--------|--------|


E|--------|--------|--------|--------|--------|--------|--------|--------|--------|
B|--------|--------|--------|--------|--------|--------|--------|--------|--------|
G|--------|--------|--------|--------|--------|--------|--------|--------|--------|
D|--------|--------|--------|--------|--------|--------|--------|--------|--------|
A|--------|--------|--------|--------|--------|--------|--------|--------|--------|
E|--------|--------|--------|--------|--------|--------|--------|--------|--------|


E|--------|--------|--------|--------|---------------------------------|---------------------------------|
B|--------|--------|--------|--------|---------------------------------|---------------------------------|
G|--------|--------|--------|--------|-5---5---5---5---5---5---5---5---|---------------------------------|
D|--------|--------|--------|--------|-5---5---5---5---5---5---5---5---|-7---7---7---7---7---7---7---7---|
A|--------|--------|--------|--------|-3---3---3---3---3---3---3---3---|-7---7---7---7---7---7---7---7---|
E|--------|--------|--------|--------|---------------------------------|-5---5---5---5---5---5---5---5---|


E|---------------------------------|---------------------------------|---------------------------------|
B|---------------------------------|---------------------------------|---------------------------------|
G|---------------------------------|---------------------------------|-5---5---5---5---5---5---5---5---|
D|-5---5---5---5---5---5---5---5---|-5---5---5---5---5---5---5---5---|-5---5---5---5---5---5---5---5---|
A|-5---5---5---5---5---5---5---5---|-5---5---5---5---5---5---5---5---|-3---3---3---3---3---3---3---3---|
E|-3---3---3---3---3---3---3---3---|-3---3---3---3---3---3---3---3---|---------------------------------|


E|---------------------------------|---------------------------------|---------------------------------|
B|---------------------------------|---------------------------------|---------------------------------|
G|---------------------------------|---------------------------------|---------------------------------|
D|-7---7---7---7---7---7---7---7---|-5---5---5---5---5---5---5---5---|-5---5---5---5---5---5---5---5---|
A|-7---7---7---7---7---7---7---7---|-5---5---5---5---5---5---5---5---|-5---5---5---5---5---5---5---5---|
E|-5---5---5---5---5---5---5---5---|-3---3---3---3---3---3---3---3---|-3---3---3---3---3---3---3---3---|


E|---------------------------------|---------------------------------|---------------------------------|
B|---------------------------------|---------------------------------|---------------------------------|
G|-5---5---5---5---5---5---5---5---|---------------------------------|---------------------------------|
D|-5---5---5---5---5---5---5---5---|-7---7---7---7---7---7---7---7---|-5---5---5---5---5---5---5---5---|
A|-3---3---3---3---3---3---3---3---|-7---7---7---7---7---7---7---7---|-5---5---5---5---5---5---5---5---|
E|---------------------------------|-5---5---5---5---5---5---5---5---|-3---3---3---3---3---3---3---3---|


E|---------------------------------|---------------------------------|---------------------------------|
B|---------------------------------|---------------------------------|---------------------------------|
G|---------------------------------|-5---5---5---5---5---5---5---5---|---------------------------------|
D|-5---5---5---5---5---5---5---5---|-5---5---5---5---5---5---5---5---|-7---7---7---7---7---7---7---7---|
A|-5---5---5---5---5---5---5---5---|-3---3---3---3---3---3---3---3---|-7---7---7---7---7---7---7---7---|
E|-3---3---3---3---3---3---3---3---|---------------------------------|-5---5---5---5---5---5---5---5---|


E|---------------------------------|---------------------------------|---------------------------------|
B|---------------------------------|---------------------------------|---------------------------------|
G|---------------------------------|---------------------------------|-5---5---5---5---5---5---5---5---|
D|-5---5---5---5---5---5---5---5---|-5---5---5---5---5---5---5---5---|-5---5---5---5---5---5---5---5---|
A|-5---5---5---5---5---5---5---5---|-5---5---5---5---5---5---5---5---|-3---3---3---3---3---3---3---3---|
E|-3---3---3---3---3---3---3---3---|-3---3---3---3---3---3---3---3---|---------------------------------|


E|---------------------------------|---------------------------------|---------------------------------|
B|---------------------------------|---------------------------------|---------------------------------|
G|---------------------------------|---------------------------------|---------------------------------|
D|-7---7---7---7---7---7---7---7---|-5---5---5---5---5---5---5---5---|-5---5---5---5---5---5---5---5---|
A|-7---7---7---7---7---7---7---7---|-5---5---5---5---5---5---5---5---|-5---5---5---5---5---5---5---5---|
E|-5---5---5---5---5---5---5---5---|-3---3---3---3---3---3---3---3---|-3---3---3---3---3---3---3---3---|


E|---------------------------------|---------------------------------|---------------------------------|
B|---------------------------------|---------------------------------|---------------------------------|
G|-5---5---5---5---5---5---5---5---|---------------------------------|---------------------------------|
D|-5---5---5---5---5---5---5---5---|-7---7---7---7---7---7---7---7---|-5---5---5---5---5---5---5---5---|
A|-3---3---3---3---3---3---3---3---|-7---7---7---7---7---7---7---7---|-5---5---5---5---5---5---5---5---|
E|---------------------------------|-5---5---5---5---5---5---5---5---|-3---3---3---3---3---3---3---3---|


E|---------------------------------|---------------------------------|---------------------------------|
B|---------------------------------|---------------------------------|---------------------------------|
G|---------------------------------|-5---5---5---5---5---5---5---5---|---------------------------------|
D|-5---5---5---5---5---5---5---5---|-5---5---5---5---5---5---5---5---|-7---7---7---7---7---7---7---7---|
A|-5---5---5---5---5---5---5---5---|-3---3---3---3---3---3---3---3---|-7---7---7---7---7---7---7---7---|
E|-3---3---3---3---3---3---3---3---|---------------------------------|-5---5---5---5---5---5---5---5---|


E|---------------------------------|---------------------------------|---------------------------------|
B|---------------------------------|---------------------------------|---------------------------------|
G|---------------------------------|---------------------------------|-5---5---5---5---5---5---5---5---|
D|-5---5---5---5---5---5---5---5---|-5---5---5---5---5---5---5---5---|-5---5---5---5---5---5---5---5---|
A|-5---5---5---5---5---5---5---5---|-5---5---5---5---5---5---5---5---|-3---3---3---3---3---3---3---3---|
E|-3---3---3---3---3---3---3---3---|-3---3---3---3---3---3---3---3---|---------------------------------|


E|---------------------------------|--------|
B|---------------------------------|--------|
G|---------------------------------|--------|
D|-7---7---7---7---7---7---7---7---|-5------|
A|-7---7---7---7---7---7---7---7---|-5------|
E|-5---5---5---5---5---5---5---5---|-3------|





Track 4: Untitled

G|--------|--------|--------|--------|--------|--------|--------|--------|--------|
D|--------|--------|--------|--------|--------|--------|--------|--------|--------|
A|--------|--------|--------|--------|--------|--------|--------|--------|--------|
E|--------|--------|--------|--------|--------|--------|--------|--------|--------|


G|--------|--------|--------|--------|--------|--------|--------|--------|--------|
D|--------|--------|--------|--------|--------|--------|--------|--------|--------|
A|--------|--------|--------|--------|--------|--------|--------|--------|--------|
E|--------|--------|--------|--------|--------|--------|--------|--------|--------|


G|--------|--------|--------|--------|--------|--------|--------|--------|--------|
D|--------|--------|--------|--------|--------|--------|--------|--------|--------|
A|--------|--------|--------|--------|--------|--------|--------|--------|--------|
E|--------|--------|--------|--------|--------|--------|--------|--------|--------|


G|--------|--------|--------|--------|--------|--------|--------|--------|--------|
D|--------|--------|--------|--------|--------|--------|--------|--------|--------|
A|--------|--------|--------|--------|--------|--------|--------|--------|--------|
E|--------|--------|--------|--------|--------|--------|--------|--------|--------|


G|--------|--------|--------|--------|--------|--------|--------|--------|--------|
D|--------|--------|--------|--------|--------|--------|--------|--------|--------|
A|--------|--------|--------|--------|--------|--------|--------|--------|--------|
E|--------|--------|--------|--------|--------|--------|--------|--------|--------|


G|--------|--------|--------|--------|--------|--------|--------|--------|--------|
D|--------|--------|--------|--------|--------|--------|--------|--------|--------|
A|--------|--------|--------|--------|--------|--------|--------|--------|--------|
E|--------|--------|--------|--------|--------|--------|--------|--------|--------|


G|--------|--------|--------|--------|--------|--------|--------|--------|--------|
D|--------|--------|--------|--------|--------|--------|--------|--------|--------|
A|--------|--------|--------|--------|--------|--------|--------|--------|--------|
E|--------|--------|--------|--------|--------|--------|--------|--------|--------|


G|--------|--------|--------|--------|--------|--------|--------|--------|--------|
D|--------|--------|--------|--------|--------|--------|--------|--------|--------|
A|--------|--------|--------|--------|--------|--------|--------|--------|--------|
E|--------|--------|--------|--------|--------|--------|--------|--------|--------|


G|--------|--------|--------|--------|--------|--------|--------|--------|--------|
D|--------|--------|--------|--------|--------|--------|--------|--------|--------|
A|--------|--------|--------|--------|--------|--------|--------|--------|--------|
E|--------|--------|--------|--------|--------|--------|--------|--------|--------|


G|--------|--------|--------|--------|--------|--------|--------|--------|--------|
D|--------|--------|--------|--------|--------|--------|--------|--------|--------|
A|--------|--------|--------|--------|--------|--------|--------|--------|--------|
E|--------|--------|--------|--------|--------|--------|--------|--------|--------|


G|--------|--------|--------|--------|--------|--------|--------|--------|--------|
D|--------|--------|--------|--------|--------|--------|--------|--------|--------|
A|--------|--------|--------|--------|--------|--------|--------|--------|--------|
E|--------|--------|--------|--------|--------|--------|--------|--------|--------|


G|--------|--------|--------|--------|--------|--------|--------|--------|--------|
D|--------|--------|--------|--------|--------|--------|--------|--------|--------|
A|--------|--------|--------|--------|--------|--------|--------|--------|--------|
E|--------|--------|--------|--------|--------|--------|--------|--------|--------|


G|--------|--------|--------|--------|--------|--------|--------|--------|--------|
D|--------|--------|--------|--------|--------|--------|--------|--------|--------|
A|--------|--------|--------|--------|--------|--------|--------|--------|--------|
E|--------|--------|--------|--------|--------|--------|--------|--------|--------|


G|--------|--------|--------|--------|--------|--------|--------|--------|
D|--------|--------|--------|--------|--------|--------|--------|--------|
A|--------|--------|--------|--------|--------|--------|--------|--------|
E|--------|--------|--------|--------|--------|--------|--------|--------|