Site menu:

    

Browse: 0-9 A B C D E F G H I J K L N O P Q R S T U V W X Y Z

angel - broken dreams:



Title: Broken Dreams
Artist: 
Album: Angel 
Author: Angel


Track 1: Untitled

E|--------|--------|--------|--------|--------|--------|--------|--------|--------|
B|--------|--------|--------|--------|--------|--------|--------|--------|--------|
G|--------|--------|--------|--------|--------|--------|--------|--------|--------|
D|--------|--------|--------|--------|--------|--------|--------|--------|--------|
A|--------|--------|--------|--------|--------|--------|--------|--------|--------|
E|--------|--------|--------|--------|--------|--------|--------|--------|--------|


E|--------|--------|--------|--------|--------|--------|--------|--------|--------|
B|--------|--------|--------|--------|--------|--------|--------|--------|--------|
G|--------|--------|--------|--------|--------|--------|--------|--------|--------|
D|--------|--------|--------|--------|--------|--------|--------|--------|--------|
A|--------|--------|--------|--------|--------|--------|--------|--------|--------|
E|--------|--------|--------|--------|--------|--------|--------|--------|--------|


E|--------|--------|--------|--------|--------|--------|--------|--------|--------|
B|--------|--------|--------|--------|--------|--------|--------|--------|--------|
G|--------|--------|--------|--------|--------|--------|--------|--------|--------|
D|--------|--------|--------|--------|--------|--------|--------|--------|--------|
A|--------|--------|--------|--------|--------|--------|--------|--------|--------|
E|--------|--------|--------|--------|--------|--------|--------|--------|--------|


E|--------|--------|--------|--------|--------|--------|--------|--------|--------|
B|--------|--------|--------|--------|--------|--------|--------|--------|--------|
G|--------|--------|--------|--------|--------|--------|--------|--------|--------|
D|--------|--------|--------|--------|--------|--------|--------|--------|--------|
A|--------|--------|--------|--------|--------|--------|--------|--------|--------|
E|--------|--------|--------|--------|--------|--------|--------|--------|--------|


E|--------|--------|--------|--------|--------|--------|--------|--------|--------|
B|--------|--------|--------|--------|--------|--------|--------|--------|--------|
G|--------|--------|--------|--------|--------|--------|--------|--------|--------|
D|--------|--------|--------|--------|--------|--------|--------|--------|--------|
A|--------|--------|--------|--------|--------|--------|--------|--------|--------|
E|--------|--------|--------|--------|--------|--------|--------|--------|--------|


E|--------|--------|--------|--------|--------|--------|--------|--------|--------|
B|--------|--------|--------|--------|--------|--------|--------|--------|--------|
G|--------|--------|--------|--------|--------|--------|--------|--------|--------|
D|--------|--------|--------|--------|--------|--------|--------|--------|--------|
A|--------|--------|--------|--------|--------|--------|--------|--------|--------|
E|--------|--------|--------|--------|--------|--------|--------|--------|--------|


E|--------|--------|--------|--------|--------|--------|--------|--------|--------|
B|--------|--------|--------|--------|--------|--------|--------|--------|--------|
G|--------|--------|--------|--------|--------|--------|--------|--------|--------|
D|--------|--------|--------|--------|--------|--------|--------|--------|--------|
A|--------|--------|--------|--------|--------|--------|--------|--------|--------|
E|--------|--------|--------|--------|--------|--------|--------|--------|--------|


E|--------|--------|--------|--------|--------|--------|--------|--------|--------|
B|--------|--------|--------|--------|--------|--------|--------|--------|--------|
G|--------|--------|--------|--------|--------|--------|--------|--------|--------|
D|--------|--------|--------|--------|--------|--------|--------|--------|--------|
A|--------|--------|--------|--------|--------|--------|--------|--------|--------|
E|--------|--------|--------|--------|--------|--------|--------|--------|--------|


E|--------|--------|--------|--------|--------|--------|--------|--------|--------|
B|--------|--------|--------|--------|--------|--------|--------|--------|--------|
G|--------|--------|--------|--------|--------|--------|--------|--------|--------|
D|--------|--------|--------|--------|--------|--------|--------|--------|--------|
A|--------|--------|--------|--------|--------|--------|--------|--------|--------|
E|--------|--------|--------|--------|--------|--------|--------|--------|--------|


E|--------|--------|--------|--------|--------|--------|--------|--------|--------|
B|--------|--------|--------|--------|--------|--------|--------|--------|--------|
G|--------|--------|--------|--------|--------|--------|--------|--------|--------|
D|--------|--------|--------|--------|--------|--------|--------|--------|--------|
A|--------|--------|--------|--------|--------|--------|--------|--------|--------|
E|--------|--------|--------|--------|--------|--------|--------|--------|--------|


E|--------|--------|--------|--------|--------|--------|--------|--------|--------|
B|--------|--------|--------|--------|--------|--------|--------|--------|--------|
G|--------|--------|--------|--------|--------|--------|--------|--------|--------|
D|--------|--------|--------|--------|--------|--------|--------|--------|--------|
A|--------|--------|--------|--------|--------|--------|--------|--------|--------|
E|--------|--------|--------|--------|--------|--------|--------|--------|--------|


E|--------|--------|--------|--------|--------|--------|--------|--------|--------|
B|--------|--------|--------|--------|--------|--------|--------|--------|--------|
G|--------|--------|--------|--------|--------|--------|--------|--------|--------|
D|--------|--------|--------|--------|--------|--------|--------|--------|--------|
A|--------|--------|--------|--------|--------|--------|--------|--------|--------|
E|--------|--------|--------|--------|--------|--------|--------|--------|--------|


E|--------|--------|--------|--------|--------|--------|
B|--------|--------|--------|--------|--------|--------|
G|--------|--------|--------|--------|--------|--------|
D|--------|--------|--------|--------|--------|--------|
A|--------|--------|--------|--------|--------|--------|
E|--------|--------|--------|--------|--------|--------|





Track 2: Mickey Jones (bad ass bass

F#|------------------------------|------------------------------|-2------------------------2---|
C#|-2------------------------1---|-2------------------------2---|--------------1---2---5-------|
G#|--------------1---2---4-------|--------------1---2---5-------|------4---5-------------------|
D#|------4---5-------------------|------4---5-------------------|------------------------------|


F#|-7----------------------------|------------------------------|---------------------------------|
C#|------4---5---7---------------|-2------------------------2---|---------------------------------|
G#|------------------4---5---7---|--------------1---2---5-------|-----------------------------1---|
D#|------------------------------|------4---5-------------------|-3---2---3---4---5---3---5-------|


F#|---------------------------------|-----------------------------3---|-4------|------------------------------|
C#|---------------------------------|-2---1---2---3---4---3---4-------|--------|-2---2---2---2---2---2---2----|
G#|-2---1---2---3---4---3---4---5---|---------------------------------|--------|------------------------------|
D#|---------------------------------|---------------------------------|--------|------------------------------|


F#|---------------------|-----------------|--------------------|-----------------|
C#|---------------------|-----------------|--------------------|-----------------|
G#|-3---2---------------|-3---2-----------|--------------------|-----------2-----|
D#|-----------3---2-----|-----------3-----|-2-----0---0----0---|-0-----0---------|


F#|------------------------|-----------------|------------------------|-----------------|
C#|------------------------|-----------------|------------------------|-----------------|
G#|-----------3---3----3---|-3-----3---1-----|------------------------|-----------2-----|
D#|-5----3-----------------|-----------------|-5----3----0---0----0---|-0-----0---------|


F#|------------------------|-----------------|------------------------|-----------------|
C#|------------------------|-----------------|------------------------|-----------------|
G#|-----------3---3----3---|-3-----3---1-----|------------------------|-----------2-----|
D#|-5----3-----------------|-----------------|-5----3----0---0----0---|-0-----0---------|


F#|------------------------|-----------------|------------------------|-----------------|
C#|------------------------|-----------------|------------------------|-----------------|
G#|-----------3---3----3---|-3-----3---1-----|------------------------|-----------2-----|
D#|-5----3-----------------|-----------------|-5----3----0---0----0---|-0-----0---------|


F#|------------------------|-----------------|-----------------|-----------------|
C#|------------------------|-----------------|-----------1-----|-------2----2----|
G#|-----------3---3----3---|-3-----3---1-----|-----------------|-----------------|
D#|-5----3-----------------|-----------------|-5----3----------|-----------------|


F#|-----------7---7---7---7---|-7---5---------------------|---------------------------|
C#|---------------------------|---------8---7-------------|-----------------3---------|
G#|------7--------------------|-----------------1-----1---|-1---0-----------------3---|
D#|---------------------------|---------------------------|---------3---1-------------|


F#|------------------------|--------------------|--------------------|-----------------|
C#|-----------5---2----2---|-2-----5---2----2---|-2-----5---2----2---|-2---------------|
G#|-3----------------------|--------------------|--------------------|-------3---1-----|
D#|------3-----------------|--------------------|--------------------|-----------------|


F#|-------------|--------------------|---------------------|--------------------|---------------------|
C#|-------------|--------------------|---------------------|--------------------|---------------------|
G#|-------------|--------------------|-----2---------------|-3---3----3---3-----|-3---1---------------|
D#|-3-----2-----|-0---0----0---0-----|-0---------5----3----|--------------------|-----------5----3----|


F#|-----------------|---------------------|-----------------|--------------------|
C#|-----------------|---------------------|-----------------|--------------------|
G#|-5-----5---5-----|-3---2---------------|-3---2-----------|--------------------|
D#|-----------------|-----------3---2-----|-----------3-----|-2-----0---0----0---|


F#|-----------------|------------------------|-----------------|------------------------|
C#|-----------------|------------------------|-----------------|------------------------|
G#|-----------2-----|-0---------3---3----3---|-3-----3---1-----|-0----------------------|
D#|-0-----0---------|------3-----------------|-----------------|------3----0---0----0---|


F#|-----------------|------------------------|-----------------|------------------------|
C#|-----------------|------------------------|-----------------|------------------------|
G#|-----------2-----|-0---------3---3----3---|-3-----3---1-----|-0----------------------|
D#|-0-----0---------|------3-----------------|-----------------|------3----0---0----0---|


F#|-----------------|------------------------|-----------------|------------------------|
C#|-----------------|------------------------|-----------------|------------------------|
G#|-----------2-----|-0---------3---3----3---|-3-----3---1-----|-0----------------------|
D#|-0-----0---------|------3-----------------|-----------------|------3----0---0----0---|


F#|-----------------|------------------------|-----------------|------------------------|
C#|-----------------|------------------------|-----------------|------------------------|
G#|-----------2-----|-0---------3---3----3---|-3-----3---1-----|-0----------------------|
D#|-0-----0---------|------3-----------------|-----------------|------3----0---0----0---|


F#|-----------------|---------------------|-------------|-------------|--------|--------|
C#|-----------------|-----------2---3-----|-3-----------|-------------|--------|--------|
G#|-----------2-----|-0-------------------|-------------|-------0-----|--------|--------|
D#|-0-----0---------|------3--------------|-------3-----|-------------|--------|--------|


F#|--------|--------|--------|--------|--------|--------|--------|--------|--------|
C#|--------|--------|--------|--------|--------|--------|--------|--------|--------|
G#|--------|--------|--------|--------|--------|--------|--------|--------|--------|
D#|--------|--------|--------|--------|--------|--------|--------|--------|--------|


F#|--------|--------|--------|--------|--------|--------|--------|--------|--------|
C#|--------|--------|--------|--------|--------|--------|--------|--------|--------|
G#|--------|--------|--------|--------|--------|--------|--------|--------|--------|
D#|--------|--------|--------|--------|--------|--------|--------|--------|--------|


F#|--------|--------|--------|--------|--------|--------|--------|--------|--------|
C#|--------|--------|--------|--------|--------|--------|--------|--------|--------|
G#|--------|--------|--------|--------|--------|--------|--------|--------|--------|
D#|--------|--------|--------|--------|--------|--------|--------|--------|--------|


F#|--------|--------|--------|-----------------|---------------------|-------------|
C#|--------|--------|--------|-----------------|---------------------|-------------|
G#|--------|--------|--------|-------3---2-----|-----------3---2-----|-------------|
D#|--------|--------|--------|-----------------|-3---2---------------|-3-----2-----|


F#|--------------------|---------------------|--------------------|---------------------|
C#|--------------------|---------------------|--------------------|---------------------|
G#|--------------------|-----2-----0---------|-3---3----3---3-----|-3---1-----0---------|
D#|-0---0----0---0-----|-0--------------3----|--------------------|----------------3----|


F#|--------------------|------------------------|--------|--------|--------|--------|
C#|--------------------|------------------------|-3------|-5------|--------|--------|
G#|--------------------|-----2-----0------------|--------|--------|--------|--------|
D#|-0---0----0---0-----|-0--------------3---2---|--------|--------|-0------|-0------|


F#|--------|--------|--------|
C#|--------|--------|--------|
G#|--------|--------|--------|
D#|-0------|-0------|-0------|