Site menu:

    

Browse: 0-9 A B C D E F G H I J K L N O P Q R S T U V W X Y Z

anberlin - ready fuels:



Title: Ready Fuels
Artist: 
Album: Blueprints For The Black Market
Author: Anberlin


Track 1: Gtr.1 Dist

E|---------------------------------|---------------------------------|---------------------------------|
B|---------------------------------|---------------------------------|---------------------------------|
G|---------------------------------|---------------------------------|---------------------------------|
D|---------------------------------|---------------------------------|---------------------------------|
A|-12--------------10--------------|-12--------------10--------------|-12--------------10--------------|
D|-----0---10--12------12--10--0---|-----0---10--12------12--10--0---|-----0---10--12------12--10--0---|


E|---------------------------------|---------------------------------|---------------------------------|
B|---------------------------------|---------------------------------|---------------------------------|
G|---------------------------------|---------------------------------|---------------------------------|
D|---------------------------------|---------------------------------|---------------------------------|
A|-12--------------10--------------|-12--------------10--------------|-12--------------10--------------|
D|-----0---10--12------12--10--0---|-----0---10--12------12--10--0---|-----0---10--12------12--10--0---|


E|---------------------------------|---------------------------------|---------------------------------|
B|---------------------------------|---------------------------------|---------------------------------|
G|---------------------------------|---------------------------------|---------------------------------|
D|---------------------------------|---------------------------------|---------------------------------|
A|-12--------------10--------------|-12--------------10--------------|-12--------------10--------------|
D|-----0---10--12------12--10--0---|-----0---10--12------12--10--0---|-----0---10--12------12--10--0---|


E|---------------------------------|---------------------------------|---------------------------------|
B|---------------------------------|---------------------------------|---------------------------------|
G|---------------------------------|---------------------------------|---------------------------------|
D|---------------------------------|---------------------------------|---------------------------------|
A|-12--------------10--------------|-12--------------10--------------|-12--------------10--------------|
D|-----0---10--12------12--10--0---|-----0---10--12------12--10--0---|-----0---10--12------12--10--0---|


E|--------|--------------------|---------------------------------|---------------------------------|
B|--------|--------------------|---------------------------------|---------------------------------|
G|--------|--------------------|---------------------------------|---------------------------------|
D|--------|--------------------|---------------------------------|---------------------------------|
A|--------|-------0---0---8----|-0---0---0---0---0---0---0---0---|-8---8---8---8---8---8---8---8---|
D|--------|-------0---0--------|-0---0---0---0---0---0---0---0---|-8---8---8---8---8---8---8---8---|


E|---------------------------------|---------------------------------|---------------------------------|
B|---------------------------------|---------------------------------|---------------------------------|
G|---------------------------------|---------------------------------|---------------------------------|
D|---------------------------------|---------------------------------|---------------------------------|
A|-7---7---7---7---7---7---7---7---|-10--10--10--10--10--10--10--10--|-0---0---0---0---0---0---0---0---|
D|-7---7---7---7---7---7---7---7---|-10--10--10--10--10--10--10--10--|-0---0---0---0---0---0---0---0---|


E|---------------------------------|---------------------------------|---------------------------------|
B|---------------------------------|---------------------------------|---------------------------------|
G|---------------------------------|---------------------------------|-----7---7---7---7---7---7---7---|
D|---------------------------------|---------------------------------|-----7---7---7---7---7---7---7---|
A|-8---8---8---8---8---8---8---8---|-7---7---7---7---7---7---7---7---|-10--5---5---5---5---5---5---5---|
D|-8---8---8---8---8---8---8---8---|-7---7---7---7---7---7---7---7---|-10------------------------------|


E|---------------------------------|---------------------------------|---------------------------------|
B|---------------------------------|---------------------------------|---------------------------------|
G|-7-------------------------------|---------------------------------|---------------------------------|
D|-7-------------------------------|---------------------------------|---------------------------------|
A|-5---0---0---0---0---0---0---0---|-8---8---8---8---8---8---8---8---|-7---7---7---7---7---7---7---7---|
D|-----0---0---0---0---0---0---0---|-8---8---8---8---8---8---8---8---|-7---7---7---7---7---7---7---7---|


E|---------------------------------|---------------------------------|---------------------------------|
B|---------------------------------|---------------------------------|---------------------------------|
G|---------------------------------|-7-------------------------------|---------------------------------|
D|---------------------------------|-7-------------------------------|---------------------------------|
A|-10--10--10--10--10--10--10--10--|-5---0---0---0---0---0---0---0---|-8---8---8---8---8---8---8---8---|
D|-10--10--10--10--10--10--10--10--|-----0---0---0---0---0---0---0---|-8---8---8---8---8---8---8---8---|


E|---------------------------------|---------------------------------|------------------------------|
B|---------------------------------|---------------------------------|------------------------------|
G|---------------------------------|-7---7---7---7---7---7---7---7---|------------------------------|
D|---------------------------------|-7---7---7---7---7---7---7---7---|-----0-------0---0-------0----|
A|-7---7---7---7---7---7---7---7---|-5---5---5---5---5---5---5---5---|-0---0-------0---0-------0----|
D|-7---7---7---7---7---7---7---7---|---------------------------------|-0---0-------0---0-------0----|


E|--------|---------------------------------|---------------------------------|---------------------------------|
B|--------|---------------------------------|---------------------------------|---------------------------------|
G|--------|---------------------------------|---------------------------------|---------------------------------|
D|--------|-10--10--10--10--10--10--10--10--|---------------------------------|---------------------------------|
A|--------|-8---8---8---8---8---8---8---8---|-10--10--10--10--10--10--10--10--|-12--12--12--12--12--12--12--12--|
D|--------|-8---8---8---8---8---8---8---8---|-10--10--10--10--10--10--10--10--|-12--12--12--12--12--12--12--12--|


E|---------------------------------|---------------------------------|---------------------------------|
B|---------------------------------|---------------------------------|---------------------------------|
G|---------------------------------|---------------------------------|---------------------------------|
D|-10--10--10--10--10--10--10--10--|-10--10--10--10--10--10--10--10--|---------------------------------|
A|-8---8---8---8---8---8---8---8---|-8---8---8---8---8---8---8---8---|-10--10--10--10--10--10--10--10--|
D|---------------------------------|-8---8---8---8---8---8---8---8---|-10--10--10--10--10--10--10--10--|


E|---------------------------------|---------------------------------|---------------------------------|
B|---------------------------------|---------------------------------|---------------------------------|
G|-9---9---9---9---9---9---9---9---|-10--10--10--10--10--10--10--10--|---------------------------------|
D|-7---7---7---7---7---7---7---7---|-10--10--10--10--10--10--10--10--|-10--10--10--10--10--10--10--10--|
A|-0---0---0---0---0---0---0---0---|-8---8---8---8---8---8---8---8---|-8---8---8---8---8---8---8---8---|
D|-0---0---0---0---0---0---0---0---|---------------------------------|-8---8---8---8---8---8---8---8---|


E|---------------------------------|---------------------------------|---------------------------------|
B|---------------------------------|---------------------------------|---------------------------------|
G|-5---5---5---5---5---5---5---5---|-7---7---7---7---7---7---7---7---|-9---9---9---9---10--10--10--10--|
D|-5---5---5---5---5---5---5---5---|-7---7---7---7---7---7---7---7---|-9---9---9---9---10--10--10--10--|
A|-3---3---3---3---3---3---3---3---|-5---5---5---5---5---5---5---5---|-7---7---7---7---8---8---8---8---|
D|---------------------------------|---------------------------------|---------------------------------|


E|---------------------|---------------------|-----------------------------------|
B|---------------------|---------------------|-----------------------------------|
G|---------------------|---------------------|-----------------------------------|
D|---------------------|---------------------|-----------------------------------|
A|-12---12---12---12---|-12---12---12---12---|-0--0--8---0-------0-------0---0---|
D|-12---12---12---12---|-12---12---12---12---|-0--0--8---0-------0-------0---0---|


E|-----------------|---------------------------------|---------------------------------|
B|-----------------|---------------------------------|---------------------------------|
G|-----------------|---------------------------------|---------------------------------|
D|-----------------|---------------------------------|---------------------------------|
A|-------0----8----|-12--------------10--------------|-12--------------10--------------|
D|-----------------|-----0---10--12------12--10--0---|-----0---10--12------12--10--0---|


E|---------------------------------|---------------------------------|---------------------------------|
B|---------------------------------|---------------------------------|---------------------------------|
G|---------------------------------|---------------------------------|---------------------------------|
D|---------------------------------|---------------------------------|---------------------------------|
A|-12--------------10--------------|-12--------------10--------------|-12--------------10--------------|
D|-----0---10--12------12--10--0---|-----0---10--12------12--10--0---|-----0---10--12------12--10--0---|


E|---------------------------------|---------------------------------|---------------------------------|
B|---------------------------------|---------------------------------|---------------------------------|
G|---------------------------------|---------------------------------|---------------------------------|
D|---------------------------------|---------------------------------|---------------------------------|
A|-12--------------10--------------|-12--------------10--------------|-12--------------10--------------|
D|-----0---10--12------12--10--0---|-----0---10--12------12--10--0---|-----0---10--12------12--10--0---|


E|--------|--------------------|---------------------------------|---------------------------------|
B|--------|--------------------|---------------------------------|---------------------------------|
G|--------|--------------------|---------------------------------|---------------------------------|
D|--------|--------------------|---------------------------------|---------------------------------|
A|--------|-------0---0---15---|-0---0---0---0---0---0---0---0---|-8---8---8---8---8---8---8---8---|
D|--------|-------0---0--------|-0---0---0---0---0---0---0---0---|-8---8---8---8---8---8---8---8---|


E|---------------------------------|---------------------------------|---------------------------------|
B|---------------------------------|---------------------------------|---------------------------------|
G|---------------------------------|---------------------------------|---------------------------------|
D|---------------------------------|---------------------------------|---------------------------------|
A|-7---7---7---7---7---7---7---7---|-10--10--10--10--10--10--10--10--|-0---0---0---0---0---0---0---0---|
D|-7---7---7---7---7---7---7---7---|-10--10--10--10--10--10--10--10--|-0---0---0---0---0---0---0---0---|


E|---------------------------------|---------------------------------|---------------------------------|
B|---------------------------------|---------------------------------|---------------------------------|
G|---------------------------------|---------------------------------|-----7---7---7---7---7---7---7---|
D|---------------------------------|---------------------------------|-----7---7---7---7---7---7---7---|
A|-8---8---8---8---8---8---8---8---|-7---7---7---7---7---7---7---7---|-10--5---5---5---5---5---5---5---|
D|-8---8---8---8---8---8---8---8---|-7---7---7---7---7---7---7---7---|-10------------------------------|


E|---------------------------------|---------------------------------|---------------------------------|
B|---------------------------------|---------------------------------|---------------------------------|
G|-7-------------------------------|---------------------------------|---------------------------------|
D|-7-------------------------------|---------------------------------|---------------------------------|
A|-5---0---0---0---0---0---0---0---|-8---8---8---8---8---8---8---8---|-7---7---7---7---7---7---7---7---|
D|-----0---0---0---0---0---0---0---|-8---8---8---8---8---8---8---8---|-7---7---7---7---7---7---7---7---|


E|---------------------------------|---------------------------------|---------------------------------|
B|---------------------------------|---------------------------------|---------------------------------|
G|---------------------------------|-7-------------------------------|---------------------------------|
D|---------------------------------|-7-------------------------------|---------------------------------|
A|-10--10--10--10--10--10--10--10--|-5---0---0---0---0---0---0---0---|-8---8---8---8---8---8---8---8---|
D|-10--10--10--10--10--10--10--10--|-----0---0---0---0---0---0---0---|-8---8---8---8---8---8---8---8---|


E|---------------------------------|---------------------------------|------------------------------|
B|---------------------------------|---------------------------------|------------------------------|
G|---------------------------------|-7---7---7---7---7---7---7---7---|------------------------------|
D|---------------------------------|-7---7---7---7---7---7---7---7---|-----0-------0---0-------0----|
A|-7---7---7---7---7---7---7---7---|-5---5---5---5---5---5---5---5---|-0---0-------0---0-------0----|
D|-7---7---7---7---7---7---7---7---|---------------------------------|-0---0-------0---0-------0----|


E|--------|------------------------------|--------|---------------------------------|
B|--------|------------------------------|--------|---------------------------------|
G|--------|------------------------------|--------|---------------------------------|
D|--------|-----0-------0---0-------0----|--------|-10--10--10--10--10--10--10--10--|
A|--------|-0---0-------0---0-------0----|--------|-8---8---8---8---8---8---8---8---|
D|--------|-0---0-------0---0-------0----|--------|-8---8---8---8---8---8---8---8---|


E|---------------------------------|---------------------------------|---------------------------------|
B|---------------------------------|---------------------------------|---------------------------------|
G|---------------------------------|---------------------------------|---------------------------------|
D|---------------------------------|---------------------------------|-10--10--10--10--10--10--10--10--|
A|-10--10--10--10--10--10--10--10--|-12--12--12--12--12--12--12--12--|-8---8---8---8---8---8---8---8---|
D|-10--10--10--10--10--10--10--10--|-12--12--12--12--12--12--12--12--|---------------------------------|


E|---------------------------------|---------------------------------|---------------------------------|
B|---------------------------------|---------------------------------|---------------------------------|
G|---------------------------------|---------------------------------|-9---9---9---9---9---9---9---9---|
D|-10--10--10--10--10--10--10--10--|---------------------------------|-7---7---7---7---7---7---7---7---|
A|-8---8---8---8---8---8---8---8---|-10--10--10--10--10--10--10--10--|-0---0---0---0---0---0---0---0---|
D|-8---8---8---8---8---8---8---8---|-10--10--10--10--10--10--10--10--|-0---0---0---0---0---0---0---0---|


E|---------------------------------|---------------------------------|---------------------------------|
B|---------------------------------|---------------------------------|---------------------------------|
G|-10--10--10--10--10--10--10--10--|---------------------------------|-5---5---5---5---5---5---5---5---|
D|-10--10--10--10--10--10--10--10--|-10--10--10--10--10--10--10--10--|-5---5---5---5---5---5---5---5---|
A|-8---8---8---8---8---8---8---8---|-8---8---8---8---8---8---8---8---|-3---3---3---3---3---3---3---3---|
D|---------------------------------|-8---8---8---8---8---8---8---8---|---------------------------------|


E|---------------------------------|---------------------------------|---------------------|
B|---------------------------------|---------------------------------|---------------------|
G|-7---7---7---7---7---7---7---7---|-9---9---9---9---10--10--10--10--|---------------------|
D|-7---7---7---7---7---7---7---7---|-9---9---9---9---10--10--10--10--|---------------------|
A|-5---5---5---5---5---5---5---5---|-7---7---7---7---8---8---8---8---|-12---12---12---12---|
D|---------------------------------|---------------------------------|-12---12---12---12---|


E|---------------------|-----------------------------------|--------|------------------------|
B|---------------------|-----------------------------------|--------|------------------------|
G|---------------------|-----------------------------------|--------|-10---10-----------12---|
D|---------------------|-----------------------------------|-8------|-10---10---10--10--10---|
A|-12---12---12---12---|-0--0--8---0-------0-------0---0---|-8------|-8----8----8---8---8----|
D|-12---12---12---12---|-0--0--8---0-------0-------0---0---|-8------|-8----8----8---8---8----|


E|------------------------|------------------------|--------|------------------------|
B|------------------------|------------------------|--------|------------------------|
G|-------------------12---|-12---12--10---10--9----|-9------|-10---10-----------12---|
D|-10---10---10--10--10---|-10---10--10---10--7----|-7------|-10---10---10--10--10---|
A|-8----8----8---8---8----|-10---10--8----8---0----|-0------|-8----8----8---8---8----|
D|-8----8----8---8---8----|-------------------0----|-0------|-8----8----8---8---8----|


E|------------------------|------------------------|--------|------------------------|
B|------------------------|------------------------|--------|------------------------|
G|-------------------12---|-12---12-----------9----|-9------|-10---10-----------12---|
D|-10---10---10--10--10---|-10---10--10---10--7----|-7------|-10---10---10--10--10---|
A|-8----8----8---8---8----|-10---10--8----8---0----|-0------|-8----8----8---8---8----|
D|-8----8----8---8---8----|----------7----7---0----|-0------|-8----8----8---8---8----|


E|------------------------|------------------------|--------|------------------------|
B|------------------------|------------------------|--------|------------------------|
G|-------------------12---|-12---12--10---10--9----|-9------|-10---10-----------12---|
D|-10---10---10--10--10---|-10---10--10---10--7----|-7------|-10---10---10--10--10---|
A|-8----8----8---8---8----|-10---10--8----8---0----|-0------|-8----8----8---8---8----|
D|-8----8----8---8---8----|-------------------0----|-0------|-8----8----8---8---8----|


E|------------------------|------------------------|--------|---------------------------------|
B|------------------------|------------------------|--------|---------------------------------|
G|-------------------12---|-12---12--10---10--9----|-9------|-9---9---9---9---9---9---9---9---|
D|-10---10---10--10--10---|-10---10--10---10--7----|-7------|-7---7---7---7---7---7---7---7---|
A|-8----8----8---8---8----|-10---10--8----8---0----|-0------|-0---0---0---0---0---0---0---0---|
D|-8----8----8---8---8----|-------------------0----|-0------|-0---0---0---0---0---0---0---0---|


E|---------------------------------|---------------------------------|---------------------------------|
B|---------------------------------|---------------------------------|---------------------------------|
G|-9---9---9---9---9---9---9---9---|-10--10--10--10--10--10--10--10--|-10--10--10--10--10--10--10--10--|
D|-7---7---7---7---7---7---7---7---|-10--10--10--10--10--10--10--10--|-10--10--10--10--10--10--10--10--|
A|-0---0---0---0---0---0---0---0---|-7---7---7---7---7---7---7---7---|-7---7---7---7---7---7---7---7---|
D|-0---0---0---0---0---0---0---0---|-7---7---7---7---7---7---7---7---|-7---7---7---7---7---7---7---7---|


E|---------------------------------|---------------------------------|---------------------------------|
B|---------------------------------|---------------------------------|---------------------------------|
G|-10--10--10--10--10--10--10--10--|-10--10--10--10--10--10--10--10--|-12--12--12--12--12--12--12--12--|
D|-10--10--10--10--10--10--10--10--|-10--10--10--10--10--10--10--10--|-12--12--12--12--12--12--12--12--|
A|-8---8---8---8---8---8---8---8---|-8---8---8---8---8---8---8---8---|-10--10--10--10--10--10--10--10--|
D|-8---8---8---8---8---8---8---8---|-8---8---8---8---8---8---8---8---|---------------------------------|


E|---------------------------------|------------------|--------------------|---------------------------------|
B|---------------------------------|------------------|--------------------|---------------------------------|
G|-14--14--14--14--15--15--15--15--|-10----10----12---|-12-----------------|---------------------------------|
D|-14--14--14--14--15--15--15--15--|-10----10----10---|-10----3---2--------|-10--10--10--10--10--10--10--10--|
A|-12--12--12--12--13--13--13--13--|-7-----8-----8----|-10------------3----|-8---8---8---8---8---8---8---8---|
D|---------------------------------|-7-----8-----8----|-10-----------------|-8---8---8---8---8---8---8---8---|


E|---------------------------------|---------------------------------|---------------------------------|
B|---------------------------------|---------------------------------|---------------------------------|
G|---------------------------------|---------------------------------|---------------------------------|
D|---------------------------------|---------------------------------|-10--10--10--10--10--10--10--10--|
A|-10--10--10--10--10--10--10--10--|-12--12--12--12--12--12--12--12--|-8---8---8---8---8---8---8---8---|
D|-10--10--10--10--10--10--10--10--|-12--12--12--12--12--12--12--12--|---------------------------------|


E|---------------------------------|---------------------------------|---------------------------------|
B|---------------------------------|---------------------------------|---------------------------------|
G|---------------------------------|---------------------------------|-9---9---9---9---9---9---9---9---|
D|-10--10--10--10--10--10--10--10--|---------------------------------|-7---7---7---7---7---7---7---7---|
A|-8---8---8---8---8---8---8---8---|-10--10--10--10--10--10--10--10--|-0---0---0---0---0---0---0---0---|
D|-8---8---8---8---8---8---8---8---|-10--10--10--10--10--10--10--10--|-0---0---0---0---0---0---0---0---|


E|---------------------------------|---------------------------------|---------------------------------|
B|---------------------------------|---------------------------------|---------------------------------|
G|-10--10--10--10--10--10--10--10--|---------------------------------|-5---5---5---5---5---5---5---5---|
D|-10--10--10--10--10--10--10--10--|-10--10--10--10--10--10--10--10--|-5---5---5---5---5---5---5---5---|
A|-8---8---8---8---8---8---8---8---|-8---8---8---8---8---8---8---8---|-3---3---3---3---3---3---3---3---|
D|---------------------------------|-8---8---8---8---8---8---8---8---|---------------------------------|


E|---------------------------------|---------------------------------|---------------------------------|
B|---------------------------------|---------------------------------|---------------------------------|
G|-7---7---7---7---7---7---7---7---|-9---9---9---9---10--10--10--10--|---------------------------------|
D|-7---7---7---7---7---7---7---7---|-9---9---9---9---10--10--10--10--|-10--10--10--10--10--10--10--10--|
A|-5---5---5---5---5---5---5---5---|-7---7---7---7---8---8---8---8---|-8---8---8---8---8---8---8---8---|
D|---------------------------------|---------------------------------|-8---8---8---8---8---8---8---8---|


E|---------------------------------|---------------------------------|---------------------------------|
B|---------------------------------|---------------------------------|---------------------------------|
G|-5---5---5---5---5---5---5---5---|-7---7---7---7---7---7---7---7---|-9---9---9---9---10--10--10--10--|
D|-5---5---5---5---5---5---5---5---|-7---7---7---7---7---7---7---7---|-9---9---9---9---10--10--10--10--|
A|-3---3---3---3---3---3---3---3---|-5---5---5---5---5---5---5---5---|-7---7---7---7---8---8---8---8---|
D|---------------------------------|---------------------------------|---------------------------------|


E|---------------------------------|---------------------------------|---------------------------------|
B|---------------------------------|---------------------------------|---------------------------------|
G|---------------------------------|---------------------------------|---------------------------------|
D|-10--10--10--10--10--10--10--10--|---------------------------------|---------------------------------|
A|-8---8---8---8---8---8---8---8---|-10--10--10--10--10--10--10--10--|-12--12--12--12--12--12--12--12--|
D|-8---8---8---8---8---8---8---8---|-10--10--10--10--10--10--10--10--|-12--12--12--12--12--12--12--12--|


E|---------------------------------|---------------------------------|---------------------------------|
B|---------------------------------|---------------------------------|---------------------------------|
G|---------------------------------|---------------------------------|---------------------------------|
D|-10--10--10--10--10--10--10--10--|-10--10--10--10--10--10--10--10--|---------------------------------|
A|-8---8---8---8---8---8---8---8---|-8---8---8---8---8---8---8---8---|-10--10--10--10--10--10--10--10--|
D|---------------------------------|-8---8---8---8---8---8---8---8---|-10--10--10--10--10--10--10--10--|


E|---------------------------------|---------------------------------|---------------------------------|
B|---------------------------------|---------------------------------|---------------------------------|
G|-9---9---9---9---9---9---9---9---|-10--10--10--10--10--10--10--10--|---------------------------------|
D|-7---7---7---7---7---7---7---7---|-10--10--10--10--10--10--10--10--|-10--10--10--10--10--10--10--10--|
A|-0---0---0---0---0---0---0---0---|-8---8---8---8---8---8---8---8---|-8---8---8---8---8---8---8---8---|
D|-0---0---0---0---0---0---0---0---|---------------------------------|-8---8---8---8---8---8---8---8---|


E|---------------------------------|---------------------------------|---------------------------------|
B|---------------------------------|---------------------------------|---------------------------------|
G|-5---5---5---5---5---5---5---5---|-7---7---7---7---7---7---7---7---|-9---9---9---9---10--10--10--10--|
D|-5---5---5---5---5---5---5---5---|-7---7---7---7---7---7---7---7---|-9---9---9---9---10--10--10--10--|
A|-3---3---3---3---3---3---3---3---|-5---5---5---5---5---5---5---5---|-7---7---7---7---8---8---8---8---|
D|---------------------------------|---------------------------------|---------------------------------|


E|---------------------|---------------------|-----------------------------------|
B|---------------------|---------------------|-----------------------------------|
G|---------------------|---------------------|-----------------------------------|
D|---------------------|---------------------|-----------------------------------|
A|-12---12---12---12---|-12---12---12---12---|-0--0--8---0-------0-------0---0---|
D|-12---12---12---12---|-12---12---12---12---|-0--0--8---0-------0-------0---0---|


E|--------|
B|--------|
G|--------|
D|--------|
A|--------|
D|--------|





Track 2: Gtr.3 Overdub Dist

E|--------|--------|--------|--------|--------|--------|--------|--------|--------|
B|--------|--------|--------|--------|--------|--------|--------|--------|--------|
G|--------|--------|--------|--------|--------|--------|--------|--------|-9------|
D|--------|--------|--------|--------|-7------|-10-----|-10-----|-10-----|-7------|
A|--------|--------|--------|--------|-0------|-7------|-8------|-8------|-0------|
D|--------|--------|--------|--------|-0------|-7------|-8------|-8------|-0------|


E|--------|--------|--------|--------|--------|--------|--------|--------|--------|
B|--------|--------|--------|--------|--------|--------|--------|--------|--------|
G|--------|-10-----|-10-----|--------|--------|--------|--------|--------|--------|
D|-10-----|-10-----|-10-----|--------|--------|--------|--------|--------|--------|
A|-8------|-8------|-8------|--------|--------|--------|--------|--------|--------|
D|-7------|-8------|-8------|--------|--------|--------|--------|--------|--------|


E|--------|--------|--------|--------|--------|--------|--------|--------|--------|
B|--------|--------|--------|--------|--------|--------|--------|--------|--------|
G|--------|--------|--------|--------|--------|--------|--------|--------|--------|
D|--------|--------|--------|--------|--------|--------|--------|--------|--------|
A|--------|--------|--------|--------|--------|--------|--------|--------|--------|
D|--------|--------|--------|--------|--------|--------|--------|--------|--------|


E|--------|--------|--------|--------|--------|--------|--------|--------|--------|
B|--------|--------|--------|--------|--------|--------|--------|--------|--------|
G|--------|--------|--------|--------|--------|--------|--------|--------|--------|
D|--------|--------|--------|--------|--------|--------|--------|--------|--------|
A|--------|--------|--------|--------|--------|--------|--------|--------|--------|
D|--------|--------|--------|--------|--------|--------|--------|--------|--------|


E|--------|--------|--------|--------|--------|--------|--------|--------|--------|
B|--------|--------|--------|--------|--------|--------|--------|--------|--------|
G|--------|--------|--------|--------|--------|--------|--------|--------|--------|
D|--------|--------|--------|--------|--------|--------|--------|--------|--------|
A|--------|--------|--------|--------|--------|--------|--------|--------|--------|
D|--------|--------|--------|--------|--------|--------|--------|--------|--------|


E|--------|--------|--------|--------|--------|--------|--------|--------|--------|
B|--------|--------|--------|--------|--------|--------|--------|--------|--------|
G|--------|--------|--------|--------|--------|--------|--------|-9------|--------|
D|--------|--------|--------|-7------|-10-----|-10-----|-10-----|-7------|-10-----|
A|--------|--------|--------|-0------|-7------|-8------|-8------|-0------|-8------|
D|--------|--------|--------|-0------|-7------|-8------|-8------|-0------|-7------|


E|--------|--------|--------|--------|--------|--------|--------|--------|--------|
B|--------|--------|--------|--------|--------|--------|--------|--------|--------|
G|-10-----|-10-----|--------|--------|--------|--------|--------|--------|--------|
D|-10-----|-10-----|--------|--------|--------|--------|--------|--------|--------|
A|-8------|-8------|--------|--------|--------|--------|--------|--------|--------|
D|-8------|-8------|--------|--------|--------|--------|--------|--------|--------|


E|--------|--------|--------|--------|--------|--------|--------|--------|--------|
B|--------|--------|--------|--------|--------|--------|--------|--------|--------|
G|--------|--------|--------|--------|--------|--------|--------|--------|--------|
D|--------|--------|--------|--------|--------|--------|--------|--------|--------|
A|--------|--------|--------|--------|--------|--------|--------|--------|--------|
D|--------|--------|--------|--------|--------|--------|--------|--------|--------|


E|--------|--------|--------|--------|--------|--------|--------|--------|--------|
B|--------|--------|--------|--------|--------|--------|--------|--------|--------|
G|--------|--------|--------|--------|--------|--------|--------|--------|--------|
D|--------|--------|--------|--------|--------|--------|--------|--------|--------|
A|--------|--------|--------|--------|--------|--------|--------|--------|--------|
D|--------|--------|--------|--------|--------|--------|--------|--------|--------|


E|--------|--------|--------|--------|--------|--------|--------|--------|--------|
B|--------|--------|--------|--------|--------|--------|--------|--------|--------|
G|--------|--------|--------|--------|--------|--------|--------|--------|--------|
D|--------|--------|--------|--------|--------|--------|--------|--------|--------|
A|--------|--------|--------|--------|--------|--------|--------|--------|--------|
D|--------|--------|--------|--------|--------|--------|--------|--------|--------|


E|--------|--------|--------|--------|--------|--------|--------|--------|--------|
B|--------|--------|--------|--------|--------|--------|--------|--------|--------|
G|--------|--------|--------|--------|--------|--------|--------|--------|--------|
D|--------|--------|--------|--------|--------|--------|--------|--------|--------|
A|--------|--------|--------|--------|--------|--------|--------|--------|--------|
D|--------|--------|--------|--------|--------|--------|--------|--------|--------|


E|--------|--------|--------|----------------------------------|-----------------|
B|--------|--------|--------|------------------------------10--|-10--------------|
G|--------|--------|--------|-7--9--10-9--10--9----9---7-------|-------9----10---|
D|--------|--------|--------|----------------------------------|-----------------|
A|--------|--------|--------|----------------------------------|-----------------|
D|--------|--------|--------|----------------------------------|-----------------|


E|--------------------------|-----------------------|-------------------8----|-8------|
B|--------------------------|-----------------------|------------------------|--------|
G|-12----10---9--10-9---7---|-9---9---7---5---7-----|-9----10--9----10-------|--------|
D|--------------------------|-----------------------|------------------------|--------|
A|--------------------------|-----------------------|------------------------|--------|
D|--------------------------|-----------------------|------------------------|--------|


E|-8-------------------------------|------------------------|------------------|-----8---8--------------|
B|-----11--10------10--10--10--13--|-10--10--13-------------|------------------|-------------------10---|
G|-------------12------12--12--12--|-12--12--12--12---12----|-7-----9-----10---|-10-----------12--------|
D|---------------------------------|------------------------|------------------|------------------------|
A|---------------------------------|------------------------|------------------|------------------------|
D|---------------------------------|------------------------|------------------|------------------------|


E|-------------------------------------------------|-------------------------------------------------|
B|-11-10-11-10-------11-10-11-10-------11-10-------|-11-10-11-10-------11-10-11-10-------11-10-------|
G|-------------12-10-------------12-10-------12-10-|-------------12-10-------------12-10-------12-10-|
D|-------------------------------------------------|-------------------------------------------------|
A|-------------------------------------------------|-------------------------------------------------|
D|-------------------------------------------------|-------------------------------------------------|


E|-13-10-12-10-------13-10-12-10-------13-10-12-10-|------------------------|------18-------18-------|
B|-------------13-11-------------13-11-------------|-13-11---11---11----18--|-18---18--18---18--18---|
G|-------------------------------------------------|------------------------|------------------------|
D|-------------------------------------------------|------------------------|------------------------|
A|-------------------------------------------------|------------------------|------------------------|
D|-------------------------------------------------|------------------------|------------------------|


E|-18-------18---------------|--------|--------|--------|--------|--------|--------|
B|-18--18---18--18---18--18--|--------|--------|--------|--------|--------|--------|
G|---------------------------|--------|--------|--------|--------|--------|--------|
D|---------------------------|--------|--------|--------|--------|--------|--------|
A|---------------------------|--------|--------|--------|--------|--------|--------|
D|---------------------------|--------|--------|--------|--------|--------|--------|


E|--------|--------|--------|--------|--------|--------|--------|--------|--------|
B|--------|--------|--------|--------|--------|--------|--------|--------|--------|
G|--------|--------|--------|--------|--------|--------|--------|--------|--------|
D|--------|--------|--------|--------|--------|--------|--------|--------|--------|
A|--------|--------|--------|--------|--------|--------|--------|--------|--------|
D|--------|--------|--------|--------|--------|--------|--------|--------|--------|


E|--------|--------|--------|------------------------------|------------------------------|
B|--------|--------|--------|------------------------------|------------------------------|
G|--------|--------|--------|-10---9---7-------------------|-10---9---7-------------------|
D|--------|--------|--------|--------------8---7---5---0---|--------------8---7---5---0---|
A|--------|--------|--------|------------------------------|------------------------------|
D|--------|--------|--------|------------------------------|------------------------------|


E|------------------------------|---------------------------------|------------------------------|
B|------------------------------|---------------------------------|------------------------------|
G|-12---9---7-------------------|-9---7---------------10--9---7---|-10---9---7-------------------|
D|--------------8---7---5---0---|---------8---7---8---------------|--------------8---7---5---0---|
A|------------------------------|---------------------------------|------------------------------|
D|------------------------------|---------------------------------|------------------------------|


E|------------------------------|------------------------------|---------------------------------|
B|------------------------------|------------------------------|---------------------------------|
G|-10---9---7-------------------|-12---9---7-------------------|-9---7---------------10--9---7---|
D|--------------8---7---5---0---|--------------8---7---5---0---|---------8---7---8---------------|
A|------------------------------|------------------------------|---------------------------------|
D|------------------------------|------------------------------|---------------------------------|


E|--------|--------|--------|------------------|--------|--------|--------|--------|
B|-8------|-10-----|-11-----|-18----18----18---|--------|--------|--------|--------|
G|-7------|-9------|-10-----|------------------|--------|--------|--------|--------|
D|--------|--------|--------|------------------|--------|--------|--------|--------|
A|--------|--------|--------|------------------|--------|--------|--------|--------|
D|--------|--------|--------|------------------|--------|--------|--------|--------|





Track 3: Gtr.1 Dist

E|--------|--------|--------|-----------------|--------|--------|--------|--------|
B|--------|--------|--------|-----------------|--------|--------|--------|--------|
G|--------|--------|--------|-----------------|--------|--------|--------|--------|
D|--------|--------|--------|-----------------|--------|--------|--------|--------|
A|--------|--------|--------|-------0----8----|--------|--------|--------|--------|
D|--------|--------|--------|-----------------|--------|--------|--------|--------|


E|--------|--------|--------|--------|--------|--------|--------|--------|--------|
B|--------|--------|--------|--------|--------|--------|--------|--------|--------|
G|--------|--------|--------|--------|--------|--------|--------|--------|--------|
D|--------|--------|--------|--------|--------|--------|--------|--------|--------|
A|--------|--------|--------|--------|--------|--------|--------|--------|--------|
D|--------|--------|--------|--------|--------|--------|--------|--------|--------|


E|--------|--------|--------|--------|--------|--------|--------|--------|--------|
B|--------|--------|--------|--------|--------|--------|--------|--------|--------|
G|--------|--------|--------|--------|--------|--------|--------|--------|--------|
D|--------|--------|--------|--------|--------|--------|--------|--------|--------|
A|--------|--------|--------|--------|--------|--------|--------|--------|--------|
D|--------|--------|--------|--------|--------|--------|--------|--------|--------|


E|--------|--------|--------|--------|--------|--------|--------|--------|--------|
B|--------|--------|--------|--------|--------|--------|--------|--------|--------|
G|--------|--------|--------|--------|--------|--------|--------|--------|--------|
D|--------|--------|--------|--------|--------|--------|--------|--------|--------|
A|--------|--------|--------|--------|--------|--------|--------|--------|--------|
D|--------|--------|--------|--------|--------|--------|--------|--------|--------|


E|--------|--------|--------|--------|--------|--------|--------|--------|--------|
B|--------|--------|--------|--------|--------|--------|--------|--------|--------|
G|--------|--------|--------|--------|--------|--------|--------|--------|--------|
D|--------|--------|--------|--------|--------|--------|--------|--------|--------|
A|--------|--------|--------|--------|--------|--------|--------|--------|--------|
D|--------|--------|--------|--------|--------|--------|--------|--------|--------|


E|--------|--------|--------|--------|--------|--------|--------|--------|--------|
B|--------|--------|--------|--------|--------|--------|--------|--------|--------|
G|--------|--------|--------|--------|--------|--------|--------|--------|--------|
D|--------|--------|--------|--------|--------|--------|--------|--------|--------|
A|--------|--------|--------|--------|--------|--------|--------|--------|--------|
D|--------|--------|--------|--------|--------|--------|--------|--------|--------|


E|--------|--------|--------|--------|--------|--------|--------|--------|--------|
B|--------|--------|--------|--------|--------|--------|--------|--------|--------|
G|--------|--------|--------|--------|--------|--------|--------|--------|--------|
D|--------|--------|--------|--------|--------|--------|--------|--------|--------|
A|--------|--------|--------|--------|--------|--------|--------|--------|--------|
D|--------|--------|--------|--------|--------|--------|--------|--------|--------|


E|--------|--------|--------|--------|--------|--------|--------|--------|--------|
B|--------|--------|--------|--------|--------|--------|--------|--------|--------|
G|--------|--------|--------|--------|--------|--------|--------|--------|--------|
D|--------|--------|--------|--------|--------|--------|--------|--------|--------|
A|--------|--------|--------|--------|--------|--------|--------|--------|--------|
D|--------|--------|--------|--------|--------|--------|--------|--------|--------|


E|--------|--------|--------|--------|--------|--------|--------|--------|--------|
B|--------|--------|--------|--------|--------|--------|--------|--------|--------|
G|--------|--------|--------|--------|--------|--------|--------|--------|--------|
D|--------|--------|--------|--------|--------|--------|--------|--------|--------|
A|--------|--------|--------|--------|--------|--------|--------|--------|--------|
D|--------|--------|--------|--------|--------|--------|--------|--------|--------|


E|--------|--------|--------|--------|--------|--------|--------|--------|--------|
B|--------|--------|--------|--------|--------|--------|--------|--------|--------|
G|--------|--------|--------|--------|--------|--------|--------|--------|--------|
D|--------|--------|--------|--------|--------|--------|--------|--------|--------|
A|--------|--------|--------|--------|--------|--------|--------|--------|--------|
D|--------|--------|--------|--------|--------|--------|--------|--------|--------|


E|--------|--------|--------|--------|--------|--------|--------|--------|--------|
B|--------|--------|--------|--------|--------|--------|--------|--------|--------|
G|--------|--------|--------|--------|--------|--------|--------|--------|--------|
D|--------|--------|--------|--------|--------|--------|--------|--------|--------|
A|--------|--------|--------|--------|--------|--------|--------|--------|--------|
D|--------|--------|--------|--------|--------|--------|--------|--------|--------|


E|--------|--------|--------|--------|--------|--------|--------|--------|--------|
B|--------|--------|--------|--------|--------|--------|--------|--------|--------|
G|--------|--------|--------|--------|--------|--------|--------|--------|--------|
D|--------|--------|--------|--------|--------|--------|--------|--------|--------|
A|--------|--------|--------|--------|--------|--------|--------|--------|--------|
D|--------|--------|--------|--------|--------|--------|--------|--------|--------|


E|--------|--------|--------|--------|--------|--------|--------|--------|--------|
B|--------|--------|--------|--------|--------|--------|--------|--------|--------|
G|--------|--------|--------|--------|--------|--------|--------|--------|--------|
D|--------|--------|--------|--------|--------|--------|--------|--------|--------|
A|--------|--------|--------|--------|--------|--------|--------|--------|--------|
D|--------|--------|--------|--------|--------|--------|--------|--------|--------|


E|--------|--------|--------|--------|--------|--------|--------|--------|--------|
B|--------|--------|--------|--------|--------|--------|--------|--------|--------|
G|--------|--------|--------|--------|--------|--------|--------|--------|--------|
D|--------|--------|--------|--------|--------|--------|--------|--------|--------|
A|--------|--------|--------|--------|--------|--------|--------|--------|--------|
D|--------|--------|--------|--------|--------|--------|--------|--------|--------|


E|--------|--------|--------|--------|--------|--------|--------|--------|--------|
B|--------|--------|--------|--------|--------|--------|--------|--------|--------|
G|--------|--------|--------|--------|--------|--------|--------|--------|--------|
D|--------|--------|--------|--------|--------|--------|--------|--------|--------|
A|--------|--------|--------|--------|--------|--------|--------|--------|--------|
D|--------|--------|--------|--------|--------|--------|--------|--------|--------|


E|--------|--------|--------|--------|--------|--------|--------|--------|--------|
B|--------|--------|--------|--------|--------|--------|--------|--------|--------|
G|--------|--------|--------|--------|--------|--------|--------|--------|--------|
D|--------|--------|--------|--------|--------|--------|--------|--------|--------|
A|--------|--------|--------|--------|--------|--------|--------|--------|--------|
D|--------|--------|--------|--------|--------|--------|--------|--------|--------|


E|--------|--------|--------|--------|--------|--------|--------|--------|--------|
B|--------|--------|--------|--------|--------|--------|--------|--------|--------|
G|--------|--------|--------|--------|--------|--------|--------|--------|--------|
D|--------|--------|--------|--------|--------|--------|--------|--------|--------|
A|--------|--------|--------|--------|--------|--------|--------|--------|--------|
D|--------|--------|--------|--------|--------|--------|--------|--------|--------|





Track 4: Gtr. 2 Dist

E|--------|--------|--------|--------|---------------------------------|---------------------------------|
B|--------|--------|--------|--------|---------------------------------|---------------------------------|
G|--------|--------|--------|--------|---------------------------------|---------------------------------|
D|--------|--------|--------|--------|---------------------------------|---------------------------------|
A|--------|--------|--------|--------|-0---0---0---0---0---0---0---0---|-7---7---7---7---7---7---7---7---|
D|--------|--------|--------|--------|-0---0---0---0---0---0---0---0---|-7---7---7---7---7---7---7---7---|


E|---------------------------------|---------------------------------|---------------------------------|
B|---------------------------------|---------------------------------|---------------------------------|
G|---------------------------------|---------------------------------|---------------------------------|
D|---------------------------------|---------------------------------|---------------------------------|
A|-8---8---8---8---8---8---8---8---|-8---8---8---8---8---8---8---8---|-0---0---0---0---0---0---0---0---|
D|-8---8---8---8---8---8---8---8---|-8---8---8---8---8---8---8---8---|-0---0---0---0---0---0---0---0---|


E|---------------------------------|---------------------------------|---------------------------------|
B|---------------------------------|---------------------------------|---------------------------------|
G|---------------------------------|---------------------------------|---------------------------------|
D|---------------------------------|---------------------------------|---------------------------------|
A|-7---7---7---7---7---7---7---7---|-8---8---8---8---8---8---8---8---|-8---8---8---8---8---8---8---8---|
D|-7---7---7---7---7---7---7---7---|-8---8---8---8---8---8---8---8---|-8---8---8---8---8---8---8---8---|


E|---------------------------------|---------------------------------|---------------------------------|
B|---------------------------------|---------------------------------|---------------------------------|
G|-7---7---7---7---7---7---7---7---|-7---7---7---7---7---7---7---7---|---------------------------------|
D|-7---7---7---7---7---7---7---7---|-7---7---7---7---7---7---7---7---|---------------------------------|
A|-5---5---5---5---5---5---5---5---|-5---5---5---5---5---5---5---5---|-0---0---0---0---0---0---0---0---|
D|---------------------------------|---------------------------------|-0---0---0---0---0---0---0---0---|


E|---------------------------------|---------------------------------|---------------------------------|
B|---------------------------------|---------------------------------|---------------------------------|
G|---------------------------------|---------------------------------|---------------------------------|
D|---------------------------------|---------------------------------|---------------------------------|
A|-8---8---8---8---8---8---8---8---|-8---8---8---8---8---8---8---8---|-10--10--10--10--10--10--10--10--|
D|-8---8---8---8---8---8---8---8---|-7---7---7---7---7---7---7---7---|-10--10--10--10--10--10--10--10--|


E|---------------------------------|---------------------------------|---------------------------------|
B|---------------------------------|---------------------------------|---------------------------------|
G|---------------------------------|---------------------------------|---------------------------------|
D|---------------------------------|---------------------------------|---------------------------------|
A|-0---0---0---0---0---0---0---0---|-8---8---8---8---8---8---8---8---|-8---8---8---8---8---8---8---8---|
D|-0---0---0---0---0---0---0---0---|-8---8---8---8---8---8---8---8---|-7---7---7---7---7---7---7---7---|


E|---------------------------------|---------------------------------|---------------------------------|
B|---------------------------------|---------------------------------|---------------------------------|
G|-----------------------------12--|-12------------------------------|---------------------------------|
D|-----------------------------12--|-12--------------------------0---|-----------------------------8---|
A|-10--10--10--10--10--10--10--10--|-10--0---0---0---0---0---0---0---|-8---8---8---8---8---8---8---8---|
D|-10--10--10--10--10--10--10--10--|-10--0---0---0---0---0---0---0---|-8---8---8---8---8---8---8---8---|


E|---------------------------------|---------------------------------|---------------------------------|
B|---------------------------------|---------------------------------|---------------------------------|
G|---------------------------------|---------------------------------|-12------------------------------|
D|-----------------------------7---|-----------------------------10--|-12--------------------------0---|
A|-8---8---8---8---8---8---8---8---|-10--10--10--10--10--10--10--10--|-10--0---0---0---0---0---0---0---|
D|-7---7---7---7---7---7---7---7---|-10--10--10--10--10--10--10--10--|-10--0---0---0---0---0---0---0---|


E|---------------------------------|---------------------------------|---------------------------------|
B|---------------------------------|---------------------------------|---------------------------------|
G|---------------------------------|---------------------------------|---------------------------------|
D|-----------------------------8---|-----------------------------7---|-10--10--10--10--10--10--10--10--|
A|-8---8---8---8---8---8---8---8---|-8---8---8---8---8---8---8---8---|-10--10--10--10--10--10--10--10--|
D|-8---8---8---8---8---8---8---8---|-7---7---7---7---7---7---7---7---|-10--10--10--10--10--10--10--10--|


E|------------------------------|--------|---------------------------------|---------------------------------|
B|------------------------------|--------|---------------------------------|---------------------------------|
G|------------------------------|--------|---------------------------------|---------------------------------|
D|-----0-------0---0-------0----|--------|-8---8---8---8---8---8---8---8---|-10--10--10--10--10--10--10--10--|
A|-0---0-------0---0-------0----|--------|-8---8---8---8---8---8---8---8---|-10--10--10--10--10--10--10--10--|
D|-0---0-------0---0-------0----|--------|-8---8---8---8---8---8---8---8---|-10--10--10--10--10--10--10--10--|


E|---------------------------------|---------------------------------|---------------------------------|
B|---------------------------------|---------------------------------|---------------------------------|
G|---------------------------------|-10--10--10--10--10--10--10--10--|---------------------------------|
D|-12--12--12--12--12--12--12--12--|-10--10--10--10--10--10--10--10--|-8---8---8---8---8---8---8---8---|
A|-12--12--12--12--12--12--12--12--|-8---8---8---8---8---8---8---8---|-8---8---8---8---8---8---8---8---|
D|-12--12--12--12--12--12--12--12--|---------------------------------|-8---8---8---8---8---8---8---8---|


E|---------------------------------|---------------------------------|---------------------------------|
B|---------------------------------|---------------------------------|---------------------------------|
G|---------------------------------|---------------------------------|---------------------------------|
D|-10--10--10--10--10--10--10--10--|-0---0---0---0---0---0---0---0---|-3---3---3---3---3---3---3---3---|
A|-10--10--10--10--10--10--10--10--|-0---0---0---0---0---0---0---0---|-3---3---3---3---3---3---3---3---|
D|-10--10--10--10--10--10--10--10--|-0---0---0---0---0---0---0---0---|-3---3---3---3---3---3---3---3---|


E|---------------------------------|---------------------------------|---------------------------------|
B|---------------------------------|---------------------------------|---------------------------------|
G|---------------------------------|---------------------------------|---------------------------------|
D|-8---8---8---8---8---8---8---8---|-10--10--10--10--10--10--10--10--|-0---0---0---0---0---0---0---0---|
A|-8---8---8---8---8---8---8---8---|-10--10--10--10--10--10--10--10--|-0---0---0---0---0---0---0---0---|
D|-8---8---8---8---8---8---8---8---|-10--10--10--10--10--10--10--10--|-0---0---0---0---0---0---0---0---|


E|---------------------------------|--------|--------|-----------------------------------|
B|---------------------------------|--------|--------|-----------------------------------|
G|---------------------------------|--------|--------|-----------------------------------|
D|-3---3---3---3---3---3---3---3---|-3------|-3------|-----------------------------------|
A|-3---3---3---3---3---3---3---3---|-3------|-3------|-0--0--8---0-------0-------0---0---|
D|-3---3---3---3---3---3---3---3---|-3------|-3------|-0--0--8---0-------0-------0---0---|


E|-----------------|---------------------------------|---------------------------------|
B|-----------------|---------------------------------|---------------------------------|
G|-----------------|---------------------------------|---------------------------------|
D|-----------------|---------------------------------|---------------------------------|
A|-------0----8----|-0---0---0---0---0---0---0---0---|-7---7---7---7---7---7---7---7---|
D|-----------------|-0---0---0---0---0---0---0---0---|-7---7---7---7---7---7---7---7---|


E|---------------------------------|---------------------------------|---------------------------------|
B|---------------------------------|---------------------------------|---------------------------------|
G|---------------------------------|---------------------------------|---------------------------------|
D|---------------------------------|---------------------------------|---------------------------------|
A|-8---8---8---8---8---8---8---8---|-8---8---8---8---8---8---8---8---|-0---0---0---0---0---0---0---0---|
D|-8---8---8---8---8---8---8---8---|-8---8---8---8---8---8---8---8---|-0---0---0---0---0---0---0---0---|


E|---------------------------------|---------------------------------|---------------------------------|
B|---------------------------------|---------------------------------|---------------------------------|
G|---------------------------------|---------------------------------|---------------------------------|
D|---------------------------------|---------------------------------|---------------------------------|
A|-7---7---7---7---7---7---7---7---|-8---8---8---8---8---8---8---8---|-8---8---8---8---8---8---8---8---|
D|-7---7---7---7---7---7---7---7---|-8---8---8---8---8---8---8---8---|-8---8---8---8---8---8---8---8---|


E|---------------------------------|---------------------------------|---------------------------------|
B|---------------------------------|---------------------------------|---------------------------------|
G|-7---7---7---7---7---7---7---7---|-7---7---7---7---7---7---7---7---|---------------------------------|
D|-7---7---7---7---7---7---7---7---|-7---7---7---7---7---7---7---7---|---------------------------------|
A|-5---5---5---5---5---5---5---5---|-5---5---5---5---5---5---5---5---|-0---0---0---0---0---0---0---0---|
D|---------------------------------|---------------------------------|-0---0---0---0---0---0---0---0---|


E|---------------------------------|---------------------------------|---------------------------------|
B|---------------------------------|---------------------------------|---------------------------------|
G|---------------------------------|---------------------------------|---------------------------------|
D|---------------------------------|---------------------------------|---------------------------------|
A|-8---8---8---8---8---8---8---8---|-8---8---8---8---8---8---8---8---|-10--10--10--10--10--10--10--10--|
D|-8---8---8---8---8---8---8---8---|-7---7---7---7---7---7---7---7---|-10--10--10--10--10--10--10--10--|


E|---------------------------------|---------------------------------|---------------------------------|
B|---------------------------------|---------------------------------|---------------------------------|
G|---------------------------------|---------------------------------|---------------------------------|
D|---------------------------------|---------------------------------|---------------------------------|
A|-0---0---0---0---0---0---0---0---|-8---8---8---8---8---8---8---8---|-8---8---8---8---8---8---8---8---|
D|-0---0---0---0---0---0---0---0---|-8---8---8---8---8---8---8---8---|-7---7---7---7---7---7---7---7---|


E|---------------------------------|---------------------------------|---------------------------------|
B|---------------------------------|---------------------------------|---------------------------------|
G|-----------------------------12--|-12------------------------------|---------------------------------|
D|-----------------------------12--|-12--------------------------0---|-----------------------------8---|
A|-10--10--10--10--10--10--10--10--|-10--0---0---0---0---0---0---0---|-8---8---8---8---8---8---8---8---|
D|-10--10--10--10--10--10--10--10--|-10--0---0---0---0---0---0---0---|-8---8---8---8---8---8---8---8---|


E|---------------------------------|---------------------------------|---------------------------------|
B|---------------------------------|---------------------------------|---------------------------------|
G|---------------------------------|---------------------------------|-12------------------------------|
D|-----------------------------7---|-----------------------------10--|-12--------------------------0---|
A|-8---8---8---8---8---8---8---8---|-10--10--10--10--10--10--10--10--|-10--0---0---0---0---0---0---0---|
D|-7---7---7---7---7---7---7---7---|-10--10--10--10--10--10--10--10--|-10--0---0---0---0---0---0---0---|


E|---------------------------------|---------------------------------|---------------------------------|
B|---------------------------------|---------------------------------|---------------------------------|
G|---------------------------------|---------------------------------|---------------------------------|
D|-----------------------------8---|-----------------------------7---|-10--10--10--10--10--10--10--10--|
A|-8---8---8---8---8---8---8---8---|-8---8---8---8---8---8---8---8---|-10--10--10--10--10--10--10--10--|
D|-8---8---8---8---8---8---8---8---|-7---7---7---7---7---7---7---7---|-10--10--10--10--10--10--10--10--|


E|------------------------------|--------|------------------------------|--------|
B|------------------------------|--------|------------------------------|--------|
G|------------------------------|--------|------------------------------|--------|
D|-----0-------0---0-------0----|--------|-----0-------0---0-------0----|--------|
A|-0---0-------0---0-------0----|--------|-0---0-------0---0-------0----|--------|
D|-0---0-------0---0-------0----|--------|-0---0-------0---0-------0----|--------|


E|---------------------------------|---------------------------------|---------------------------------|
B|---------------------------------|---------------------------------|---------------------------------|
G|---------------------------------|---------------------------------|---------------------------------|
D|-8---8---8---8---8---8---8---8---|-10--10--10--10--10--10--10--10--|-12--12--12--12--12--12--12--12--|
A|-8---8---8---8---8---8---8---8---|-10--10--10--10--10--10--10--10--|-12--12--12--12--12--12--12--12--|
D|-8---8---8---8---8---8---8---8---|-10--10--10--10--10--10--10--10--|-12--12--12--12--12--12--12--12--|


E|---------------------------------|---------------------------------|---------------------------------|
B|---------------------------------|---------------------------------|---------------------------------|
G|-10--10--10--10--10--10--10--10--|---------------------------------|---------------------------------|
D|-10--10--10--10--10--10--10--10--|-8---8---8---8---8---8---8---8---|-10--10--10--10--10--10--10--10--|
A|-8---8---8---8---8---8---8---8---|-8---8---8---8---8---8---8---8---|-10--10--10--10--10--10--10--10--|
D|---------------------------------|-8---8---8---8---8---8---8---8---|-10--10--10--10--10--10--10--10--|


E|---------------------------------|---------------------------------|---------------------------------|
B|---------------------------------|---------------------------------|---------------------------------|
G|---------------------------------|---------------------------------|---------------------------------|
D|-0---0---0---0---0---0---0---0---|-3---3---3---3---3---3---3---3---|-8---8---8---8---8---8---8---8---|
A|-0---0---0---0---0---0---0---0---|-3---3---3---3---3---3---3---3---|-8---8---8---8---8---8---8---8---|
D|-0---0---0---0---0---0---0---0---|-3---3---3---3---3---3---3---3---|-8---8---8---8---8---8---8---8---|


E|---------------------------------|---------------------------------|---------------------------------|
B|---------------------------------|---------------------------------|---------------------------------|
G|---------------------------------|---------------------------------|---------------------------------|
D|-10--10--10--10--10--10--10--10--|-0---0---0---0---0---0---0---0---|-3---3---3---3---3---3---3---3---|
A|-10--10--10--10--10--10--10--10--|-0---0---0---0---0---0---0---0---|-3---3---3---3---3---3---3---3---|
D|-10--10--10--10--10--10--10--10--|-0---0---0---0---0---0---0---0---|-3---3---3---3---3---3---3---3---|


E|--------|--------|-----------------------------------|--------|------------------------|
B|--------|--------|-----------------------------------|--------|------------------------|
G|--------|--------|-----------------------------------|--------|-10---10-----------10---|
D|-3------|-3------|-----------------------------------|-10-----|-10---10-----------10---|
A|-3------|-3------|-0--0--8---0-------0-------0---0---|-8------|-8----8----8---8---8----|
D|-3------|-3------|-0--0--8---0-------0-------0---0---|-8------|-8----8----8---8--------|


E|------------------------|------------------------|--------|------------------------|
B|------------------------|------------------------|--------|------------------------|
G|-------------------10---|------------------------|--------|-10---10-----------10---|
D|-10---10-----------10---|-10---10--8----8---0----|-0------|-10---10-----------10---|
A|-8----8----8---8---8----|-10---10--8----8---0----|-0------|-8----8----8---8---8----|
D|-8----8----8---8--------|-10---10--8----8---0----|-0------|-8----8----8---8--------|


E|------------------------|------------------------|--------|------------------------|
B|------------------------|-------------------3----|-3------|------------------------|
G|-------------------10---|-12---12-----------2----|-2------|-10---10-----------10---|
D|-10---10-----------10---|-10---10--8----8---0----|-0------|-10---10-----------10---|
A|-8----8----8---8---8----|-10---10--8----8---0----|-0------|-8----8----8---8---8----|
D|-8----8----8---8--------|-10---10--7----7---0----|-0------|-8----8----8---8--------|


E|------------------------|------------------------|--------|------------------------|
B|------------------------|-------------------3----|-3------|------------------------|
G|-------------------12---|-12---12-----------2----|-2------|-10---10-----------10---|
D|-10---10-----------10---|-10---10--8----8---0----|-0------|-10---10-----------10---|
A|-8----8----8---8---8----|-10---10--8----8---0----|-0------|-8----8----8---8---8----|
D|-8----8----8---8---8----|-10---10--8----8---0----|-0------|-8----8----8---8--------|


E|------------------------|------------------------|--------|---------------------------------|
B|------------------------|-------------------3----|-3------|---------------------------------|
G|-------------------10---|-12---12-----------2----|-2------|---------------------------------|
D|-10---10-----------10---|-10---10--8----8---0----|-0------|---------------------------------|
A|-8----8----8---8---8----|-10---10--8----8---0----|-0------|-0---0---0---0---0---0---0---0---|
D|-8----8----8---8--------|-10---10--8----8---0----|-0------|-0---0---0---0---0---0---0---0---|


E|---------------------------------|---------------------------------|---------------------------------|
B|---------------------------------|---------------------------------|---------------------------------|
G|---------------------------------|---------------------------------|---------------------------------|
D|---------------------------------|---------------------------------|---------------------------------|
A|-0---0---0---0---0---0---0---0---|-7---7---7---7---7---7---7---7---|-7---7---7---7---7---7---7---7---|
D|-0---0---0---0---0---0---0---0---|-7---7---7---7---7---7---7---7---|-7---7---7---7---7---7---7---7---|


E|---------------------------------|---------------------------------|---------------------------------|
B|---------------------------------|---------------------------------|---------------------------------|
G|---------------------------------|---------------------------------|---------------------------------|
D|---------------------------------|---------------------------------|---------------------------------|
A|-8---8---8---8---8---8---8---8---|-8---8---8---8---8---8---8---8---|-10--10--10--10--10--10--10--10--|
D|-8---8---8---8---8---8---8---8---|-8---8---8---8---8---8---8---8---|-10--10--10--10--10--10--10--10--|


E|---------------------------------|------------------|--------|---------------------------------|
B|---------------------------------|------------------|--------|---------------------------------|
G|---------------------------------|-10----10----12---|-12-----|---------------------------------|
D|---------------------------------|-10----10----10---|-10-----|-8---8---8---8---8---8---8---8---|
A|-10--10--10--10--10--10--10--10--|-7-----8-----8----|-10-----|-8---8---8---8---8---8---8---8---|
D|-10--10--10--10--10--10--10--10--|-7-----8-----8----|-10-----|-8---8---8---8---8---8---8---8---|


E|---------------------------------|---------------------------------|---------------------------------|
B|---------------------------------|---------------------------------|---------------------------------|
G|---------------------------------|---------------------------------|-10--10--10--10--10--10--10--10--|
D|-10--10--10--10--10--10--10--10--|-12--12--12--12--12--12--12--12--|-10--10--10--10--10--10--10--10--|
A|-10--10--10--10--10--10--10--10--|-12--12--12--12--12--12--12--12--|-8---8---8---8---8---8---8---8---|
D|-10--10--10--10--10--10--10--10--|-12--12--12--12--12--12--12--12--|---------------------------------|


E|---------------------------------|---------------------------------|---------------------------------|
B|---------------------------------|---------------------------------|---------------------------------|
G|---------------------------------|---------------------------------|---------------------------------|
D|-8---8---8---8---8---8---8---8---|-10--10--10--10--10--10--10--10--|-0---0---0---0---0---0---0---0---|
A|-8---8---8---8---8---8---8---8---|-10--10--10--10--10--10--10--10--|-0---0---0---0---0---0---0---0---|
D|-8---8---8---8---8---8---8---8---|-10--10--10--10--10--10--10--10--|-0---0---0---0---0---0---0---0---|


E|---------------------------------|---------------------------------|---------------------------------|
B|---------------------------------|---------------------------------|---------------------------------|
G|---------------------------------|---------------------------------|---------------------------------|
D|-3---3---3---3---3---3---3---3---|-8---8---8---8---8---8---8---8---|-10--10--10--10--10--10--10--10--|
A|-3---3---3---3---3---3---3---3---|-8---8---8---8---8---8---8---8---|-10--10--10--10--10--10--10--10--|
D|-3---3---3---3---3---3---3---3---|-8---8---8---8---8---8---8---8---|-10--10--10--10--10--10--10--10--|


E|---------------------------------|---------------------------------|---------------------------------|
B|---------------------------------|---------------------------------|---------------------------------|
G|---------------------------------|---------------------------------|---------------------------------|
D|-0---0---0---0---0---0---0---0---|-3---3---3---3---3---3---3---3---|-8---8---8---8---8---8---8---8---|
A|-0---0---0---0---0---0---0---0---|-3---3---3---3---3---3---3---3---|-8---8---8---8---8---8---8---8---|
D|-0---0---0---0---0---0---0---0---|-3---3---3---3---3---3---3---3---|-8---8---8---8---8---8---8---8---|


E|---------------------------------|---------------------------------|---------------------------------|
B|---------------------------------|---------------------------------|---------------------------------|
G|---------------------------------|---------------------------------|---------------------------------|
D|-10--10--10--10--10--10--10--10--|-0---0---0---0---0---0---0---0---|-3---3---3---3---3---3---3---3---|
A|-10--10--10--10--10--10--10--10--|-0---0---0---0---0---0---0---0---|-3---3---3---3---3---3---3---3---|
D|-10--10--10--10--10--10--10--10--|-0---0---0---0---0---0---0---0---|-3---3---3---3---3---3---3---3---|


E|---------------------------------|---------------------------------|---------------------------------|
B|---------------------------------|---------------------------------|---------------------------------|
G|---------------------------------|---------------------------------|---------------------------------|
D|-8---8---8---8---8---8---8---8---|-10--10--10--10--10--10--10--10--|-12--12--12--12--12--12--12--12--|
A|-8---8---8---8---8---8---8---8---|-10--10--10--10--10--10--10--10--|-12--12--12--12--12--12--12--12--|
D|-8---8---8---8---8---8---8---8---|-10--10--10--10--10--10--10--10--|-12--12--12--12--12--12--12--12--|


E|---------------------------------|---------------------------------|---------------------------------|
B|---------------------------------|---------------------------------|---------------------------------|
G|-10--10--10--10--10--10--10--10--|---------------------------------|---------------------------------|
D|-10--10--10--10--10--10--10--10--|-8---8---8---8---8---8---8---8---|-10--10--10--10--10--10--10--10--|
A|-8---8---8---8---8---8---8---8---|-8---8---8---8---8---8---8---8---|-10--10--10--10--10--10--10--10--|
D|---------------------------------|-8---8---8---8---8---8---8---8---|-10--10--10--10--10--10--10--10--|


E|---------------------------------|---------------------------------|---------------------------------|
B|---------------------------------|---------------------------------|---------------------------------|
G|---------------------------------|---------------------------------|---------------------------------|
D|-0---0---0---0---0---0---0---0---|-3---3---3---3---3---3---3---3---|-8---8---8---8---8---8---8---8---|
A|-0---0---0---0---0---0---0---0---|-3---3---3---3---3---3---3---3---|-8---8---8---8---8---8---8---8---|
D|-0---0---0---0---0---0---0---0---|-3---3---3---3---3---3---3---3---|-8---8---8---8---8---8---8---8---|


E|---------------------------------|---------------------------------|---------------------------------|
B|---------------------------------|---------------------------------|---------------------------------|
G|---------------------------------|---------------------------------|---------------------------------|
D|-10--10--10--10--10--10--10--10--|-0---0---0---0---0---0---0---0---|-3---3---3---3---3---3---3---3---|
A|-10--10--10--10--10--10--10--10--|-0---0---0---0---0---0---0---0---|-3---3---3---3---3---3---3---3---|
D|-10--10--10--10--10--10--10--10--|-0---0---0---0---0---0---0---0---|-3---3---3---3---3---3---3---3---|


E|---------------------|---------------------|-----------------------------------|
B|---------------------|---------------------|-----------------------------------|
G|---------------------|---------------------|-----------------------------------|
D|---------------------|---------------------|-----------------------------------|
A|-12---12---12---12---|-12---12---12---12---|-0--0--8---0-------0-------0---0---|
D|-12---12---12---12---|-12---12---12---12---|-0--0--8---0-------0-------0---0---|


E|--------|
B|--------|
G|--------|
D|--------|
A|--------|
D|--------|





Track 5: Guitar Pickscrape

E|--------|--------|--------|--------|--------|--------|--------|--------|--------|
B|--------|--------|--------|--------|--------|--------|--------|--------|--------|
G|--------|--------|--------|--------|--------|--------|--------|--------|--------|
D|--------|--------|--------|--------|--------|--------|--------|--------|--------|
A|--------|--------|--------|--------|--------|--------|--------|--------|--------|
D|--------|--------|--------|--------|--------|--------|--------|--------|--------|


E|--------|--------|--------|--------|--------|--------|--------|--------|--------|
B|--------|--------|--------|--------|--------|--------|--------|--------|--------|
G|--------|--------|--------|--------|--------|--------|--------|--------|--------|
D|--------|--------|--------|--------|--------|--------|--------|--------|--------|
A|--------|--------|--------|--------|--------|--------|--------|--------|--------|
D|--------|--------|--------|--------|--------|--------|--------|--------|--------|


E|--------|--------|--------|--------|--------|--------|--------|--------|--------|
B|--------|--------|--------|--------|--------|--------|--------|--------|--------|
G|--------|--------|--------|--------|--------|--------|--------|--------|--------|
D|--------|--------|--------|--------|--------|--------|--------|--------|--------|
A|--------|--------|--------|--------|--------|--------|--------|--------|--------|
D|--------|--------|--------|--------|--------|--------|--------|--------|--------|


E|--------|--------|--------|--------|--------|--------|--------|--------|--------|
B|--------|--------|--------|--------|--------|--------|--------|--------|--------|
G|--------|--------|--------|--------|--------|--------|--------|--------|--------|
D|--------|--------|--------|--------|--------|--------|--------|--------|--------|
A|--------|--------|--------|--------|--------|--------|--------|--------|--------|
D|--------|--------|--------|--------|--------|--------|--------|--------|--------|


E|--------|--------|--------|--------|--------|--------|--------|--------|--------|
B|--------|--------|--------|--------|--------|--------|--------|--------|--------|
G|--------|--------|--------|--------|--------|--------|--------|--------|--------|
D|--------|--------|--------|--------|--------|--------|--------|--------|--------|
A|--------|--------|--------|--------|--------|--------|--------|--------|--------|
D|--------|--------|--------|--------|--------|--------|--------|--------|--------|


E|--------|--------|--------|--------|--------|--------|--------|--------|--------|
B|--------|--------|--------|--------|--------|--------|--------|--------|--------|
G|--------|--------|--------|--------|--------|--------|--------|--------|--------|
D|--------|--------|--------|--------|--------|--------|--------|--------|--------|
A|--------|--------|--------|--------|--------|--------|--------|--------|--------|
D|--------|--------|--------|--------|--------|--------|--------|--------|--------|


E|--------|--------|--------|--------|--------|--------|--------|--------|--------|
B|--------|--------|--------|--------|--------|--------|--------|--------|--------|
G|--------|--------|--------|--------|--------|--------|--------|--------|--------|
D|--------|--------|--------|--------|--------|--------|--------|--------|--------|
A|--------|--------|--------|--------|--------|--------|--------|--------|--------|
D|--------|--------|--------|--------|--------|--------|--------|--------|--------|


E|--------|--------|--------|--------|--------|--------|--------|--------|--------|
B|--------|--------|--------|--------|--------|--------|--------|--------|--------|
G|--------|--------|--------|--------|--------|--------|--------|--------|--------|
D|--------|--------|--------|--------|--------|--------|--------|--------|--------|
A|--------|--------|--------|--------|--------|--------|--------|--------|--------|
D|--------|--------|--------|--------|--------|--------|--------|--------|--------|


E|--------|--------|--------|--------|--------|--------|--------|--------|--------|
B|--------|--------|--------|--------|--------|--------|--------|--------|--------|
G|--------|--------|--------|--------|--------|--------|--------|--------|--------|
D|--------|--------|--------|--------|--------|--------|--------|--------|--------|
A|--------|--------|--------|--------|--------|--------|--------|--------|--------|
D|--------|--------|--------|--------|--------|--------|--------|--------|--------|


E|--------|--------|--------|--------|--------|--------|--------|--------|--------|
B|--------|--------|--------|--------|--------|--------|--------|--------|--------|
G|--------|--------|--------|--------|--------|--------|--------|--------|--------|
D|--------|--------|--------|--------|--------|--------|--------|--------|--------|
A|--------|--------|--------|--------|--------|--------|--------|--------|--------|
D|--------|--------|--------|--------|--------|--------|--------|--------|--------|


E|--------|--------|--------|--------|--------|--------|--------|--------|--------|
B|--------|--------|--------|--------|--------|--------|--------|--------|--------|
G|--------|--------|--------|--------|--------|--------|--------|--------|--------|
D|--------|--------|--------|--------|--------|--------|--------|--------|--------|
A|--------|--------|--------|--------|--------|--------|--------|--------|--------|
D|--------|--------|--------|--------|--------|--------|--------|--------|--------|


E|--------|--------|-22--18--15--13--10--8---7---5---|--------|--------|--------|--------|
B|--------|--------|---------------------------------|--------|--------|--------|--------|
G|--------|--------|---------------------------------|--------|--------|--------|--------|
D|--------|--------|---------------------------------|--------|--------|--------|--------|
A|--------|--------|---------------------------------|--------|--------|--------|--------|
D|--------|--------|---------------------------------|--------|--------|--------|--------|


E|--------|--------|--------|--------|--------|--------|--------|--------|--------|
B|--------|--------|--------|--------|--------|--------|--------|--------|--------|
G|--------|--------|--------|--------|--------|--------|--------|--------|--------|
D|--------|--------|--------|--------|--------|--------|--------|--------|--------|
A|--------|--------|--------|--------|--------|--------|--------|--------|--------|
D|--------|--------|--------|--------|--------|--------|--------|--------|--------|


E|--------|--------|--------|--------|--------|--------|--------|--------|--------|
B|--------|--------|--------|--------|--------|--------|--------|--------|--------|
G|--------|--------|--------|--------|--------|--------|--------|--------|--------|
D|--------|--------|--------|--------|--------|--------|--------|--------|--------|
A|--------|--------|--------|--------|--------|--------|--------|--------|--------|
D|--------|--------|--------|--------|--------|--------|--------|--------|--------|


E|--------|--------|--------|--------|--------|--------|--------|--------|--------|
B|--------|--------|--------|--------|--------|--------|--------|--------|--------|
G|--------|--------|--------|--------|--------|--------|--------|--------|--------|
D|--------|--------|--------|--------|--------|--------|--------|--------|--------|
A|--------|--------|--------|--------|--------|--------|--------|--------|--------|
D|--------|--------|--------|--------|--------|--------|--------|--------|--------|


E|--------|--------|--------|--------|--------|--------|--------|--------|--------|
B|--------|--------|--------|--------|--------|--------|--------|--------|--------|
G|--------|--------|--------|--------|--------|--------|--------|--------|--------|
D|--------|--------|--------|--------|--------|--------|--------|--------|--------|
A|--------|--------|--------|--------|--------|--------|--------|--------|--------|
D|--------|--------|--------|--------|--------|--------|--------|--------|--------|


E|--------|--------|--------|--------|--------|--------|--------|--------|--------|
B|--------|--------|--------|--------|--------|--------|--------|--------|--------|
G|--------|--------|--------|--------|--------|--------|--------|--------|--------|
D|--------|--------|--------|--------|--------|--------|--------|--------|--------|
A|--------|--------|--------|--------|--------|--------|--------|--------|--------|
D|--------|--------|--------|--------|--------|--------|--------|--------|--------|


E|--------|
B|--------|
G|--------|
D|--------|
A|--------|
D|--------|





Track 6: Gtr.1

G|--------|--------|--------|-----------------|--------|--------|--------|--------|
D|--------|--------|--------|-----------------|--------|--------|--------|--------|
A|--------|--------|--------|-------0----8----|--------|--------|--------|--------|
D|--------|--------|--------|-----------------|-0------|-7------|-8------|-8------|


G|--------|--------|--------|--------|---------------------------------|------------------------------|
D|--------|--------|--------|--------|---------------------------------|------------------------------|
A|--------|--------|--------|--------|-5---5---5---5---5---5---5---5---|-5---5---5---5-----------15---|
D|-0------|-7------|-8------|-8------|---------------------------------|-----------------0---0--------|


G|---------------------------------|---------------------------------|---------------------------------|
D|---------------------------------|---------------------------------|---------------------------------|
A|---------------------------------|---------------------------------|---------------------------------|
D|-0---0---0---0---0---0---0---0---|-8---8---8---8---8---8---8---8---|-7---7---7---7---7---7---7---7---|


G|---------------------------------|---------------------------------|---------------------------------|
D|---------------------------------|---------------------------------|---------------------------------|
A|---------------------------------|---------------------------------|---------------------------------|
D|-10--10--10--10--10--10--10--10--|-0---0---0---0---0---0---0---0---|-8---8---8---8---8---8---8---8---|


G|---------------------------------|---------------------------------|---------------------------------|
D|---------------------------------|---------------------------------|---------------------------------|
A|---------------------------------|---------------------------------|---------------------------------|
D|-7---7---7---7---7---7---7---7---|-10--10--10--10--10--10--10--10--|-10--0---0---0---0---0---0---0---|


G|---------------------------------|---------------------------------|---------------------------------|
D|---------------------------------|---------------------------------|---------------------------------|
A|---------------------------------|---------------------------------|---------------------------------|
D|-8---8---8---8---8---8---8---8---|-7---7---7---7---7---7---7---7---|-10--10--10--10--10--10--10--10--|


G|---------------------------------|---------------------------------|---------------------------------|
D|---------------------------------|---------------------------------|---------------------------------|
A|---------------------------------|---------------------------------|---------------------------------|
D|-10--0---0---0---0---0---0---0---|-8---8---8---8---8---8---8---8---|-7---7---7---7---7---7---7---7---|


G|---------------------------------|------------------------------|--------|---------------------------------|
D|---------------------------------|------------------------------|--------|---------------------------------|
A|-5---5---5---5---5---5---5---5---|------------------------------|--------|---------------------------------|
D|---------------------------------|-0---0-------0---0-------0----|--------|-8---8---8---8---8---8---8---8---|


G|---------------------------------|---------------------------------|---------------------------------|
D|---------------------------------|---------------------------------|---------------------------------|
A|---------------------------------|---------------------------------|-8---8---8---8---8---8---8---8---|
D|-10--10--10--10--10--10--10--10--|-12--12--12--12--12--12--12--12--|---------------------------------|


G|---------------------------------|---------------------------------|---------------------------------|
D|---------------------------------|---------------------------------|---------------------------------|
A|---------------------------------|---------------------------------|---------------------------------|
D|-8---8---8---8---8---8---8---8---|-10--10--10--10--10--10--10--10--|-0---0---0---0---0---0---0---0---|


G|---------------------------------|---------------------------------|---------------------------------|
D|---------------------------------|---------------------------------|---------------------------------|
A|---------------------------------|---------------------------------|---------------------------------|
D|-3---3---3---3---3---3---3---3---|-8---8---8---8---8---8---8---8---|-10--10--10--10--10--10--10--10--|


G|---------------------------------|---------------------------------|--------|--------|
D|---------------------------------|---------------------------------|--------|--------|
A|---------------------------------|---------------------------------|--------|--------|
D|-0---0---0---0---0---0---0---0---|-3---3---3---3---3---3---3---3---|--------|--------|


G|-----------------------------------|--------|---------------------------------|---------------------------------|
D|-----------------------------------|--------|---------------------------------|---------------------------------|
A|-----------------------------------|--------|---------------------------------|---------------------------------|
D|-0--0--8---0-------0-------0---0---|--------|-0---0---0---0---0---0---0---0---|-7---7---7---7---7---7---7---7---|


G|---------------------------------|---------------------------------|---------------------------------|
D|---------------------------------|---------------------------------|---------------------------------|
A|---------------------------------|---------------------------------|---------------------------------|
D|-8---8---8---8---8---8---8---8---|-8---8---8---8---8---8---8---8---|-0---0---0---0---0---0---0---0---|


G|---------------------------------|---------------------------------|---------------------------------|
D|---------------------------------|---------------------------------|---------------------------------|
A|---------------------------------|---------------------------------|---------------------------------|
D|-7---7---7---7---7---7---7---7---|-8---8---8---8---8---8---8---8---|-8---8---8---8---8---8---8---8---|


G|---------------------------------|------------------------------|---------------------------------|
D|---------------------------------|------------------------------|---------------------------------|
A|-5---5---5---5---5---5---5---5---|-5---5---5---5-----------15---|---------------------------------|
D|---------------------------------|-----------------0---0--------|-0---0---0---0---0---0---0---0---|


G|---------------------------------|---------------------------------|---------------------------------|
D|---------------------------------|---------------------------------|---------------------------------|
A|---------------------------------|---------------------------------|---------------------------------|
D|-8---8---8---8---8---8---8---8---|-7---7---7---7---7---7---7---7---|-10--10--10--10--10--10--10--10--|


G|---------------------------------|---------------------------------|---------------------------------|
D|---------------------------------|---------------------------------|---------------------------------|
A|---------------------------------|---------------------------------|---------------------------------|
D|-0---0---0---0---0---0---0---0---|-8---8---8---8---8---8---8---8---|-7---7---7---7---7---7---7---7---|


G|---------------------------------|---------------------------------|---------------------------------|
D|---------------------------------|---------------------------------|---------------------------------|
A|---------------------------------|---------------------------------|---------------------------------|
D|-10--10--10--10--10--10--10--10--|-10--0---0---0---0---0---0---0---|-8---8---8---8---8---8---8---8---|


G|---------------------------------|---------------------------------|---------------------------------|
D|---------------------------------|---------------------------------|---------------------------------|
A|---------------------------------|---------------------------------|---------------------------------|
D|-7---7---7---7---7---7---7---7---|-10--10--10--10--10--10--10--10--|-10--0---0---0---0---0---0---0---|


G|---------------------------------|---------------------------------|---------------------------------|
D|---------------------------------|---------------------------------|---------------------------------|
A|---------------------------------|---------------------------------|-5---5---5---5---5---5---5---5---|
D|-8---8---8---8---8---8---8---8---|-7---7---7---7---7---7---7---7---|---------------------------------|


G|------------------------------|--------|------------------------------|--------|
D|------------------------------|--------|------------------------------|--------|
A|------------------------------|--------|------------------------------|--------|
D|-0---0-------0---0-------0----|--------|-0---0-------0---0-------0----|--------|


G|---------------------------------|---------------------------------|---------------------------------|
D|---------------------------------|---------------------------------|---------------------------------|
A|---------------------------------|---------------------------------|---------------------------------|
D|-8---8---8---8---8---8---8---8---|-10--10--10--10--10--10--10--10--|-12--12--12--12--12--12--12--12--|


G|---------------------------------|---------------------------------|---------------------------------|
D|---------------------------------|---------------------------------|---------------------------------|
A|-8---8---8---8---8---8---8---8---|---------------------------------|---------------------------------|
D|---------------------------------|-8---8---8---8---8---8---8---8---|-10--10--10--10--10--10--10--10--|


G|---------------------------------|---------------------------------|---------------------------------|
D|---------------------------------|---------------------------------|---------------------------------|
A|---------------------------------|---------------------------------|---------------------------------|
D|-0---0---0---0---0---0---0---0---|-3---3---3---3---3---3---3---3---|-8---8---8---8---8---8---8---8---|


G|---------------------------------|---------------------------------|---------------------------------|
D|---------------------------------|---------------------------------|---------------------------------|
A|---------------------------------|---------------------------------|---------------------------------|
D|-10--10--10--10--10--10--10--10--|-0---0---0---0---0---0---0---0---|-3---3---3---3---3---3---3---3---|


G|--------|--------|-----------------------------------|--------|------------------------|
D|--------|--------|-----------------------------------|--------|------------------------|
A|--------|--------|-----------------------------------|--------|------------------------|
D|--------|--------|-0--0--8---0-------0-------0---0---|-8------|-8----8----8---8---8----|


G|------------------------|------------------------|--------|------------------------|
D|------------------------|------------------------|--------|------------------------|
A|------------------------|------------------------|--------|------------------------|
D|-8----8----8---8---8----|-10---10--8----8---0----|-0------|-8----8----8---8---8----|


G|------------------------|------------------------|--------|------------------------|
D|------------------------|------------------------|--------|------------------------|
A|------------------------|------------------------|--------|------------------------|
D|-8----8----8---8---8----|-10---10--8----8---0----|-0------|-8----8----8---8---8----|


G|------------------------|------------------------|--------|------------------------|
D|------------------------|------------------------|--------|------------------------|
A|------------------------|------------------------|--------|------------------------|
D|-8----8----8---8---8----|-10---10--8----8---0----|-0------|-8----8----8---8---8----|


G|------------------------|------------------------|--------|---------------------------------|
D|------------------------|------------------------|--------|---------------------------------|
A|------------------------|------------------------|--------|---------------------------------|
D|-8----8----8---8---8----|-10---10--8----8---0----|-0------|-0---0---0---0---0---0---0---0---|


G|---------------------------------|---------------------------------|---------------------------------|
D|---------------------------------|---------------------------------|---------------------------------|
A|---------------------------------|---------------------------------|---------------------------------|
D|-0---0---0---0---0---0---0---0---|-7---7---7---7---7---7---7---7---|-7---7---7---7---7---7---7---7---|


G|---------------------------------|---------------------------------|---------------------------------|
D|---------------------------------|---------------------------------|---------------------------------|
A|---------------------------------|---------------------------------|---------------------------------|
D|-8---8-------8---8-------8---8---|-----8---8-------8---8---8---8---|-10--10--10--10--10--10--10--10--|


G|---------------------------------|-------------10---|-12-----------------|---------------------------------|
D|---------------------------------|------------------|-------2---3--------|---------------------------------|
A|---------------------------------|-7-----8----------|---------------2----|---------------------------------|
D|-10--10--10--10--10--10--10--10--|------------------|--------------------|-8---8---8---8---8---8---8---8---|


G|---------------------------------|---------------------------------|---------------------------------|
D|---------------------------------|---------------------------------|---------------------------------|
A|---------------------------------|---------------------------------|-8---8---8---8---8---8---8---8---|
D|-10--10--10--10--10--10--10--10--|-12--12--12--12--12--12--12--12--|---------------------------------|


G|---------------------------------|---------------------------------|---------------------------------|
D|---------------------------------|---------------------------------|---------------------------------|
A|---------------------------------|---------------------------------|---------------------------------|
D|-8---8---8---8---8---8---8---8---|-10--10--10--10--10--10--10--10--|-0---0---0---0---0---0---0---0---|


G|---------------------------------|---------------------------------|---------------------------------|
D|---------------------------------|---------------------------------|---------------------------------|
A|---------------------------------|---------------------------------|---------------------------------|
D|-3---3---3---3---3---3---3---3---|-8---8---8---8---8---8---8---8---|-10--10--10--10--10--10--10--10--|


G|---------------------------------|---------------------------------|---------------------------------|
D|---------------------------------|---------------------------------|---------------------------------|
A|---------------------------------|---------------------------------|---------------------------------|
D|-0---0---0---0---0---0---0---0---|-3---3---3---3---3---3---3---3---|-8---8---8---8---8---8---8---8---|


G|---------------------------------|---------------------------------|---------------------------------|
D|---------------------------------|---------------------------------|---------------------------------|
A|---------------------------------|---------------------------------|---------------------------------|
D|-10--10--10--10--10--10--10--10--|-0---0---0---0---0---0---0---0---|-3---3---3---3---3---3---3---3---|


G|---------------------------------|---------------------------------|---------------------------------|
D|---------------------------------|---------------------------------|---------------------------------|
A|---------------------------------|---------------------------------|---------------------------------|
D|-8---8---8---8---8---8---8---8---|-10--10--10--10--10--10--10--10--|-12--12--12--12--12--12--12--12--|


G|---------------------------------|---------------------------------|---------------------------------|
D|---------------------------------|---------------------------------|---------------------------------|
A|-8---8---8---8---8---8---8---8---|---------------------------------|---------------------------------|
D|---------------------------------|-8---8---8---8---8---8---8---8---|-10--10--10--10--10--10--10--10--|


G|---------------------------------|---------------------------------|---------------------------------|
D|---------------------------------|---------------------------------|---------------------------------|
A|---------------------------------|---------------------------------|---------------------------------|
D|-0---0---0---0---0---0---0---0---|-3---3---3---3---3---3---3---3---|-8---8---8---8---8---8---8---8---|


G|---------------------------------|---------------------------------|---------------------------------|
D|---------------------------------|---------------------------------|---------------------------------|
A|---------------------------------|---------------------------------|---------------------------------|
D|-10--10--10--10--10--10--10--10--|-0---0---0---0---0---0---0---0---|-3---3---3---3---3---3---3---3---|


G|--------|--------|-----------------------------------|--------|
D|--------|--------|-----------------------------------|--------|
A|--------|--------|-----------------------------------|--------|
D|--------|--------|-0--0--8---0-------0-------0---0---|--------|