Site menu:

    

Browse: 0-9 A B C D E F G H I J K L N O P Q R S T U V W X Y Z

alkaline trio - this could be love:



Title: This Could Be Love
Artist: 
Album: Good Mourning
Author: 


Track 1: Guitar 1

E|---------------------------------|---------------------------------|---------------------------------|
B|---------------------------------|---------------------------------|---------------------------------|
G|---------13--13--14--14--13--13--|---------13--14--14--14--13--13--|---------13--13--14--14--13--13--|
D|-11--11--11--11--11--11--11--11--|-11--11--11--11--11--11--11--11--|-11--11--11--11--11--11--11--11--|
A|---------------------------------|---------------------------------|---------------------------------|
E|---------------------------------|---------------------------------|---------------------------------|


E|---------------------------------|---------------------------------|---------------------------------|
B|---------------------------------|---------------------------------|---------------------------------|
G|---------13--14--14--14--13--13--|---------13--13--14--14--13--13--|---------13--14--14--14--13--13--|
D|-11--11--11--11--11--11--11--11--|-11--11--11--11--11--11--11--11--|-11--11--11--11--11--11--11--11--|
A|---------------------------------|---------------------------------|---------------------------------|
E|---------------------------------|---------------------------------|---------------------------------|


E|---------------------------------|---------------------------------|---------------------------------|
B|---------------------------------|---------------------------------|---------------------------------|
G|---------13--13--14--14--13--13--|---------13--14--14--14--13--13--|---------13--13--14--14--13--13--|
D|-11--11--11--11--11--11--11--11--|-11--11--11--11--11--11--11--11--|-11--11--11--11--11--11--11--11--|
A|---------------------------------|---------------------------------|---------------------------------|
E|---------------------------------|---------------------------------|---------------------------------|


E|---------------------------------|---------------------------------|---------------------------------|
B|---------------------------------|---------------------------------|---------------------------------|
G|---------13--14--14--14--13--13--|-6---6---6---6---6---6---6---6---|-6---6---6---6---6---6---6---6---|
D|-11--11--11--11--11--11--11--11--|-6---6---6---6---6---6---6---6---|-6---6---6---6---6---6---6---6---|
A|---------------------------------|-4---4---4---4---4---4---4---4---|-4---4---4---4---4---4---4---4---|
E|---------------------------------|---------------------------------|---------------------------------|


E|---------------------------------|---------------------------------|---------------------------------|
B|---------------------------------|---------------------------------|---------------------------------|
G|---------------------------------|---------------------------------|-6---6---6---6---6---6---6---6---|
D|-7---7---7---7---7---7---7---7---|-4---4---4---4---4---4---4---4---|-6---6---6---6---6---6---6---6---|
A|-7---7---7---7---7---7---7---7---|-4---4---4---4---4---4---4---4---|-4---4---4---4---4---4---4---4---|
E|-5---5---5---5---5---5---5---5---|-2---2---2---2---2---2---2---2---|---------------------------------|


E|---------------------------------|---------------------------------|---------------------------------|
B|---------------------------------|---------------------------------|---------------------------------|
G|-6---6---6---6---6---6---6---6---|---------------------------------|---------------------------------|
D|-6---6---6---6---6---6---6---6---|-7---7---7---7---7---7---7---7---|-4---4---4---4---4---4---4---4---|
A|-4---4---4---4---4---4---4---4---|-7---7---7---7---7---7---7---7---|-4---4---4---4---4---4---4---4---|
E|---------------------------------|-5---5---5---5---5---5---5---5---|-2---2---2---2---2---2---2---2---|


E|---------------------------------|---------------------------------|---------------------------------|
B|---------------------------------|---------------------------------|---------------------------------|
G|-6---6---6---6---6---6---6---6---|-6---6---6---6---6---6---6---6---|---------------------------------|
D|-6---6---6---6---6---6---6---6---|-6---6---6---6---6---6---6---6---|-7---7---7---7---7---7---7---7---|
A|-4---4---4---4---4---4---4---4---|-4---4---4---4---4---4---4---4---|-7---7---7---7---7---7---7---7---|
E|---------------------------------|---------------------------------|-5---5---5---5---5---5---5---5---|


E|---------------------------------|---------------------------------|---------------------------------|
B|---------------------------------|---------------------------------|---------------------------------|
G|---------------------------------|-6---6---6---6---6---6---6---6---|-6---6---6---6---6---6---6---6---|
D|-4---4---4---4---4---4---4---4---|-6---6---6---6---6---6---6---6---|-6---6---6---6---6---6---6---6---|
A|-4---4---4---4---4---4---4---4---|-4---4---4---4---4---4---4---4---|-4---4---4---4---4---4---4---4---|
E|-2---2---2---2---2---2---2---2---|---------------------------------|---------------------------------|


E|---------------------------------|---------------------------------|---------------------------------|
B|---------------------------------|---------------------------------|---------------------------------|
G|---------------------------------|---------------------------------|---------13--13--14--14--13--13--|
D|-7---7---7---7---7---7---7---7---|-4---4---4---4---4---4---4---4---|-11--11--11--11--11--11--11--11--|
A|-7---7---7---7---7---7---7---7---|-4---4---4---4---4---4---4---4---|---------------------------------|
E|-5---5---5---5---5---5---5---5---|-2---2---2---2---2---2---2---2---|---------------------------------|


E|---------------------------------|---------------------------------|---------------------------------|
B|---------------------------------|---------------------------------|---------------------------------|
G|---------13--14--14--14--13--13--|---------13--13--14--14--13--13--|---------13--14--14--14--13--13--|
D|-11--11--11--11--11--11--11--11--|-11--11--11--11--11--11--11--11--|-11--11--11--11--11--11--11--11--|
A|---------------------------------|---------------------------------|---------------------------------|
E|---------------------------------|---------------------------------|---------------------------------|


E|---------------------------------|---------------------------------|---------------------------------|
B|---------------------------------|---------------------------------|---------------------------------|
G|---------13--13--14--14--13--13--|---------13--14--14--14--13--13--|---------13--13--14--14--13--13--|
D|-11--11--11--11--11--11--11--11--|-11--11--11--11--11--11--11--11--|-11--11--11--11--11--11--11--11--|
A|---------------------------------|---------------------------------|---------------------------------|
E|---------------------------------|---------------------------------|---------------------------------|


E|---------------------------------|---------------------------------|---------------------------------|
B|---------------------------------|---------------------------------|---------------------------------|
G|---------13--14--14--14--13--13--|-6---6---6---6---6---6---6---6---|-6---6---6---6---6---6---6---6---|
D|-11--11--11--11--11--11--11--11--|-6---6---6---6---6---6---6---6---|-6---6---6---6---6---6---6---6---|
A|---------------------------------|-4---4---4---4---4---4---4---4---|-4---4---4---4---4---4---4---4---|
E|---------------------------------|---------------------------------|---------------------------------|


E|---------------------------------|---------------------------------|---------------------------------|
B|---------------------------------|---------------------------------|---------------------------------|
G|---------------------------------|---------------------------------|-6---6---6---6---6---6---6---6---|
D|-7---7---7---7---7---7---7---7---|-4---4---4---4---4---4---4---4---|-6---6---6---6---6---6---6---6---|
A|-7---7---7---7---7---7---7---7---|-4---4---4---4---4---4---4---4---|-4---4---4---4---4---4---4---4---|
E|-5---5---5---5---5---5---5---5---|-2---2---2---2---2---2---2---2---|---------------------------------|


E|---------------------------------|---------------------------------|---------------------------------|
B|---------------------------------|---------------------------------|---------------------------------|
G|-6---6---6---6---6---6---6---6---|---------------------------------|---------------------------------|
D|-6---6---6---6---6---6---6---6---|-7---7---7---7---7---7---7---7---|-4---4---4---4---4---4---4---4---|
A|-4---4---4---4---4---4---4---4---|-7---7---7---7---7---7---7---7---|-4---4---4---4---4---4---4---4---|
E|---------------------------------|-5---5---5---5---5---5---5---5---|-2---2---2---2---2---2---2---2---|


E|---------------------------------|---------------------------------|---------------------------------|
B|---------------------------------|---------------------------------|---------------------------------|
G|-6---6---6---6---6---6---6---6---|-6---6---6---6---6---6---6---6---|---------------------------------|
D|-6---6---6---6---6---6---6---6---|-6---6---6---6---6---6---6---6---|-7---7---7---7---7---7---7---7---|
A|-4---4---4---4---4---4---4---4---|-4---4---4---4---4---4---4---4---|-7---7---7---7---7---7---7---7---|
E|---------------------------------|---------------------------------|-5---5---5---5---5---5---5---5---|


E|---------------------------------|---------------------------|---------------------------|
B|---------------------------------|---------------------------|---------------------------|
G|---------------------------------|---------------------------|---------------------------|
D|-4---4---4---4---4---4---4---4---|------7---9--------6---7---|------4---6--------2---2---|
A|-4---4---4---4---4---4---4---4---|---------------------------|---------------------------|
E|-2---2---2---2---2---2---2---2---|---------------------------|---------------------------|


E|---------------------------------|---------------------------------|---------------------------------|
B|---------------------------------|---------------------------------|---------------------------------|
G|---------------------------------|---------------------------------|-9---9---9---9---9---9---9---9---|
D|-2---2---2---2---2---2---2---2---|-2---2---2---2---2---2---2---2---|-9---9---9---9---9---9---9---9---|
A|---------------------------------|---------------------------------|-7---7---7---7---7---7---7---7---|
E|---------------------------------|---------------------------------|---------------------------------|


E|---------------------------------|---------------------------------|---------------------------------|
B|---------------------------------|---------------------------------|---------------------------------|
G|-9---9---9---9---9---9---9---9---|---------------------------------|---------------------------------|
D|-9---9---9---9---9---9---9---9---|-7---7---7---7---7---7---7---7---|-9---9---9---9---9---9---9---9---|
A|-7---7---7---7---7---7---7---7---|-7---7---7---7---7---7---7---7---|-9---9---9---9---9---9---9---9---|
E|---------------------------------|-5---5---5---5---5---5---5---5---|-7---7---7---7---7---7---7---7---|


E|---------------------------------|---------------------------------|---------------------------------|
B|---------------------------------|---------------------------------|---------------------------------|
G|-9---9---9---9---9---9---9---9---|-9---9---9---9---9---9---9---9---|---------------------------------|
D|-9---9---9---9---9---9---9---9---|-9---9---9---9---9---9---9---9---|-7---7---7---7---7---7---7---7---|
A|-7---7---7---7---7---7---7---7---|-7---7---7---7---7---7---7---7---|-7---7---7---7---7---7---7---7---|
E|---------------------------------|---------------------------------|-5---5---5---5---5---5---5---5---|


E|---------------------------------|---------------------------------|---------------------------------|
B|---------------------------------|---------------------------------|---------------------------------|
G|---------------------------------|-9---9---9---9---9---9---9---9---|-9---9---9---9---9---9---9---9---|
D|-9---9---9---9---9---9---9---9---|-9---9---9---9---9---9---9---9---|-9---9---9---9---9---9---9---9---|
A|-9---9---9---9---9---9---9---9---|-7---7---7---7---7---7---7---7---|-7---7---7---7---7---7---7---7---|
E|-7---7---7---7---7---7---7---7---|---------------------------------|---------------------------------|


E|---------------------------------|---------------------------------|--------|--------|
B|---------------------------------|---------------------------------|--------|--------|
G|---------------------------------|---------------------------------|--------|--------|
D|-7---7---7---7---7---7---7---7---|-9---9---9---9---9---9---9---9---|-7------|-9------|
A|-7---7---7---7---7---7---7---7---|-9---9---9---9---9---9---9---9---|-7------|-9------|
E|-5---5---5---5---5---5---5---5---|-7---7---7---7---7---7---7---7---|-5------|-7------|


E|--------|---------------------------------|---------------------------------|---------------------------------|
B|--------|---------------------------------|---------------------------------|---------------------------------|
G|--------|---------------------------------|---------------------------------|---------13--13--14--14--13--13--|
D|-7------|-9---9---9---9---9---9---9---9---|-9---9---9---9---9---9---9---9---|-11--11--11--11--11--11--11--11--|
A|-7------|-9---9---9---9---9---9---9---9---|-9---9---9---9---9---9---9---9---|---------------------------------|
E|-5------|-7---7---7---7---7---7---7---7---|-7---7---7---7---7---7---7---7---|---------------------------------|


E|---------------------------------|---------------------------------|---------------------------------|
B|---------------------------------|---------------------------------|---------------------------------|
G|---------13--14--14--14--13--13--|---------13--13--14--14--13--13--|---------13--14--14--14--13--13--|
D|-11--11--11--11--11--11--11--11--|-11--11--11--11--11--11--11--11--|-11--11--11--11--11--11--11--11--|
A|---------------------------------|---------------------------------|---------------------------------|
E|---------------------------------|---------------------------------|---------------------------------|


E|---------------------------------|---------------------------------|---------------------------------|
B|---------------------------------|---------------------------------|---------------------------------|
G|---------13--13--14--14--13--13--|---------13--14--14--14--13--13--|---------13--13--14--14--13--13--|
D|-11--11--11--11--11--11--11--11--|-11--11--11--11--11--11--11--11--|-11--11--11--11--11--11--11--11--|
A|---------------------------------|---------------------------------|---------------------------------|
E|---------------------------------|---------------------------------|---------------------------------|


E|---------------------------------|--------|--------|--------|--------|--------|--------|
B|---------------------------------|--------|--------|--------|--------|--------|--------|
G|---------13--14--14--14--13--13--|-6------|-6------|--------|--------|-6------|-6------|
D|-11--11--11--11--11--11--11--11--|-6------|-6------|-7------|-4------|-6------|-6------|
A|---------------------------------|-4------|-4------|-7------|-4------|-4------|-4------|
E|---------------------------------|--------|--------|-5------|-2------|--------|--------|


E|--------|--------|---------------------------------|---------------------------------|
B|--------|--------|---------------------------------|---------------------------------|
G|--------|--------|-6---6---6---6---6---6---6---6---|-6---6---6---6---6---6---6---6---|
D|-7------|-4------|-6---6---6---6---6---6---6---6---|-6---6---6---6---6---6---6---6---|
A|-7------|-4------|-4---4---4---4---4---4---4---4---|-4---4---4---4---4---4---4---4---|
E|-5------|-2------|---------------------------------|---------------------------------|


E|---------------------------------|---------------------------------|---------------------------|
B|---------------------------------|---------------------------------|---------------------------|
G|---------------------------------|---------------------------------|---------------------------|
D|-7---7---7---7---7---7---7---7---|-4---4---4---4---4---4---4---4---|------7---9--------6---7---|
A|-7---7---7---7---7---7---7---7---|-4---4---4---4---4---4---4---4---|---------------------------|
E|-5---5---5---5---5---5---5---5---|-2---2---2---2---2---2---2---2---|---------------------------|


E|---------------------------|---------------------------------|---------------------------------|
B|---------------------------|---------------------------------|---------------------------------|
G|---------------------------|---------------------------------|---------------------------------|
D|------4---6--------2---2---|-2---2---2---2---2---2---2---2---|-2---2---2---2---2---2---2---2---|
A|---------------------------|---------------------------------|---------------------------------|
E|---------------------------|---------------------------------|---------------------------------|


E|---------------------------------|---------------------------------|---------------------------------|
B|---------------------------------|---------------------------------|---------------------------------|
G|-9---9---9---9---9---9---9---9---|-9---9---9---9---9---9---9---9---|---------------------------------|
D|-9---9---9---9---9---9---9---9---|-9---9---9---9---9---9---9---9---|-7---7---7---7---7---7---7---7---|
A|-7---7---7---7---7---7---7---7---|-7---7---7---7---7---7---7---7---|-7---7---7---7---7---7---7---7---|
E|---------------------------------|---------------------------------|-5---5---5---5---5---5---5---5---|


E|---------------------------------|---------------------------------|---------------------------------|
B|---------------------------------|---------------------------------|---------------------------------|
G|---------------------------------|-9---9---9---9---9---9---9---9---|-9---9---9---9---9---9---9---9---|
D|-9---9---9---9---9---9---9---9---|-9---9---9---9---9---9---9---9---|-9---9---9---9---9---9---9---9---|
A|-9---9---9---9---9---9---9---9---|-7---7---7---7---7---7---7---7---|-7---7---7---7---7---7---7---7---|
E|-7---7---7---7---7---7---7---7---|---------------------------------|---------------------------------|


E|---------------------------------|---------------------------------|---------------------------------|
B|---------------------------------|---------------------------------|---------------------------------|
G|---------------------------------|---------------------------------|-9---9---9---9---9---9---9---9---|
D|-7---7---7---7---7---7---7---7---|-9---9---9---9---9---9---9---9---|-9---9---9---9---9---9---9---9---|
A|-7---7---7---7---7---7---7---7---|-9---9---9---9---9---9---9---9---|-7---7---7---7---7---7---7---7---|
E|-5---5---5---5---5---5---5---5---|-7---7---7---7---7---7---7---7---|---------------------------------|


E|---------------------------------|---------------------------------|---------------------------------|
B|---------------------------------|---------------------------------|---------------------------------|
G|-9---9---9---9---9---9---9---9---|---------------------------------|---------------------------------|
D|-9---9---9---9---9---9---9---9---|-7---7---7---7---7---7---7---7---|-9---9---9---9---9---9---9---9---|
A|-7---7---7---7---7---7---7---7---|-7---7---7---7---7---7---7---7---|-9---9---9---9---9---9---9---9---|
E|---------------------------------|-5---5---5---5---5---5---5---5---|-7---7---7---7---7---7---7---7---|


E|--------|--------|--------|---------------------------------|---------------------------------|
B|--------|--------|--------|---------------------------------|---------------------------------|
G|--------|--------|--------|---------------------------------|---------------------------------|
D|-7------|-9------|-7------|-9---9---9---9---9---9---9---9---|-9---9---9---9---9---9---9---9---|
A|-7------|-9------|-7------|-9---9---9---9---9---9---9---9---|-9---9---9---9---9---9---9---9---|
E|-5------|-7------|-5------|-7---7---7---7---7---7---7---7---|-7---7---7---7---7---7---7---7---|


E|--------|--------|--------|--------|--------|--------|--------|--------|--------|
B|--------|--------|--------|--------|--------|--------|--------|--------|--------|
G|--------|--------|--------|--------|--------|--------|--------|--------|--------|
D|--------|--------|--------|--------|--------|--------|--------|--------|--------|
A|--------|--------|--------|--------|--------|--------|--------|--------|--------|
E|--------|--------|--------|--------|--------|--------|--------|--------|--------|


E|--------|--------|--------|---------------------------------|---------------------------------|
B|--------|--------|--------|---------------------------------|---------------------------------|
G|--------|--------|--------|-6---6---6---6---6---6---6---6---|-6---6---6---6---6---6---6---6---|
D|--------|--------|--------|-6---6---6---6---6---6---6---6---|-6---6---6---6---6---6---6---6---|
A|--------|--------|--------|-4---4---4---4---4---4---4---4---|-4---4---4---4---4---4---4---4---|
E|--------|--------|--------|---------------------------------|---------------------------------|


E|---------------------------------|---------------------------------|---------------------------------|
B|---------------------------------|---------------------------------|---------------------------------|
G|---------------------------------|---------------------------------|-9---9---9---9---9---9---9---9---|
D|-7---7---7---7---7---7---7---7---|-9---9---9---9---9---9---9---9---|-9---9---9---9---9---9---9---9---|
A|-7---7---7---7---7---7---7---7---|-9---9---9---9---9---9---9---9---|-7---7---7---7---7---7---7---7---|
E|-5---5---5---5---5---5---5---5---|-7---7---7---7---7---7---7---7---|---------------------------------|


E|---------------------------------|---------------------------------|---------------------------------|
B|---------------------------------|---------------------------------|---------------------------------|
G|-9---9---9---9---9---9---9---9---|---------------------------------|---------------------------------|
D|-9---9---9---9---9---9---9---9---|-7---7---7---7---7---7---7---7---|-9---9---9---9---9---9---9---9---|
A|-7---7---7---7---7---7---7---7---|-7---7---7---7---7---7---7---7---|-9---9---9---9---9---9---9---9---|
E|---------------------------------|-5---5---5---5---5---5---5---5---|-7---7---7---7---7---7---7---7---|


E|---------------------------------|---------------------------------|---------------------------------|
B|---------------------------------|---------------------------------|---------------------------------|
G|-9---9---9---9---9---9---9---9---|-9---9---9---9---9---9---9---9---|---------------------------------|
D|-9---9---9---9---9---9---9---9---|-9---9---9---9---9---9---9---9---|-7---7---7---7---7---7---7---7---|
A|-7---7---7---7---7---7---7---7---|-7---7---7---7---7---7---7---7---|-7---7---7---7---7---7---7---7---|
E|---------------------------------|---------------------------------|-5---5---5---5---5---5---5---5---|


E|---------------------------------|---------------------------------|---------------------------------|
B|---------------------------------|---------------------------------|---------------------------------|
G|---------------------------------|-9---9---9---9---9---9---9---9---|-9---9---9---9---9---9---9---9---|
D|-9---9---9---9---9---9---9---9---|-9---9---9---9---9---9---9---9---|-9---9---9---9---9---9---9---9---|
A|-9---9---9---9---9---9---9---9---|-7---7---7---7---7---7---7---7---|-7---7---7---7---7---7---7---7---|
E|-7---7---7---7---7---7---7---7---|---------------------------------|---------------------------------|


E|---------------------------------|---------------------------------|---------------------------------|
B|---------------------------------|---------------------------------|---------------------------------|
G|---------------------------------|---------------------------------|---------------------------------|
D|-7---7---7---7---7---7---7---7---|-9---9---9---9---9---9---9---9---|-7---7---7---7---7---7---7---7---|
A|-7---7---7---7---7---7---7---7---|-9---9---9---9---9---9---9---9---|-7---7---7---7---7---7---7---7---|
E|-5---5---5---5---5---5---5---5---|-7---7---7---7---7---7---7---7---|-5---5---5---5---5---5---5---5---|


E|---------------------------------|---------------------------------|---------------------------------|
B|---------------------------------|---------------------------------|---------------------------------|
G|---------------------------------|---------------------------------|---------------------------------|
D|-9---9---9---9---9---9---9---9---|-7---7---7---7---7---7---7---7---|-9---9---9---9---9---9---9---9---|
A|-9---9---9---9---9---9---9---9---|-7---7---7---7---7---7---7---7---|-9---9---9---9---9---9---9---9---|
E|-7---7---7---7---7---7---7---7---|-5---5---5---5---5---5---5---5---|-7---7---7---7---7---7---7---7---|


E|---------------------------------|---------------------------------|---------------------------------|
B|---------------------------------|---------------------------------|---------------------------------|
G|---------------------------------|-9---9---9---9---9---9---9---9---|-9---9---9---9---9---9---9---9---|
D|-9---9---9---9---9---9---9---9---|-9---9---9---9---9---9---9---9---|-9---9---9---9---9---9---9---9---|
A|-9---9---9---9---9---9---9---9---|-7---7---7---7---7---7---7---7---|-7---7---7---7---7---7---7---7---|
E|-7---7---7---7---7---7---7---7---|---------------------------------|---------------------------------|


E|---------------------------------|---------------------------------|---------------------------------|
B|---------------------------------|---------------------------------|---------------------------------|
G|---------------------------------|---------------------------------|-9---9---9---9---9---9---9---9---|
D|-7---7---7---7---7---7---7---7---|-9---9---9---9---9---9---9---9---|-9---9---9---9---9---9---9---9---|
A|-7---7---7---7---7---7---7---7---|-9---9---9---9---9---9---9---9---|-7---7---7---7---7---7---7---7---|
E|-5---5---5---5---5---5---5---5---|-7---7---7---7---7---7---7---7---|---------------------------------|


E|---------------------------------|---------------------------------|---------------------------------|
B|---------------------------------|---------------------------------|---------------------------------|
G|-9---9---9---9---9---9---9---9---|---------------------------------|---------------------------------|
D|-9---9---9---9---9---9---9---9---|-7---7---7---7---7---7---7---7---|-9---9---9---9---9---9---9---9---|
A|-7---7---7---7---7---7---7---7---|-7---7---7---7---7---7---7---7---|-9---9---9---9---9---9---9---9---|
E|---------------------------------|-5---5---5---5---5---5---5---5---|-7---7---7---7---7---7---7---7---|


E|-0------|-0------|-0------|-0------|
B|-0------|-0------|-0------|-0------|
G|-1------|-1------|-1------|-1------|
D|-2------|-2------|-2------|-2------|
A|-2------|-2------|-2------|-2------|
E|-0------|-0------|-0------|-0------|





Track 2: Guitar 2

E|--------|--------|---------------------------------|---------------------------------|
B|--------|--------|---------------------------------|---------------------------------|
G|--------|--------|-6---6---6---6---6---6---6---6---|-6---6---6---6---6---6---6---6---|
D|--------|--------|-6---6---6---6---6---6---6---6---|-6---6---6---6---6---6---6---6---|
A|--------|--------|-4---4---4---4---4---4---4---4---|-4---4---4---4---4---4---4---4---|
E|--------|--------|---------------------------------|---------------------------------|


E|---------------------------------|---------------------------------|---------------------------------|
B|---------------------------------|---------------------------------|---------------------------------|
G|---------------------------------|---------------------------------|-6---6---6---6---6---6---6---6---|
D|-7---7---7---7---7---7---7---7---|-4---4---4---4---4---4---4---4---|-6---6---6---6---6---6---6---6---|
A|-7---7---7---7---7---7---7---7---|-4---4---4---4---4---4---4---4---|-4---4---4---4---4---4---4---4---|
E|-5---5---5---5---5---5---5---5---|-2---2---2---2---2---2---2---2---|---------------------------------|


E|---------------------------------|---------------------------------|---------------------------------|
B|---------------------------------|---------------------------------|---------------------------------|
G|-6---6---6---6---6---6---6---6---|---------------------------------|---------------------------------|
D|-6---6---6---6---6---6---6---6---|-7---7---7---7---7---7---7---7---|-4---4---4---4---4---4---4---4---|
A|-4---4---4---4---4---4---4---4---|-7---7---7---7---7---7---7---7---|-4---4---4---4---4---4---4---4---|
E|---------------------------------|-5---5---5---5---5---5---5---5---|-2---2---2---2---2---2---2---2---|


E|--------|--------|--------|--------|--------|--------|--------|--------|--------|
B|--------|--------|--------|--------|--------|--------|--------|--------|--------|
G|--------|--------|--------|--------|--------|--------|--------|--------|--------|
D|--------|--------|--------|--------|--------|--------|--------|--------|--------|
A|--------|--------|--------|--------|--------|--------|--------|--------|--------|
E|--------|--------|--------|--------|--------|--------|--------|--------|--------|


E|--------|--------|--------|--------|--------|--------|--------|---------------------------------|
B|--------|--------|--------|--------|--------|--------|--------|---------------------------------|
G|--------|--------|--------|--------|--------|--------|--------|-6---6---6---6---6---6---6---6---|
D|--------|--------|--------|--------|--------|--------|--------|-6---6---6---6---6---6---6---6---|
A|--------|--------|--------|--------|--------|--------|--------|-4---4---4---4---4---4---4---4---|
E|--------|--------|--------|--------|--------|--------|--------|---------------------------------|


E|---------------------------------|---------------------------------|---------------------------------|
B|---------------------------------|---------------------------------|---------------------------------|
G|-6---6---6---6---6---6---6---6---|---------------------------------|---------------------------------|
D|-6---6---6---6---6---6---6---6---|-7---7---7---7---7---7---7---7---|-4---4---4---4---4---4---4---4---|
A|-4---4---4---4---4---4---4---4---|-7---7---7---7---7---7---7---7---|-4---4---4---4---4---4---4---4---|
E|---------------------------------|-5---5---5---5---5---5---5---5---|-2---2---2---2---2---2---2---2---|


E|---------------------------------|---------------------------------|---------------------------------|
B|---------------------------------|---------------------------------|---------------------------------|
G|-6---6---6---6---6---6---6---6---|-6---6---6---6---6---6---6---6---|---------------------------------|
D|-6---6---6---6---6---6---6---6---|-6---6---6---6---6---6---6---6---|-7---7---7---7---7---7---7---7---|
A|-4---4---4---4---4---4---4---4---|-4---4---4---4---4---4---4---4---|-7---7---7---7---7---7---7---7---|
E|---------------------------------|---------------------------------|-5---5---5---5---5---5---5---5---|


E|---------------------------------|--------|--------|--------|--------|--------|--------|
B|---------------------------------|--------|--------|--------|--------|--------|--------|
G|---------------------------------|--------|--------|--------|--------|--------|--------|
D|-4---4---4---4---4---4---4---4---|--------|--------|--------|--------|--------|--------|
A|-4---4---4---4---4---4---4---4---|--------|--------|--------|--------|--------|--------|
E|-2---2---2---2---2---2---2---2---|--------|--------|--------|--------|--------|--------|


E|--------|--------|--------|--------|--------|--------|---------------------------------|
B|--------|--------|--------|--------|--------|--------|---------------------------------|
G|--------|--------|--------|--------|--------|--------|-6---6---6---6---6---6---6---6---|
D|--------|--------|--------|--------|--------|--------|-6---6---6---6---6---6---6---6---|
A|--------|--------|--------|--------|--------|--------|-4---4---4---4---4---4---4---4---|
E|--------|--------|--------|--------|--------|--------|---------------------------------|


E|---------------------------------|---------------------------------|---------------------|
B|---------------------------------|---------------------------------|---------------------|
G|-6---6---6---6---6---6---6---6---|---------------------------------|---------------------|
D|-6---6---6---6---6---6---6---6---|-7---7---7---7---7---7---7---7---|-4----4----4----4----|
A|-4---4---4---4---4---4---4---4---|-7---7---7---7---7---7---7---7---|-4----4----4----4----|
E|---------------------------------|-5---5---5---5---5---5---5---5---|-2----2----2----2----|


E|--------|--------|--------|--------|--------|--------|--------|--------|--------|
B|--------|--------|--------|--------|--------|--------|--------|--------|--------|
G|--------|--------|--------|--------|--------|--------|--------|--------|--------|
D|--------|--------|--------|--------|--------|--------|--------|--------|--------|
A|--------|--------|--------|--------|--------|--------|--------|--------|--------|
E|--------|--------|--------|--------|--------|--------|--------|--------|--------|


E|--------|--------|--------|--------|--------|--------|--------|--------|---------------------------------|
B|--------|--------|--------|--------|--------|--------|--------|--------|---------------------------------|
G|--------|--------|--------|--------|--------|--------|--------|--------|-6---6---6---6---6---6---6---6---|
D|--------|--------|--------|--------|--------|--------|--------|--------|-6---6---6---6---6---6---6---6---|
A|--------|--------|--------|--------|--------|--------|--------|--------|-4---4---4---4---4---4---4---4---|
E|--------|--------|--------|--------|--------|--------|--------|--------|---------------------------------|


E|---------------------------------|---------------------------------|---------------------------------|
B|---------------------------------|---------------------------------|---------------------------------|
G|-6---6---6---6---6---6---6---6---|---------------------------------|---------------------------------|
D|-6---6---6---6---6---6---6---6---|-7---7---7---7---7---7---7---7---|-4---4---4---4---4---4---4---4---|
A|-4---4---4---4---4---4---4---4---|-7---7---7---7---7---7---7---7---|-4---4---4---4---4---4---4---4---|
E|---------------------------------|-5---5---5---5---5---5---5---5---|-2---2---2---2---2---2---2---2---|


E|---------------------------------|---------------------------------|---------------------------------|
B|---------------------------------|---------------------------------|---------------------------------|
G|-6---6---6---6---6---6---6---6---|-6---6---6---6---6---6---6---6---|---------------------------------|
D|-6---6---6---6---6---6---6---6---|-6---6---6---6---6---6---6---6---|-7---7---7---7---7---7---7---7---|
A|-4---4---4---4---4---4---4---4---|-4---4---4---4---4---4---4---4---|-7---7---7---7---7---7---7---7---|
E|---------------------------------|---------------------------------|-5---5---5---5---5---5---5---5---|


E|---------------------------------|--------|--------|--------|--------|--------|--------|
B|---------------------------------|--------|--------|--------|--------|--------|--------|
G|---------------------------------|--------|--------|--------|--------|--------|--------|
D|-4---4---4---4---4---4---4---4---|--------|--------|--------|--------|--------|--------|
A|-4---4---4---4---4---4---4---4---|--------|--------|--------|--------|--------|--------|
E|-2---2---2---2---2---2---2---2---|--------|--------|--------|--------|--------|--------|


E|--------|--------|--------|--------|--------|--------|---------------------------------|
B|--------|--------|--------|--------|--------|--------|---------------------------------|
G|--------|--------|--------|--------|--------|--------|-6---6---6---6---6---6---6---6---|
D|--------|--------|--------|--------|--------|--------|-6---6---6---6---6---6---6---6---|
A|--------|--------|--------|--------|--------|--------|-4---4---4---4---4---4---4---4---|
E|--------|--------|--------|--------|--------|--------|---------------------------------|


E|---------------------------------|---------------------------------|---------------------------------|
B|---------------------------------|---------------------------------|---------------------------------|
G|-6---6---6---6---6---6---6---6---|---------------------------------|---------------------------------|
D|-6---6---6---6---6---6---6---6---|-7---7---7---7---7---7---7---7---|-4---4---4---4---4---4---4---4---|
A|-4---4---4---4---4---4---4---4---|-7---7---7---7---7---7---7---7---|-4---4---4---4---4---4---4---4---|
E|---------------------------------|-5---5---5---5---5---5---5---5---|-2---2---2---2---2---2---2---2---|


E|--------|--------|--------|--------|--------|--------|--------|--------|--------|
B|--------|--------|--------|--------|--------|--------|--------|--------|--------|
G|--------|--------|--------|--------|--------|--------|--------|--------|--------|
D|--------|--------|--------|--------|--------|--------|--------|--------|--------|
A|--------|--------|--------|--------|--------|--------|--------|--------|--------|
E|--------|--------|--------|--------|--------|--------|--------|--------|--------|


E|--------|--------|--------|--------|--------|--------|--------|--------|---------------------------------|
B|--------|--------|--------|--------|--------|--------|--------|--------|---------------------------------|
G|--------|--------|--------|--------|--------|--------|--------|--------|-6---6---6---6---6---6---6---6---|
D|--------|--------|--------|--------|--------|--------|--------|--------|-6---6---6---6---6---6---6---6---|
A|--------|--------|--------|--------|--------|--------|--------|--------|-4---4---4---4---4---4---4---4---|
E|--------|--------|--------|--------|--------|--------|--------|--------|---------------------------------|


E|---------------------------------|---------------------------------|---------------------------------|
B|---------------------------------|---------------------------------|---------------------------------|
G|-6---6---6---6---6---6---6---6---|---------------------------------|---------------------------------|
D|-6---6---6---6---6---6---6---6---|-6---6---6---6---6---6---6---6---|-7---7---7---7---7---7---7---7---|
A|-4---4---4---4---4---4---4---4---|-7---7---7---7---7---7---7---7---|-7---7---7---7---7---7---7---7---|
E|---------------------------------|-4---4---4---4---4---4---4---4---|-5---5---5---5---5---5---5---5---|


E|---------------------------------|---------------------------------|---------------------------------|
B|---------------------------------|---------------------------------|---------------------------------|
G|-6---6---6---6---6---6---6---6---|-6---6---6---6---6---6---6---6---|---------------------------------|
D|-6---6---6---6---6---6---6---6---|-6---6---6---6---6---6---6---6---|-6---6---6---6---6---6---6---6---|
A|-4---4---4---4---4---4---4---4---|-4---4---4---4---4---4---4---4---|-7---7---7---7---7---7---7---7---|
E|---------------------------------|---------------------------------|-4---4---4---4---4---4---4---4---|


E|---------------------------------|---------------------------------|---------------------------------|
B|---------------------------------|---------------------------------|---------------------------------|
G|---------------------------------|-6---6---6---6---6---6---6---6---|-6---6---6---6---6---6---6---6---|
D|-7---7---7---7---7---7---7---7---|-6---6---6---6---6---6---6---6---|-6---6---6---6---6---6---6---6---|
A|-7---7---7---7---7---7---7---7---|-4---4---4---4---4---4---4---4---|-4---4---4---4---4---4---4---4---|
E|-5---5---5---5---5---5---5---5---|---------------------------------|---------------------------------|


E|---------------------------------|---------------------------------|--------|--------|
B|---------------------------------|---------------------------------|--------|--------|
G|---------------------------------|---------------------------------|--------|--------|
D|-6---6---6---6---6---6---6---6---|-7---7---7---7---7---7---7---7---|--------|--------|
A|-7---7---7---7---7---7---7---7---|-7---7---7---7---7---7---7---7---|--------|--------|
E|-4---4---4---4---4---4---4---4---|-5---5---5---5---5---5---5---5---|--------|--------|


E|--------|--------|--------|--------|--------|--------|--------|--------|--------|
B|--------|--------|--------|--------|--------|--------|--------|--------|--------|
G|--------|--------|--------|--------|--------|--------|--------|--------|--------|
D|--------|--------|--------|--------|--------|--------|--------|--------|--------|
A|--------|--------|--------|--------|--------|--------|--------|--------|--------|
E|--------|--------|--------|--------|--------|--------|--------|--------|--------|


E|--------|--------|--------|--------|--------|--------|--------|--------|--------|
B|--------|--------|--------|--------|--------|--------|--------|--------|--------|
G|--------|--------|--------|--------|--------|--------|--------|--------|--------|
D|--------|--------|--------|--------|--------|--------|--------|--------|--------|
A|--------|--------|--------|--------|--------|--------|--------|--------|--------|
E|--------|--------|--------|--------|--------|--------|--------|--------|--------|


E|--------|--------|--------|--------|--------|--------|--------|--------|--------|
B|--------|--------|--------|--------|--------|--------|--------|--------|--------|
G|--------|--------|--------|--------|--------|--------|--------|--------|--------|
D|--------|--------|--------|--------|--------|--------|--------|--------|--------|
A|--------|--------|--------|--------|--------|--------|--------|--------|--------|
E|--------|--------|--------|--------|--------|--------|--------|--------|--------|


E|--------|--------|--------|--------|
B|--------|--------|--------|--------|
G|--------|--------|--------|--------|
D|--------|--------|--------|--------|
A|--------|--------|--------|--------|
E|--------|--------|--------|--------|





Track 3: Guitar 3

E|--------|--------|--------|--------|--------|--------|--------|--------|--------|
B|--------|--------|--------|--------|--------|--------|--------|--------|--------|
G|--------|--------|--------|--------|--------|--------|--------|--------|--------|
D|--------|--------|--------|--------|--------|--------|--------|--------|--------|
A|--------|--------|--------|--------|--------|--------|--------|--------|--------|
E|--------|--------|--------|--------|--------|--------|--------|--------|--------|


E|--------|--------|--------|--------|--------|--------|--------|--------|--------|
B|--------|--------|--------|--------|--------|--------|--------|--------|--------|
G|--------|--------|--------|--------|--------|--------|--------|--------|--------|
D|--------|--------|--------|--------|--------|--------|--------|--------|--------|
A|--------|--------|--------|--------|--------|--------|--------|--------|--------|
E|--------|--------|--------|--------|--------|--------|--------|--------|--------|


E|--------|--------|--------|--------|--------|--------|--------|--------|--------|
B|--------|--------|--------|--------|--------|--------|--------|--------|--------|
G|--------|--------|--------|--------|--------|--------|--------|--------|--------|
D|--------|--------|--------|--------|--------|--------|--------|--------|--------|
A|--------|--------|--------|--------|--------|--------|--------|--------|--------|
E|--------|--------|--------|--------|--------|--------|--------|--------|--------|


E|--------|--------|--------|--------|--------|--------|--------|--------|--------|
B|--------|--------|--------|--------|--------|--------|--------|--------|--------|
G|--------|--------|--------|--------|--------|--------|--------|--------|--------|
D|--------|--------|--------|--------|--------|--------|--------|--------|--------|
A|--------|--------|--------|--------|--------|--------|--------|--------|--------|
E|--------|--------|--------|--------|--------|--------|--------|--------|--------|


E|--------|--------|--------|--------|--------|--------|--------|--------|--------|
B|--------|--------|--------|--------|--------|--------|--------|--------|--------|
G|--------|--------|--------|--------|--------|--------|--------|--------|--------|
D|--------|--------|--------|--------|--------|--------|--------|--------|--------|
A|--------|--------|--------|--------|--------|--------|--------|--------|--------|
E|--------|--------|--------|--------|--------|--------|--------|--------|--------|


E|--------|--------|--------|--------|--------|--------|--------|--------|--------|
B|--------|--------|--------|--------|--------|--------|--------|--------|--------|
G|--------|--------|--------|--------|--------|--------|--------|--------|--------|
D|--------|--------|--------|--------|--------|--------|--------|--------|--------|
A|--------|--------|--------|--------|--------|--------|--------|--------|--------|
E|--------|--------|--------|--------|--------|--------|--------|--------|--------|


E|--------|--------|--------|--------|--------|--------|--------|--------|--------|
B|--------|--------|--------|--------|--------|--------|--------|--------|--------|
G|--------|--------|--------|--------|--------|--------|--------|--------|--------|
D|--------|--------|--------|--------|--------|--------|--------|--------|--------|
A|--------|--------|--------|--------|--------|--------|--------|--------|--------|
E|--------|--------|--------|--------|--------|--------|--------|--------|--------|


E|--------|--------|--------|--------|--------|--------|--------|--------|--------|
B|--------|--------|--------|--------|--------|--------|--------|--------|--------|
G|--------|--------|--------|--------|--------|--------|--------|--------|--------|
D|--------|--------|--------|--------|--------|--------|--------|--------|--------|
A|--------|--------|--------|--------|--------|--------|--------|--------|--------|
E|--------|--------|--------|--------|--------|--------|--------|--------|--------|


E|--------|--------|--------|--------|--------|--------|--------|--------|--------|
B|--------|--------|--------|--------|--------|--------|--------|--------|--------|
G|--------|--------|--------|--------|--------|--------|--------|--------|--------|
D|--------|--------|--------|--------|--------|--------|--------|--------|--------|
A|--------|--------|--------|--------|--------|--------|--------|--------|--------|
E|--------|--------|--------|--------|--------|--------|--------|--------|--------|


E|--------|--------|--------|--------|--------|--------|--------|--------|--------|
B|--------|--------|--------|--------|--------|--------|--------|--------|--------|
G|--------|--------|--------|--------|--------|--------|--------|--------|--------|
D|--------|--------|--------|--------|--------|--------|--------|--------|--------|
A|--------|--------|--------|--------|--------|--------|--------|--------|--------|
E|--------|--------|--------|--------|--------|--------|--------|--------|--------|


E|--------|--------|--------|--------|--------|--------|--------|--------|--------|
B|--------|--------|--------|--------|--------|--------|--------|--------|--------|
G|--------|--------|--------|--------|--------|--------|--------|--------|--------|
D|--------|--------|--------|--------|--------|--------|--------|--------|--------|
A|--------|--------|--------|--------|--------|--------|--------|--------|--------|
E|--------|--------|--------|--------|--------|--------|--------|--------|--------|


E|--------|--------|--------|--------|--------|--------|--------|--------|--------|
B|--------|--------|--------|--------|--------|--------|--------|--------|--------|
G|--------|--------|--------|--------|--------|--------|--------|--------|--------|
D|--------|--------|--------|--------|--------|--------|--------|--------|--------|
A|--------|--------|--------|--------|--------|--------|--------|--------|--------|
E|--------|--------|--------|--------|--------|--------|--------|--------|--------|


E|-4------|-4------|--------|--------|-4------|-4------|--------|--------|-4------|
B|-5------|-5------|--------|--------|-5------|-5------|--------|--------|-5------|
G|-6------|-6------|--------|--------|-6------|-6------|--------|--------|-6------|
D|-6------|-6------|--------|--------|-6------|-6------|--------|--------|-6------|
A|-4------|-4------|--------|--------|-4------|-4------|--------|--------|-4------|
E|--------|--------|--------|--------|--------|--------|--------|--------|--------|


E|-4------|--------|--------|--------|--------|--------|--------|--------|--------|
B|-5------|--------|--------|--------|--------|--------|--------|--------|--------|
G|-6------|--------|--------|--------|--------|--------|--------|--------|--------|
D|-6------|--------|--------|--------|--------|--------|--------|--------|--------|
A|-4------|--------|--------|--------|--------|--------|--------|--------|--------|
E|--------|--------|--------|--------|--------|--------|--------|--------|--------|


E|--------|--------|--------|--------|--------|--------|--------|--------|--------|
B|--------|--------|--------|--------|--------|--------|--------|--------|--------|
G|--------|--------|--------|--------|--------|--------|--------|--------|--------|
D|--------|--------|--------|--------|--------|--------|--------|--------|--------|
A|--------|--------|--------|--------|--------|--------|--------|--------|--------|
E|--------|--------|--------|--------|--------|--------|--------|--------|--------|


E|--------|--------|--------|--------|--------|--------|--------|--------|--------|
B|--------|--------|--------|--------|--------|--------|--------|--------|--------|
G|--------|--------|--------|--------|--------|--------|--------|--------|--------|
D|--------|--------|--------|--------|--------|--------|--------|--------|--------|
A|--------|--------|--------|--------|--------|--------|--------|--------|--------|
E|--------|--------|--------|--------|--------|--------|--------|--------|--------|


E|--------|--------|--------|--------|--------|--------|--------|--------|--------|
B|--------|--------|--------|--------|--------|--------|--------|--------|--------|
G|--------|--------|--------|--------|--------|--------|--------|--------|--------|
D|--------|--------|--------|--------|--------|--------|--------|--------|--------|
A|--------|--------|--------|--------|--------|--------|--------|--------|--------|
E|--------|--------|--------|--------|--------|--------|--------|--------|--------|