Site menu:

    

Browse: 0-9 A B C D E F G H I J K L N O P Q R S T U V W X Y Z

alice in chains - them bones:



Title: Them Bones
Artist: 
Album: Dirt
Author: Jerry Cantrell


Track 1: Jerry Cantrell - Rhythm (Doubled)

D#|---------------------------------------------|-----------------------------------------------|
A#|-6---------------------------------------6---|-------------------------------------18--------|
F#|-5---------------------------------------5---|-------------------------------------17--------|
C#|-0---0--0--1--1--1--1--2--2--2--3--0--0--0---|-0--0--1--1--1--1--2--2--2--3--0--0--0---0--0--|
G#|-0---0--0--1--1--1--1--2--2--2--3--0--0--0---|-0--0--1--1--1--1--2--2--2--3--0--0--0---0--0--|
C#|-0---0--0--1--1--1--1--2--2--2--3--0--0--0---|-0--0--1--1--1--1--2--2--2--3--0--0--0---0--0--|


D#|-----------------------------------------------|------------------------------------|
A#|-------------------------------6---------------|-----------------------3------------|
F#|-------------------------------5---------------|-----------------------2------------|
C#|-1--1--1--1--2--2--2--3--0--0--0---0--0--1--1--|-1--1--2--2--2--3------0---0---1----|
G#|-1--1--1--1--2--2--2--3--0--0--0---0--0--1--1--|-1--1--2--2--2--3------0---0---1----|
C#|-1--1--1--1--2--2--2--3--0--0--0---0--0--1--1--|-1--1--2--2--2--3------0---0---1----|


D#|------------------------------|--------------------------------|------------------------------|
A#|-------------3----------------|-----------3--------------------|-----3------------------------|
F#|-------------2----------------|-----------2--------------------|-----2------------------------|
C#|-2----3--3---0---0---1----2---|----3--3---0---0---1----2----3--|-3---0---0---1----2----3--3---|
G#|-2----3--3---0---0---1----2---|----3--3---0---0---1----2----3--|-3---0---0---1----2----3--3---|
C#|-2----3--3---0---0---1----2---|----3--3---0---0---1----2----3--|-3---0---0---1----2----3--3---|


D#|------------------------------|------------------------------|------------------------------|
A#|-3------------------------3---|----------------------3-------|------------------3-----------|
F#|-2------------------------2---|----------------------2-------|------------------2-----------|
C#|-0---0---1----2----3--3---0---|-0---1----2----3--3---0---0---|-1----2----3--3---0---0---1---|
G#|-0---0---1----2----3--3---0---|-0---1----2----3--3---0---0---|-1----2----3--3---0---0---1---|
C#|-0---0---1----2----3--3---0---|-0---1----2----3--3---0---0---|-1----2----3--3---0---0---1---|


D#|---------------------------------------|-------------------------------------------|
A#|---------------------------------------|-------------------10----------------------|
F#|---------------------------------------|-------------------9-----------------------|
C#|-----2----3--3--0--8---8---8--8--8--7--|-7--7--7--7--9--11-----10--10--10-10-10-9--|
G#|-----2----3--3--0--8---8---8--8--8--7--|-7--7--7--7------------10--10--10-10-10-9--|
C#|-----2----3--3--0--8---8---8--8--8--7--|-7--7--7--7------------10--10--10-10-10-9--|


D#|-----------------------------------------------|-----------------------------------------------|
A#|-------------------------6---------------------|-------------------6---------------------------|
F#|-------------------------5---------------------|-------------------5---------------------------|
C#|-9--9--9--9--9--8--8--0--0---0--0--1--1--1--1--|-2--2--2--3--0--0--0---0--0--1--1--1--1--2--2--|
G#|-9--9--9--9--9--8--8--0--0---0--0--1--1--1--1--|-2--2--2--3--0--0--0---0--0--1--1--1--1--2--2--|
C#|-9--9--9--9--9--8--8--0--0---0--0--1--1--1--1--|-2--2--2--3--0--0--0---0--0--1--1--1--1--2--2--|


D#|-----------------------------------------------|---------------------------------------------|
A#|-------------18--------------------------------|-------6-------------------------------------|
F#|-------------17--------------------------------|-------5-------------------------------------|
C#|-2--3--0--0--0---0--0--1--1--1--1--2--2--2--3--|-0--0--0---0--0--1--1--1--1--2--2--2--3------|
G#|-2--3--0--0--0---0--0--1--1--1--1--2--2--2--3--|-0--0--0---0--0--1--1--1--1--2--2--2--3------|
C#|-2--3--0--0--0---0--0--1--1--1--1--2--2--2--3--|-0--0--0---0--0--1--1--1--1--2--2--2--3------|


D#|------------------------------|------------------------------|------------------------------|
A#|-3------------------------3---|----------------------3-------|------------------3-----------|
F#|-2------------------------2---|----------------------2-------|------------------2-----------|
C#|-0---0---1----2----3--3---0---|-0---1----2----3--3---0---0---|-1----2----3--3---0---0---1---|
G#|-0---0---1----2----3--3---0---|-0---1----2----3--3---0---0---|-1----2----3--3---0---0---1---|
C#|-0---0---1----2----3--3---0---|-0---1----2----3--3---0---0---|-1----2----3--3---0---0---1---|


D#|------------------------------|------------------------------|--------------------------------|
A#|-----------------3------------|-------------3----------------|-----------3--------------------|
F#|-----------------2------------|-------------2----------------|-----------2--------------------|
C#|-----2----3--3---0---0---1----|-2----3--3---0---0---1----2---|----3--3---0---0---1----2----3--|
G#|-----2----3--3---0---0---1----|-2----3--3---0---0---1----2---|----3--3---0---0---1----2----3--|
C#|-----2----3--3---0---0---1----|-2----3--3---0---0---1----2---|----3--3---0---0---1----2----3--|


D#|--------------------------------|-------------------------------------------|---------------------------------------------|
A#|-----3--------------------------|---------------------------------------10--|---------------------------------------------|
F#|-----2--------------------------|---------------------------------------9---|---------------------------------------------|
C#|-3---0---0---1----2----3--3--0--|-8---8---8--8--8--7--7--7--7--7--9--11-----|-10--10--10-10-10-9--9--9--9--9--9--8--8--0--|
G#|-3---0---0---1----2----3--3--0--|-8---8---8--8--8--7--7--7--7--7------------|-10--10--10-10-10-9--9--9--9--9--9--8--8--0--|
C#|-3---0---0---1----2----3--3--0--|-8---8---8--8--8--7--7--7--7--7------------|-10--10--10-10-10-9--9--9--9--9--9--8--8--0--|


D#|---------------------------------------------|-----------------------------------------------|
A#|-6---------------------------------------6---|-------------------------------------6---------|
F#|-5---------------------------------------5---|-------------------------------------5---------|
C#|-0---0--0--1--1--1--1--2--2--2--3--0--0--0---|-0--0--1--1--1--1--2--2--2--3--0--0--0---0--0--|
G#|-0---0--0--1--1--1--1--2--2--2--3--0--0--0---|-0--0--1--1--1--1--2--2--2--3--0--0--0---0--0--|
C#|-0---0--0--1--1--1--1--2--2--2--3--0--0--0---|-0--0--1--1--1--1--2--2--2--3--0--0--0---0--0--|


D#|-----------------------------------------------|-----------------------------------------------|
A#|-------------------------------6---------------|-------------------------6---------------------|
F#|-------------------------------5---------------|-------------------------5---------------------|
C#|-1--1--1--1--2--2--2--3--0--0--0---0--0--1--1--|-1--1--2--2--2--3--0--0--0---0--0--1--1--1--1--|
G#|-1--1--1--1--2--2--2--3--0--0--0---0--0--1--1--|-1--1--2--2--2--3--0--0--0---0--0--1--1--1--1--|
C#|-1--1--1--1--2--2--2--3--0--0--0---0--0--1--1--|-1--1--2--2--2--3--0--0--0---0--0--1--1--1--1--|


D#|-----------------------------------------------|-----------------------------------------------|
A#|-------------------6---------------------------|-------------6---------------------------------|
F#|-------------------5---------------------------|-------------5---------------------------------|
C#|-2--2--2--3--0--0--0---0--0--1--1--1--1--2--2--|-2--3--0--0--0---0--0--1--1--1--1--2--2--2--3--|
G#|-2--2--2--3--0--0--0---0--0--1--1--1--1--2--2--|-2--3--0--0--0---0--0--1--1--1--1--2--2--2--3--|
C#|-2--2--2--3--0--0--0---0--0--1--1--1--1--2--2--|-2--3--0--0--0---0--0--1--1--1--1--2--2--2--3--|


D#|-----------------------------------------------|-------------------------------------------|
A#|-------6---------------------------------------|---------------------------------------10--|
F#|-------5---------------------------------------|---------------------------------------9---|
C#|-0--0--0---0--0--1--1--1--1--2--2--2--3--0--0--|-8---8---8--8--8--7--7--7--7--7--9--11-----|
G#|-0--0--0---0--0--1--1--1--1--2--2--2--3--0--0--|-8---8---8--8--8--7--7--7--7--7------------|
C#|-0--0--0---0--0--1--1--1--1--2--2--2--3--0--0--|-8---8---8--8--8--7--7--7--7--7------------|


D#|---------------------------------------------|---------------------------------------------|
A#|---------------------------------------------|-6---------------------------------------6---|
F#|---------------------------------------------|-5---------------------------------------5---|
C#|-10--10--10-10-10-9--9--9--9--9--9--8--8--0--|-0---0--0--1--1--1--1--2--2--2--3--0--0--0---|
G#|-10--10--10-10-10-9--9--9--9--9--9--8--8--0--|-0---0--0--1--1--1--1--2--2--2--3--0--0--0---|
C#|-10--10--10-10-10-9--9--9--9--9--9--8--8--0--|-0---0--0--1--1--1--1--2--2--2--3--0--0--0---|


D#|-----------------------------------------------|-----------------------------------------------|
A#|-------------------------------------18--------|-------------------------------6---------------|
F#|-------------------------------------17--------|-------------------------------5---------------|
C#|-0--0--1--1--1--1--2--2--2--3--0--0--0---0--0--|-1--1--1--1--2--2--2--3--0--0--0---0--0--1--1--|
G#|-0--0--1--1--1--1--2--2--2--3--0--0--0---0--0--|-1--1--1--1--2--2--2--3--0--0--0---0--0--1--1--|
C#|-0--0--1--1--1--1--2--2--2--3--0--0--0---0--0--|-1--1--1--1--2--2--2--3--0--0--0---0--0--1--1--|


D#|-----------------------------|--------|--------|--------|--------|--------|--------|
A#|-----------------------------|--------|--------|--------|--------|--------|--------|
F#|-----------------------------|--------|--------|--------|--------|--------|--------|
C#|-1--1--2--2--2--3------------|--------|--------|--------|--------|--------|--------|
G#|-1--1--2--2--2--3------------|--------|--------|--------|--------|--------|--------|
C#|-1--1--2--2--2--3------------|--------|--------|--------|--------|--------|--------|


D#|--------|--------|---------------------------|-------------------------------------------|
A#|--------|--------|---------------------------|-------------------10----------------------|
F#|--------|--------|---------------------------|-------------------9-----------------------|
C#|--------|--------|-------8---8---8--8--8--7--|-7--7--7--7--9--11-----10--10--10-10-10-9--|
G#|--------|--------|-------8---8---8--8--8--7--|-7--7--7--7------------10--10--10-10-10-9--|
C#|--------|--------|-------8---8---8--8--8--7--|-7--7--7--7------------10--10--10-10-10-9--|


D#|---------------------------------------------|-------------------------------------------|
A#|---------------------------------------------|-------------------10----------------------|
F#|---------------------------------------------|-------------------9-----------------------|
C#|-9--9--9--9--9--8--8--5--8---8---8--8--8--7--|-7--7--7--7--9--11-----10--10--10-10-10-9--|
G#|-9--9--9--9--9--8--8--5--8---8---8--8--8--7--|-7--7--7--7------------10--10--10-10-10-9--|
C#|-9--9--9--9--9--8--8--5--8---8---8--8--8--7--|-7--7--7--7------------10--10--10-10-10-9--|


D#|-----------------------------|
A#|-----------------------------|
F#|-----------------------------|
C#|-9--9--9--9--9--8--8---------|
G#|-9--9--9--9--9--8--8---------|
C#|-9--9--9--9--9--8--8---------|





Track 2: Jerry Cantrell - Solo

D#|--------|--------|--------|--------|--------|--------|--------|--------|--------|
A#|--------|--------|--------|--------|--------|--------|--------|--------|--------|
F#|--------|--------|--------|--------|--------|--------|--------|--------|--------|
C#|--------|--------|--------|--------|--------|--------|--------|--------|--------|
G#|--------|--------|--------|--------|--------|--------|--------|--------|--------|
C#|--------|--------|--------|--------|--------|--------|--------|--------|--------|


D#|--------|--------|--------|--------|--------|--------|--------|--------|--------|
A#|--------|--------|--------|--------|--------|--------|--------|--------|--------|
F#|--------|--------|--------|--------|--------|--------|--------|--------|--------|
C#|--------|--------|--------|--------|--------|--------|--------|--------|--------|
G#|--------|--------|--------|--------|--------|--------|--------|--------|--------|
C#|--------|--------|--------|--------|--------|--------|--------|--------|--------|


D#|--------|--------|--------|--------|--------|--------|--------|-----------------------------------------------|
A#|--------|--------|--------|--------|--------|--------|--------|-----------------------------------------------|
F#|--------|--------|--------|--------|--------|--------|--------|-----------------------------------------------|
C#|--------|--------|--------|--------|--------|--------|--------|-3-----------3-----------5--------6--------5---|
G#|--------|--------|--------|--------|--------|--------|--------|----5--5--5-----5--5--5-----5--5-----5--5------|
C#|--------|--------|--------|--------|--------|--------|--------|-----------------------------------------------|


D#|---------------------------------------|---------------------------------------|
A#|------------------------6--------------|---------------------------------------|
F#|------------------------5------12--12--|------12---12-12-12-12-10--------------|
C#|-3----------------5--7-----------------|--------------------------12--12-10----|
G#|-----5--3--5---3-----------------------|------------------------------------12-|
C#|---------------------------------------|---------------------------------------|


D#|----------------------------------------------|------------------------------------------|
A#|----------------------------------------------|------------------------------------------|
F#|------------------------------------17-17-17--|-17-15-14-15-14---------------------------|
C#|----------------------------14---14-----------|----------------15------------------------|
G#|-10-10-8--10-10-10-10-8--8--------------------|-------------------17---17----------15-17-|
C#|----------------------------------------------|---------------------------15-17-19-------|


D#|-------------------------------------|-------------------------|-15--15-13----13--------------------|
A#|-------------------------------------|-------------------------|-----------15----15-15-15---15-15---|
F#|-------14-15-14----14-15-17-17-17-15-|-17-15-14----12-14-14----|------------------------------------|
C#|-14-15-------------------------------|-------------------------|------------------------------------|
G#|-------------------------------------|-------------------------|------------------------------------|
C#|-------------------------------------|-------------------------|------------------------------------|


D#|-20--20-18-17----17------------------------|---------------------------------------------------------------|
A#|--------------20----20-20-20-18----18------|-182018--182018--182018--182018--182018--182018--182018--1820--|
F#|--------------------------------19----19---|-------19------19------19------19------19------19------19------|
C#|-------------------------------------------|---------------------------------------------------------------|
G#|-------------------------------------------|---------------------------------------------------------------|
C#|-------------------------------------------|---------------------------------------------------------------|


D#|---------------------------------|----------------------------------------------|
A#|-20-18----18---------------------|----------------------------------------------|
F#|-------19----19--19---19-12-12---|-12-12-12-12-12-12-12-121210----10------------|
C#|---------------------------------|-----------------------------12-----12--10-12-|
G#|---------------------------------|----------------------------------------------|
C#|---------------------------------|----------------------------------------------|


D#|------------------------------------|------------------------------|--------------------------------|
A#|-----------------------3------------|-------------3----------------|-----------3--------------------|
F#|-----------------------2------------|-------------2----------------|-----------2--------------------|
C#|-12-12-12-10-10--------0---0---1----|-2----3--3---0---0---1----2---|----3--3---0---0---1----2----3--|
G#|----------------12-12--0---0---1----|-2----3--3---0---0---1----2---|----3--3---0---0---1----2----3--|
C#|-----------------------0---0---1----|-2----3--3---0---0---1----2---|----3--3---0---0---1----2----3--|


D#|------------------------------|------------------------------|------------------------------|
A#|-----3------------------------|-3------------------------3---|----------------------3-------|
F#|-----2------------------------|-2------------------------2---|----------------------2-------|
C#|-3---0---0---1----2----3--3---|-0---0---1----2----3--3---0---|-0---1----2----3--3---0---0---|
G#|-3---0---0---1----2----3--3---|-0---0---1----2----3--3---0---|-0---1----2----3--3---0---0---|
C#|-3---0---0---1----2----3--3---|-0---0---1----2----3--3---0---|-0---1----2----3--3---0---0---|


D#|------------------------------|---------------------------------------|-------------------------------------------|
A#|------------------3-----------|---------------------------------------|-------------------10----------------------|
F#|------------------2-----------|---------------------------------------|-------------------9-----------------------|
C#|-1----2----3--3---0---0---1---|-----2----3--3--0--8---8---8--8--8--7--|-7--7--7--7--9--11-----10--10--10-10-10-9--|
G#|-1----2----3--3---0---0---1---|-----2----3--3--0--8---8---8--8--8--7--|-7--7--7--7------------10--10--10-10-10-9--|
C#|-1----2----3--3---0---0---1---|-----2----3--3--0--8---8---8--8--8--7--|-7--7--7--7------------10--10--10-10-10-9--|


D#|-------------------------------|--------|--------|--------|--------|
A#|-------------------------------|--------|--------|--------|--------|
F#|-------------------------------|--------|--------|--------|--------|
C#|-9--9--9--9--9--8--8--0--------|--------|--------|--------|--------|
G#|-9--9--9--9--9--8--8--0--------|--------|--------|--------|--------|
C#|-9--9--9--9--9--8--8--0--------|--------|--------|--------|--------|





Track 3: Jerry Cantrell - Solo

D#|--------|--------|--------|--------|--------|--------|--------|--------|--------|
A#|--------|--------|--------|--------|--------|--------|--------|--------|--------|
F#|--------|--------|--------|--------|--------|--------|--------|--------|--------|
C#|--------|--------|--------|--------|--------|--------|--------|--------|--------|
G#|--------|--------|--------|--------|--------|--------|--------|--------|--------|
C#|--------|--------|--------|--------|--------|--------|--------|--------|--------|


D#|--------|--------|--------|--------|--------|--------|--------|--------|--------|
A#|--------|--------|--------|--------|--------|--------|--------|--------|--------|
F#|--------|--------|--------|--------|--------|--------|--------|--------|--------|
C#|--------|--------|--------|--------|--------|--------|--------|--------|--------|
G#|--------|--------|--------|--------|--------|--------|--------|--------|--------|
C#|--------|--------|--------|--------|--------|--------|--------|--------|--------|


D#|--------|--------|--------|--------|--------|--------|--------|--------|--------|
A#|--------|--------|--------|--------|--------|--------|--------|--------|--------|
F#|--------|--------|--------|--------|--------|--------|--------|--------|--------|
C#|--------|--------|--------|--------|--------|--------|--------|--------|--------|
G#|--------|--------|--------|--------|--------|--------|--------|--------|--------|
C#|--------|--------|--------|--------|--------|--------|--------|--------|--------|


D#|--------|--------|--------|--------|--------|-------------|---------------------|
A#|--------|--------|--------|--------|--------|-------------|---------------------|
F#|--------|--------|--------|--------|--------|-14----14----|-14---14---------6---|
C#|--------|--------|--------|--------|--------|-------------|---------------------|
G#|--------|--------|--------|--------|--------|-------------|---------------------|
C#|--------|--------|--------|--------|--------|-------------|---------------------|


D#|------------|-------------|------------------|-----------------|--------|--------|
A#|------------|-------------|------------------|-----------------|--------|--------|
F#|------------|-------------|------------------|-----------------|--------|--------|
C#|------------|-------------|------------------|-----------------|--------|--------|
G#|-0------0---|--------0----|------0-----0-----|-----------------|--------|--------|
C#|------------|-------------|------------------|-----------------|--------|--------|


D#|--------|--------|--------|--------|--------|--------|--------|--------|--------|
A#|--------|--------|--------|--------|--------|--------|--------|--------|--------|
F#|--------|--------|--------|--------|--------|--------|--------|--------|--------|
C#|--------|--------|--------|--------|--------|--------|--------|--------|--------|
G#|--------|--------|--------|--------|--------|--------|--------|--------|--------|
C#|--------|--------|--------|--------|--------|--------|--------|--------|--------|


D#|--------|--------|
A#|--------|--------|
F#|--------|--------|
C#|--------|--------|
G#|--------|--------|
C#|--------|--------|





Track 4: Mike Starr

F#|-------------------------------------------|-------------------------------------------|
C#|-------------------------------------------|-------------------------------------------|
G#|-5-------------------------------------3---|-----------------------------------5-------|
C#|-----0---1--1--1--1--2--2--2--3--0--0------|-0---1--1--1--1--2--2--2--3--0--0------0---|


F#|---------------------------------------------|------------------------------------|
C#|---------------------------------------------|------------------------------------|
G#|-------------------------------3-------------|-----------------------5------------|
C#|-1--1--1--1--2--2--2--3--0--0------0---1--1--|-1--1--2--2--2--3----------0---1----|


F#|----------------------------------|------------------------------------|----------------------------------|
C#|----------------------------------|------------------------------------|----------------------------------|
G#|---------------3------------------|-------------5----------------------|-----3----------------------------|
C#|-2--2---3--0-------0---1----2--2--|----3--3--0------0---1----2--2---3--|-0-------0---1----2--2--2--3--0---|


F#|--------------------------------|----------------------------------|--------------------------------|
C#|--------------------------------|----------------------------------|--------------------------------|
G#|-5--------------------------3---|--------------------------5-------|--------------------3-----------|
C#|-----0---1----2--2---3--0-------|-0---1----2--2---3--3--0------0---|-1----2--2---3--0-------0---1---|


F#|-----------------------------------------|-----------------------------------------|
C#|-----------------------------------------|-----------------------------------------|
G#|-----------------------------------------|-----------------------------------------|
C#|-----2--2--2--3--0---8---8---8--8--8--7--|-7---7---7--7--7--7--10--10--10-10-10-9--|


F#|-----------------------------------------|---------------------------------------------|
C#|-----------------------------------------|---------------------------------------------|
G#|---------------------5-------------------|-------------------3-------------------------|
C#|-9--9--9--9--9--8--------0---1--1--1--1--|-2--2--2--3--0--0------0---1--1--1--1--2--2--|


F#|---------------------------------------------|-------------------------------------------|
C#|---------------------------------------------|-------------------------------------------|
G#|-------------5-------------------------------|-------3-----------------------------------|
C#|-2--3--0--0------0---1--1--1--1--2--2--2--3--|-0--0------0---1--1--1--1--2--2--2--3------|


F#|--------------------------------|----------------------------------|--------------------------------|
C#|--------------------------------|----------------------------------|--------------------------------|
G#|-5--------------------------3---|--------------------------5-------|--------------------3-----------|
C#|-----0---1----2--2---3--0-------|-0---1----2--2---3--3--0------0---|-1----2--2---3--0-------0---1---|


F#|----------------------------------|----------------------------------|------------------------------------|
C#|----------------------------------|----------------------------------|------------------------------------|
G#|---------------------5------------|---------------3------------------|-------------5----------------------|
C#|-----2--2--2--3--0-------0---1----|-2--2---3--0-------0---1----2--2--|----3--3--0------0---1----2--2---3--|


F#|----------------------------------|-----------------------------------------|-----------------------------------------|
C#|----------------------------------|-----------------------------------------|-----------------------------------------|
G#|-----3----------------------------|-----------------------------------------|-----------------------------------------|
C#|-0-------0---1----2--2--2--3--0---|-8---8---8--8--8--7--7---7---7--7--7--7--|-10--10--10-10-10-9--9--9--9--9--9--8----|


F#|-------------------------------------------|-------------------------------------------|
C#|-------------------------------------------|-------------------------------------------|
G#|-5-------------------------------------3---|-----------------------------------5-------|
C#|-----0---1--1--1--1--2--2--2--3--0--0------|-0---1--1--1--1--2--2--2--3--0--0------0---|


F#|---------------------------------------------|---------------------------------------------|
C#|---------------------------------------------|---------------------------------------------|
G#|-------------------------------3-------------|-------------------------5-------------------|
C#|-1--1--1--1--2--2--2--3--0--0------0---1--1--|-1--1--2--2--2--3--0--0------0---1--1--1--1--|


F#|---------------------------------------------|---------------------------------------------|
C#|---------------------------------------------|---------------------------------------------|
G#|-------------------3-------------------------|-------------5-------------------------------|
C#|-2--2--2--3--0--0------0---1--1--1--1--2--2--|-2--3--0--0------0---1--1--1--1--2--2--2--3--|


F#|---------------------------------------------|-----------------------------------------|
C#|---------------------------------------------|-----------------------------------------|
G#|-------3-------------------------------------|-----------------------------------------|
C#|-0--0------0---1--1--1--1--2--2--2--3--0--0--|-8---8---8--8--8--7--7---7---7--7--7--7--|


F#|-----------------------------------------|-------------------------------------------|
C#|-----------------------------------------|-------------------------------------------|
G#|-----------------------------------------|-5-------------------------------------3---|
C#|-10--10--10-10-10-9--9--9--9--9--9--8----|-----0---1--1--1--1--2--2--2--3--0--0------|


F#|-------------------------------------------|---------------------------------------------|
C#|-------------------------------------------|---------------------------------------------|
G#|-----------------------------------5-------|-------------------------------3-------------|
C#|-0---1--1--1--1--2--2--2--3--0--0------0---|-1--1--1--1--2--2--2--3--0--0------0---1--1--|


F#|------------------------------------|----------------------------------|------------------------------------|
C#|------------------------------------|----------------------------------|------------------------------------|
G#|-----------------------5------------|---------------3------------------|-------------5----------------------|
C#|-1--1--2--2--2--3----------0---1----|-2--2---3--0-------0---1----2--2--|----3--3--0------0---1----2--2---3--|


F#|----------------------------------|--------------------------------|----------------------------------|
C#|----------------------------------|--------------------------------|----------------------------------|
G#|-----3----------------------------|-5--------------------------3---|--------------------------5-------|
C#|-0-------0---1----2--2--2--3--0---|-----0---1----2--2---3--0-------|-0---1----2--2---3--3--0------0---|


F#|--------------------------------|-----------------------------------------|-----------------------------------------|
C#|--------------------------------|-----------------------------------------|-----------------------------------------|
G#|--------------------3-----------|-----------------------------------------|-----------------------------------------|
C#|-1----2--2---3--0-------0---1---|-----2--2--2--3--0---8---8---8--8--8--7--|-7---7---7--7--7--7--10--10--10-10-10-9--|


F#|-----------------------------------------|-----------------------------------------|
C#|-----------------------------------------|-----------------------------------------|
G#|-----------------------------------------|-----------------------------------------|
C#|-9--9--9--9--9--8----8---8---8--8--8--7--|-7---7---7--7--7--7--10--10--10-10-10-9--|


F#|-----------------------------------------|-----------------------------------------|
C#|-----------------------------------------|-----------------------------------------|
G#|-----------------------------------------|-----------------------------------------|
C#|-9--9--9--9--9--8----8---8---8--8--8--7--|-7---7---7--7--7--7--10--10--10-10-10-9--|


F#|-----------------------------|
C#|-----------------------------|
G#|-----------------------------|
C#|-9--9--9--9--9--8--8---------|