Site menu:

    

Browse: 0-9 A B C D E F G H I J K L N O P Q R S T U V W X Y Z

aggressive rejection - riff medley 2:



Title: Riff Medley 2
Artist: 
Album: 
Author: David Kelly


Track 1: Untitled

E|-----------------------------------|-----------------------------------|-----------------------------------|
B|-0---1-----------------------------|-0---1-----------------------------|-0---1-----------------------------|
G|-------------2---2---2---------2---|-------------2---2---2---------0---|-------------0---0---0---------0---|
D|---------------------2------2------|---------------------2------2------|---------------------2------2------|
A|-0---0---0-------0-------0---------|-0---0---0-------0-------0---------|-----------------------------------|
E|-----------------------------------|-----------------------------------|-3---3---3-------3-------3---------|


E|-----------------------------------|-----------------------------------|-----------------------------------|
B|-0---1-----------------------------|-0---1-----------------------------|-0---1-----------------------------|
G|-------------0---0---0---------2---|-------------2---2---2---------2---|-------------2---2---2---------0---|
D|---------------------2------2------|---------------------2------2------|---------------------2------2------|
A|-----------------------------------|-0---0---0-------0-------0---------|-0---0---0-------0-------0---------|
E|-3---3---3-------3-------3---------|-----------------------------------|-----------------------------------|


E|-----------------------------------|-----------------------------------|-----------------------------------|
B|-0---1-----------------------------|-0---1-----------------------------|-0---1-----------------------------|
G|-------------0---0---0---------0---|-------------0---0---0---------2---|-------------2---2---2---------2---|
D|---------------------2------2------|---------------------2------2------|---------------------2------2------|
A|-----------------------------------|-----------------------------------|-0---0---0-------0-------0---------|
E|-3---3---3-------3-------3---------|-3---3---3-------3-------3---------|-----------------------------------|


E|-----------------------------------|-----------------------------------|-----------------------------------|
B|-0---1-----------------------------|-0---1-----------------------------|-0---1-----------------------------|
G|-------------2---2---2---------0---|-------------0---0---0---------0---|-------------0---0---0---------2---|
D|---------------------2------2------|---------------------2------2------|---------------------2------2------|
A|-0---0---0-------0-------0---------|-----------------------------------|-----------------------------------|
E|-----------------------------------|-3---3---3-------3-------3---------|-3---3---3-------3-------3---------|


E|-----------------------------------|-----------------------------------|-----------------------------------|
B|-0---1-----------------------------|-0---1-----------------------------|-0---1-----------------------------|
G|-------------2---2---2---------2---|-------------2---2---2---------0---|-------------0---0---0---------0---|
D|---------------------2------2------|---------------------2------2------|---------------------2------2------|
A|-0---0---0-------0-------0---------|-0---0---0-------0-------0---------|-----------------------------------|
E|-----------------------------------|-----------------------------------|-3---3---3-------3-------3---------|


E|-----------------------------------|-----------------------------------|-----------------------------------|
B|-0---1-----------------------------|-0---1-----------------------------|-0---1-----------------------------|
G|-------------0---0---0---------2---|-------------2---2---2---------2---|-------------2---2---2---------0---|
D|---------------------2------2------|---------------------2------2------|---------------------2------2------|
A|-----------------------------------|-0---0---0-------0-------0---------|-0---0---0-------0-------0---------|
E|-3---3---3-------3-------3---------|-----------------------------------|-----------------------------------|


E|-----------------------------------|-----------------------------------|-----------------------------------|
B|-0---1-----------------------------|-0---1-----------------------------|-0---1-----------------------------|
G|-------------0---0---0---------0---|-------------0---0---0---------2---|-------------2---2---2---------2---|
D|---------------------2------2------|---------------------2------2------|---------------------2------2------|
A|-----------------------------------|-----------------------------------|-0---0---0-------0-------0---------|
E|-3---3---3-------3-------3---------|-3---3---3-------3-------3---------|-----------------------------------|


E|-----------------------------------|-----------------------------------|-----------------------------------|
B|-0---1-----------------------------|-0---1-----------------------------|-0---1-----------------------------|
G|-------------2---2---2---------0---|-------------0---0---0---------0---|-------------0---0---0---------2---|
D|---------------------2------2------|---------------------2------2------|---------------------2------2------|
A|-0---0---0-------0-------0---------|-----------------------------------|-----------------------------------|
E|-----------------------------------|-3---3---3-------3-------3---------|-3---3---3-------3-------3---------|


E|-----------------------------------|-----------------------------------|-----------------------------------|
B|-0---1-----------------------------|-0---1-----------------------------|-0---1-----------------------------|
G|-------------2---2---2---------2---|-------------2---2---2---------0---|-------------0---0---0---------0---|
D|---------------------2------2------|---------------------2------2------|---------------------2------2------|
A|-0---0---0-------0-------0---------|-0---0---0-------0-------0---------|-----------------------------------|
E|-----------------------------------|-----------------------------------|-3---3---3-------3-------3---------|


E|-----------------------------------|-----------------------------------|-----------------------------------|
B|-0---1-----------------------------|-0---1-----------------------------|-0---1-----------------------------|
G|-------------0---0---0---------2---|-------------2---2---2---------2---|-------------2---2---2---------0---|
D|---------------------2------2------|---------------------2------2------|---------------------2------2------|
A|-----------------------------------|-0---0---0-------0-------0---------|-0---0---0-------0-------0---------|
E|-3---3---3-------3-------3---------|-----------------------------------|-----------------------------------|


E|-----------------------------------|-----------------------------------|-0------|
B|-0---1-----------------------------|-0---1-----------------------------|-1------|
G|-------------0---0---0---------0---|-------------0---0---0---------2---|-2------|
D|---------------------2------2------|---------------------2------2------|-2------|
A|-----------------------------------|-----------------------------------|-0------|
E|-3---3---3-------3-------3---------|-3---3---3-------3-------3---------|--------|


E|-0------|-----------------0--------------------|---------------------------------|
B|-1------|-------------1-------3---0--1--0------|-------------1-------1-------1---|
G|-2------|---------2------------------------2---|---------2-------0---------------|
D|-2------|-----2--------------------------------|-----2-------------------3-------|
A|-0------|-0------------------------------------|-0-------------------------------|
E|--------|--------------------------------------|---------------------------------|


E|-----------------0--------------------|---------------------------------|-----------------0--------------------|
B|-------------1-------3---0--1--0------|---------1---------------1-------|-------------1-------3---0--1--0------|
G|---------2------------------------2---|-------------2---0-----------2---|---------2------------------------2---|
D|-----2--------------------------------|-----2---------------2-----------|-----2--------------------------------|
A|-0------------------------------------|-0-------------------------------|-0------------------------------------|
E|--------------------------------------|---------------------------------|--------------------------------------|


E|---------------------------------|-----------------0--------------------|---------------------------------|
B|-------------1-------1-------1---|-------------1-------3---0--1--0------|---------1---------------1-------|
G|---------2-------0---------------|---------2------------------------2---|-------------2---0-----------2---|
D|-----2-------------------3-------|-----2--------------------------------|-----2---------------2-----------|
A|-0-------------------------------|-0------------------------------------|-0-------------------------------|
E|---------------------------------|--------------------------------------|---------------------------------|


E|-----------------0--------------------|---------------------------------|-----------------0--------------------|
B|-------------1-------3---0--1--0------|-------------1-------1-------1---|-------------1-------3---0--1--0------|
G|---------2------------------------2---|---------2-------0---------------|---------2------------------------2---|
D|-----2--------------------------------|-----2-------------------3-------|-----2--------------------------------|
A|-0------------------------------------|-0-------------------------------|-0------------------------------------|
E|--------------------------------------|---------------------------------|--------------------------------------|


E|---------------------------------|-----------------0--------------------|---------------------------------|
B|---------1---------------1-------|-------------1-------3---0--1--0------|-------------1-------1-------1---|
G|-------------2---0-----------2---|---------2------------------------2---|---------2-------0---------------|
D|-----2---------------2-----------|-----2--------------------------------|-----2-------------------3-------|
A|-0-------------------------------|-0------------------------------------|-0-------------------------------|
E|---------------------------------|--------------------------------------|---------------------------------|


E|-----------------0--------------------|---------------------------------|--------|
B|-------------1-------3---0--1--0------|---------1---------------1-------|--------|
G|---------2------------------------2---|-------------2---0-----------2---|--------|
D|-----2--------------------------------|-----2---------------2-----------|--------|
A|-0------------------------------------|-0-------------------------------|--------|
E|--------------------------------------|---------------------------------|--------|


E|--------|--------|--------|--------|--------|--------|--------|--------|--------|
B|--------|--------|--------|--------|--------|--------|--------|--------|--------|
G|--------|--------|--------|--------|--------|--------|--------|--------|--------|
D|--------|--------|--------|--------|--------|--------|--------|--------|--------|
A|--------|--------|--------|--------|--------|--------|--------|--------|--------|
E|--------|--------|--------|--------|--------|--------|--------|--------|--------|


E|--------|--------|--------|--------|--------|--------|--------|--------|--------|
B|--------|--------|--------|--------|--------|--------|--------|--------|--------|
G|--------|--------|--------|--------|--------|--------|--------|--------|--------|
D|--------|--------|--------|--------|--------|--------|--------|--------|--------|
A|--------|--------|--------|--------|--------|--------|--------|--------|--------|
E|--------|--------|--------|--------|--------|--------|--------|--------|--------|


E|--------|--------|--------|-0---------------------------0---|-1---0------------------------|
B|--------|--------|--------|-----------------1-------3-------|-------------3-------6---5----|
G|--------|--------|--------|---------0---2-------2---0---2---|---------0---2-------5---4----|
D|--------|--------|--------|-----2---------------------------|-----2------------------------|
A|--------|--------|--------|-0-------------------------------|-0----------------------------|
E|--------|--------|--------|---------------------------------|------------------------------|


E|-0---------------------------0---|-1---0------------------------|-0---------------------------0---|
B|-----------------1-------3-------|-------------3-------1---0----|-----------------1-------3-------|
G|---------0---2-------2---0---2---|---------0---2-------2---0----|---------0---2-------2---0---2---|
D|-----2---------------------------|-----2------------------------|-----2---------------------------|
A|-0-------------------------------|-0----------------------------|-0-------------------------------|
E|---------------------------------|------------------------------|---------------------------------|


E|-1---0------------------------|-0---------------------------0---|-1---0------------------------|
B|-------------3-------6---5----|-----------------1-------3-------|-------------3-------1---0----|
G|---------0---2-------5---4----|---------0---2-------2---0---2---|---------0---2-------2---0----|
D|-----2------------------------|-----2---------------------------|-----2------------------------|
A|-0----------------------------|-0-------------------------------|-0----------------------------|
E|------------------------------|---------------------------------|------------------------------|


E|-0---------------------------0---|-1---0------------------------|-0---------------------------0---|
B|-----------------1-------3-------|-------------3-------6---5----|-----------------1-------3-------|
G|---------0---2-------2---0---2---|---------0---2-------5---4----|---------0---2-------2---0---2---|
D|-----2---------------------------|-----2------------------------|-----2---------------------------|
A|-0-------------------------------|-0----------------------------|-0-------------------------------|
E|---------------------------------|------------------------------|---------------------------------|


E|-1---0------------------------|-0---------------------------0---|-1---0------------------------|
B|-------------3-------1---0----|-----------------1-------3-------|-------------3-------6---5----|
G|---------0---2-------2---0----|---------0---2-------2---0---2---|---------0---2-------5---4----|
D|-----2------------------------|-----2---------------------------|-----2------------------------|
A|-0----------------------------|-0-------------------------------|-0----------------------------|
E|------------------------------|---------------------------------|------------------------------|


E|-0---------------------------0---|-1---0------------------------|-0---------------------------0---|
B|-----------------1-------3-------|-------------3-------1---0----|-----------------1-------3-------|
G|---------0---2-------2---0---2---|---------0---2-------2---0----|---------0---2-------2---0---2---|
D|-----2---------------------------|-----2------------------------|-----2---------------------------|
A|-0-------------------------------|-0----------------------------|-0-------------------------------|
E|---------------------------------|------------------------------|---------------------------------|


E|-1---0------------------------|-0---------------------------0---|-1---0------------------------|
B|-------------3-------6---5----|-----------------1-------3-------|-------------3-------1---0----|
G|---------0---2-------5---4----|---------0---2-------2---0---2---|---------0---2-------2---0----|
D|-----2------------------------|-----2---------------------------|-----2------------------------|
A|-0----------------------------|-0-------------------------------|-0----------------------------|
E|------------------------------|---------------------------------|------------------------------|


E|-0---------------------------0---|-1---0------------------------|-0---------------------------0---|
B|-----------------1-------3-------|-------------3-------6---5----|-----------------1-------3-------|
G|---------0---2-------2---0---2---|---------0---2-------5---4----|---------0---2-------2---0---2---|
D|-----2---------------------------|-----2------------------------|-----2---------------------------|
A|-0-------------------------------|-0----------------------------|-0-------------------------------|
E|---------------------------------|------------------------------|---------------------------------|


E|-1---0------------------------|-2------|-2------|--------|-2------|-2-----------2-------2-----------|
B|-------------3-------1---0----|-3------|-3------|-2------|-3------|-3-----------3-------3-----------|
G|---------0---2-------2---0----|-4------|-4------|-3------|-4------|-4-----------4-------4-------4---|
D|-----2------------------------|-4------|-4------|-4------|-4------|-4---4---4-------4-------4---4---|
A|-0----------------------------|-2------|-2------|-4------|-2------|-2---2---2-------2-------2-------|
E|------------------------------|--------|--------|-2------|--------|---------------------------------|


E|-2-------2-------2---------------|-2-----------2-------2-----------|-2------------------|
B|-2-------2-------3---------------|-3-----------3-------3-----------|-2----2-------------|
G|-3-------3-------4-------4---4---|-4-----------4-------4-------4---|-3--------3---------|
D|-4---4-------4-------4---4---4---|-4---4---4-------4-------4---4---|-4------------4-----|
A|-4---4-------4-------2---2---2---|-2---2---2-------2-------2-------|-4------------4-----|
E|-2---2-------2-------------------|---------------------------------|-2------------------|


E|-2-----------2-------2-----------|-2-------2-------2---------------|-2-----------2-------2-----------|
B|-3-----------3-------3-----------|-2-------2-------3---------------|-3-----------3-------3-----------|
G|-4-----------4-------4-------4---|-3-------3-------4-------4---4---|-4-----------4-------4-------4---|
D|-4---4---4-------4-------4---4---|-4---4-------4-------4---4---4---|-4---4---4-------4-------4---4---|
A|-2---2---2-------2-------2-------|-4---4-------4-------2---2---2---|-2---2---2-------2-------2-------|
E|---------------------------------|-2---2-------2-------------------|---------------------------------|


E|-2--------2---------|-2-----------2-------2-----------|-2-------2-------2---------------|
B|-2------------3-----|-3-----------3-------3-----------|-2-------2-------3---------------|
G|-3------------4-----|-4-----------4-------4-------4---|-3-------3-------4-------4---4---|
D|-4----4-------------|-4---4---4-------4-------4---4---|-4---4-------4-------4---4---4---|
A|-4------------------|-2---2---2-------2-------2-------|-4---4-------4-------2---2---2---|
E|-2------------------|---------------------------------|-2---2-------2-------------------|


E|-2-----------2-------2-----------|-2------------------|-2-----------2-------2-----------|
B|-3-----------3-------3-----------|-2----2-------------|-3-----------3-------3-----------|
G|-4-----------4-------4-------4---|-3--------3---------|-4-----------4-------4-------4---|
D|-4---4---4-------4-------4---4---|-4------------4-----|-4---4---4-------4-------4---4---|
A|-2---2---2-------2-------2-------|-4------------4-----|-2---2---2-------2-------2-------|
E|---------------------------------|-2------------------|---------------------------------|


E|-2-------2-------2---------------|-2-----------2-------2-----------|-2--------2---------|
B|-2-------2-------3---------------|-3-----------3-------3-----------|-2------------3-----|
G|-3-------3-------4-------4---4---|-4-----------4-------4-------4---|-3------------4-----|
D|-4---4-------4-------4---4---4---|-4---4---4-------4-------4---4---|-4----4-------------|
A|-4---4-------4-------2---2---2---|-2---2---2-------2-------2-------|-4------------------|
E|-2---2-------2-------------------|---------------------------------|-2------------------|


E|---------------------------------|---------------------------------|---------------------------------|
B|---------------------------------|---------------------------------|---------------------------------|
G|-------------9---9---9---9---9---|-7---7---7---10--10--9---9---9---|-------------9---9---9---9---9---|
D|-10--10--10--10--10--10--10--10--|-9---9---9---9---9---9---9---9---|-10--10--10--10--10--10--10--10--|
A|-12--12--12----------------------|---------------------------------|-12--12--12----------------------|
E|---------------------------------|---------------------------------|---------------------------------|


E|---------------------------------|---------------------------------|---------------------------------|
B|---------------------------------|---------------------------------|---------------------------------|
G|-7---7---7---10--10--9---9---9---|-------------9---9---9---9---9---|-7---7---7---10--10--9---9---9---|
D|-9---9---9---9---9---9---9---9---|-10--10--10--10--10--10--10--10--|-9---9---9---9---9---9---9---9---|
A|---------------------------------|-12--12--12----------------------|---------------------------------|
E|---------------------------------|---------------------------------|---------------------------------|


E|---------------------------------|---------------------------------|---------------------------------|
B|---------------------------------|---------------------------------|---------------------------------|
G|-------------9---9---9---9---9---|-7---7---7---10--10--9---9---9---|-------------9---9---9---9---9---|
D|-10--10--10--10--10--10--10--10--|-9---9---9---9---9---9---9---9---|-10--10--10--10--10--10--10--10--|
A|-12--12--12----------------------|---------------------------------|-12--12--12----------------------|
E|---------------------------------|---------------------------------|---------------------------------|


E|---------------------------------|---------------------------------|---------------------------------|
B|---------------------------------|---------------------------------|---------------------------------|
G|-7---7---7---10--10--9---9---9---|-------------9---9---9---9---9---|-7---7---7---10--10--9---9---9---|
D|-9---9---9---9---9---9---9---9---|-10--10--10--10--10--10--10--10--|-9---9---9---9---9---9---9---9---|
A|---------------------------------|-12--12--12----------------------|---------------------------------|
E|---------------------------------|---------------------------------|---------------------------------|


E|---------------------------------|---------------------------------|---------------------------------|
B|---------------------------------|---------------------------------|---------------------------------|
G|-------------9---9---9---9---9---|-7---7---7---10--10--9---9---9---|-------------9---9---9---9---9---|
D|-10--10--10--10--10--10--10--10--|-9---9---9---9---9---9---9---9---|-10--10--10--10--10--10--10--10--|
A|-12--12--12----------------------|---------------------------------|-12--12--12----------------------|
E|---------------------------------|---------------------------------|---------------------------------|


E|---------------------------------|--------|
B|---------------------------------|--------|
G|-7---7---7---10--10--9---9---9---|--------|
D|-9---9---9---9---9---9---9---9---|-10-----|
A|---------------------------------|-12-----|
E|---------------------------------|--------|





Track 2: Untitled

E|--------|--------|--------|--------|--------|--------|--------|--------|------------------|
B|--------|--------|--------|--------|--------|--------|--------|--------|-------13---------|
G|--------|--------|--------|--------|--------|--------|--------|--------|-------14---14----|
D|--------|--------|--------|--------|--------|--------|--------|--------|------------14----|
A|--------|--------|--------|--------|--------|--------|--------|--------|------------------|
E|--------|--------|--------|--------|--------|--------|--------|--------|------------------|


E|------------------|------------------|------------------|------------------|------------------|
B|-------13---------|-------13---------|-------13---------|-------13---------|-------13---------|
G|-------14---14----|-------12---12----|-------12---12----|-------14---14----|-------14---14----|
D|------------14----|------------14----|------------14----|------------14----|------------14----|
A|------------------|------------------|------------------|------------------|------------------|
E|------------------|------------------|------------------|------------------|------------------|


E|------------------|------------------|--------|--------|--------|--------|--------|
B|-------13---------|-------13---------|--------|--------|--------|--------|--------|
G|-------12---12----|-------12---12----|--------|--------|--------|--------|--------|
D|------------14----|------------14----|--------|--------|--------|--------|--------|
A|------------------|------------------|--------|--------|--------|--------|--------|
E|------------------|------------------|--------|--------|--------|--------|--------|


E|--------|--------|--------|--------|--------|--------|--------|--------|--------|
B|--------|--------|--------|--------|--------|--------|--------|--------|--------|
G|--------|--------|--------|--------|--------|--------|--------|--------|--------|
D|--------|--------|--------|--------|--------|--------|--------|--------|--------|
A|--------|--------|--------|--------|--------|--------|--------|--------|--------|
E|--------|--------|--------|--------|--------|--------|--------|--------|--------|


E|--------|--------|--------|--------|--------|--------|--------|--------|--------|
B|--------|--------|--------|--------|--------|--------|--------|--------|--------|
G|--------|--------|--------|--------|--------|--------|--------|--------|--------|
D|--------|--------|--------|--------|--------|--------|--------|--------|--------|
A|--------|--------|--------|--------|--------|--------|--------|--------|--------|
E|--------|--------|--------|--------|--------|--------|--------|--------|--------|


E|--------|--------|--------|--------|--------|--------|--------|--------|--------|
B|--------|--------|--------|--------|--------|--------|--------|--------|--------|
G|--------|--------|--------|--------|--------|--------|--------|--------|--------|
D|--------|--------|--------|--------|--------|--------|--------|--------|--------|
A|--------|--------|--------|--------|--------|--------|--------|--------|--------|
E|--------|--------|--------|--------|--------|--------|--------|--------|--------|


E|--------|---------------------------------|-----------------0--------------------|
B|--------|---------------------------------|-------------1-------3---0--1--0------|
G|--------|---------------------------------|---------2------------------------2---|
D|--------|-2---2---2---2---2---2---2---2---|-----2--------------------------------|
A|--------|-0---0---0---0---0---0---0---0---|-0------------------------------------|
E|--------|---------------------------------|--------------------------------------|


E|---------------------------------|-----------------0--------------------|---------------------------------|
B|-------------1-------1-------1---|-------------1-------3---0--1--0------|---------1---------------1-------|
G|---------2-------0---------------|---------2------------------------2---|-------------2---0-----------2---|
D|-----2-------------------3-------|-----2--------------------------------|-----2---------------2-----------|
A|-0-------------------------------|-0------------------------------------|-0-------------------------------|
E|---------------------------------|--------------------------------------|---------------------------------|


E|-----------------0--------------------|---------------------------------|-----------------0--------------------|
B|-------------1-------3---0--1--0------|-------------1-------1-------1---|-------------1-------3---0--1--0------|
G|---------2------------------------2---|---------2-------0---------------|---------2------------------------2---|
D|-----2--------------------------------|-----2-------------------3-------|-----2--------------------------------|
A|-0------------------------------------|-0-------------------------------|-0------------------------------------|
E|--------------------------------------|---------------------------------|--------------------------------------|


E|---------------------------------|--------|--------|--------|-------------------------------------------------|
B|---------1---------------1-------|--------|--------|--------|-10-10-10-10-7--7--10-10-12-12-12-15-12-12-12-12-|
G|-------------2---0-----------2---|-2------|-2------|-2------|-------------------------------------------------|
D|-----2---------------2-----------|-2------|-2------|-2------|-------------------------------------------------|
A|-0-------------------------------|-0------|-0------|-0------|-------------------------------------------------|
E|---------------------------------|--------|--------|--------|-------------------------------------------------|


E|-----------------------------------------|---------------------------------------|
B|-----------------------------------------|---------------------------------------|
G|-9---------9---------5---------5---------|-7---------4---7---9------12-9---------|
D|-9---9--9--9---9--9--5---5--5--5---5--5--|-7---7--7--4---7---9---9--12-9---9--9--|
A|-7---7--7--7---7--7--3---3--3--3---3--3--|-5---5--5--2---5---7---7--10-7---7--7--|
E|-----------------------------------------|---------------------------------------|


E|-----------------------------------------|---------------------------------------|
B|-----------------------------------------|---------------------------------------|
G|-9---------9---------5---------5---------|-7---------4---7---9------12-9---------|
D|-9---9--9--9---9--9--5---5--5--5---5--5--|-7---7--7--4---7---9---9--12-9---9--9--|
A|-7---7--7--7---7--7--3---3--3--3---3--3--|-5---5--5--2---5---7---7--10-7---7--7--|
E|-----------------------------------------|---------------------------------------|


E|-----------------------------------------|---------------------------------------|
B|-----------------------------------------|---------------------------------------|
G|-9---------9---------5---------5---------|-7---------4---7---9------12-9---------|
D|-9---9--9--9---9--9--5---5--5--5---5--5--|-7---7--7--4---7---9---9--12-9---9--9--|
A|-7---7--7--7---7--7--3---3--3--3---3--3--|-5---5--5--2---5---7---7--10-7---7--7--|
E|-----------------------------------------|---------------------------------------|


E|-----------------------------------------|---------------------------------------|
B|-----------------------------------------|---------------------------------------|
G|-9---------9---------5---------5---------|-7---------4---7---9------12-9---------|
D|-9---9--9--9---9--9--5---5--5--5---5--5--|-7---7--7--4---7---9---9--12-9---9--9--|
A|-7---7--7--7---7--7--3---3--3--3---3--3--|-5---5--5--2---5---7---7--10-7---7--7--|
E|-----------------------------------------|---------------------------------------|


E|--------|-----------------|--------|--------|--------|--------|--------|--------|
B|--------|-----------------|--------|--------|--------|--------|--------|--------|
G|-9------|-7-----5----4----|--------|--------|--------|--------|--------|--------|
D|-9------|-7-----5----4----|--------|--------|--------|--------|--------|--------|
A|-7------|-5-----3----2----|--------|--------|--------|--------|--------|--------|
E|--------|-----------------|--------|--------|--------|--------|--------|--------|


E|--------|--------|-12---------12--|-13--12--------13--12---|-12---------12--|-13--12-----------------|
B|--------|--------|--------15------|----------15------------|--------15------|----------15---13--12---|
G|--------|--------|----------------|------------------------|----------------|------------------------|
D|--------|--------|----------------|------------------------|----------------|------------------------|
A|--------|--------|----------------|------------------------|----------------|------------------------|
E|--------|--------|----------------|------------------------|----------------|------------------------|


E|-12---------12--|-13--12--------13--12---|-12---------12--|-13--12-----------------|
B|--------15------|----------15------------|--------15------|----------15---13--12---|
G|----------------|------------------------|----------------|------------------------|
D|----------------|------------------------|----------------|------------------------|
A|----------------|------------------------|----------------|------------------------|
E|----------------|------------------------|----------------|------------------------|


E|-0------------------------12--|-13--12--------13-------|-0------------------------12--|
B|-17-------------------15------|----------15-------17---|-17-------------------15------|
G|---------2---2---2------------|-2----------------------|---------2---2---2------------|
D|-----2------------------------|------------------------|-----2------------------------|
A|-0----------------------------|------------------------|-0----------------------------|
E|------------------------------|------------------------|------------------------------|


E|-13--12-----------------|-0------------------------12--|-13--12--------13-------|
B|----------15---13--12---|-17-------------------15------|----------15-------17---|
G|-2----------------------|---------2---2---2------------|-2----------------------|
D|------------------------|-----2------------------------|------------------------|
A|------------------------|-0----------------------------|------------------------|
E|------------------------|------------------------------|------------------------|


E|-0------------------------12--|-13--12-----------------|--------|--------|--------|
B|-17-------------------15------|----------15---13--12---|-12-----|--------|--------|
G|---------2---2---2------------|-2----------------------|--------|--------|--------|
D|-----2------------------------|------------------------|--------|--------|--------|
A|-0----------------------------|------------------------|--------|--------|--------|
E|------------------------------|------------------------|--------|--------|--------|


E|--------|---------------------------|------------------------|---------------------------|
B|--------|-----------------7---------|------------------------|-----------------7---------|
G|--------|-------------7--------7----|-9----6----7----6-------|-------------7--------7----|
D|--------|---------9-----------------|--------------------9---|---------9-----------------|
A|--------|-----9---------------------|------------------------|-----9---------------------|
E|--------|-7-------------------------|------------------------|-7-------------------------|


E|-7------------------|---------------------------|------------------------|---------------------------|
B|------7---7---7-----|-----------------7---------|------------------------|-----------------7---------|
G|--------------------|-------------7--------7----|-9----6----7----6-------|-------------7--------7----|
D|--------------------|---------9-----------------|--------------------9---|---------9-----------------|
A|--------------------|-----9---------------------|------------------------|-----9---------------------|
E|--------------------|-7-------------------------|------------------------|-7-------------------------|


E|--------------------|---------------------------|------------------------|---------------------------|
B|--------------------|-----------------7---------|------------------------|-----------------7---------|
G|-9----7---6---------|-------------7--------7----|-9----6----7----6-------|-------------7--------7----|
D|--------------9-----|---------9-----------------|--------------------9---|---------9-----------------|
A|--------------------|-----9---------------------|------------------------|-----9---------------------|
E|--------------------|-7-------------------------|------------------------|-7-------------------------|


E|-7------------------|---------------------------|------------------------|---------------------------|
B|------7---7---7-----|-----------------7---------|------------------------|-----------------7---------|
G|--------------------|-------------7--------7----|-9----6----7----6-------|-------------7--------7----|
D|--------------------|---------9-----------------|--------------------9---|---------9-----------------|
A|--------------------|-----9---------------------|------------------------|-----9---------------------|
E|--------------------|-7-------------------------|------------------------|-7-------------------------|


E|--------------------|--------|--------|--------|--------|-------8-----7----|-------7----------|
B|--------------------|--------|--------|--------|--------|-10---------------|-8-----------10---|
G|-9----7---6---------|--------|--------|--------|--------|------------------|------------------|
D|--------------9-----|--------|--------|--------|--------|------------------|------------------|
A|--------------------|--------|--------|--------|--------|------------------|------------------|
E|--------------------|--------|--------|--------|--------|------------------|------------------|


E|-------8-----7----|-10----8-----7----|-------8-----7----|-------7----------|-------8-----7----|
B|-10---------------|------------------|-10---------------|-8-----------10---|-10---------------|
G|------------------|------------------|------------------|------------------|------------------|
D|------------------|------------------|------------------|------------------|------------------|
A|------------------|------------------|------------------|------------------|------------------|
E|------------------|------------------|------------------|------------------|------------------|


E|-10----8-----7----|-------8-----7----|-------7----------|-------8-----7----|-10----8-----7----|
B|------------------|-10---------------|-8-----------10---|-10---------------|------------------|
G|------------------|------------------|------------------|------------------|------------------|
D|------------------|------------------|------------------|------------------|------------------|
A|------------------|------------------|------------------|------------------|------------------|
E|------------------|------------------|------------------|------------------|------------------|


E|--------|
B|--------|
G|--------|
D|--------|
A|--------|
E|--------|





Track 3: Untitled

E|--------|--------|--------|--------|--------|--------|--------|--------|--------|
B|--------|--------|--------|--------|--------|--------|--------|--------|--------|
G|--------|--------|--------|--------|--------|--------|--------|--------|--------|
D|--------|--------|--------|--------|--------|--------|--------|--------|--------|
A|--------|--------|--------|--------|--------|--------|--------|--------|--------|
E|--------|--------|--------|--------|--------|--------|--------|--------|--------|


E|--------|--------|--------|--------|--------|--------|-----------------------------5---|
B|--------|--------|--------|--------|--------|--------|---------------------5-----------|
G|--------|--------|--------|--------|--------|--------|-------------5-----------5-------|
D|--------|--------|--------|--------|--------|--------|-----7-----------7---------------|
A|--------|--------|--------|--------|--------|--------|---------7-----------------------|
E|--------|--------|--------|--------|--------|--------|-5-------------------------------|


E|-5-----5------------------------|-5-----5----------------------------|-3-----3------------------------|
B|-----------5--------------------|-----------5--------------------3---|-----------3---1---3---3----3---|
G|---------------7---9---9----9---|---------------7---9----4---5-------|----0---------------------------|
D|----7---------------------------|----7-------------------------------|--------------------------------|
A|--------------------------------|------------------------------------|--------------------------------|
E|--------------------------------|------------------------------------|--------------------------------|


E|-3-----3----------------------------|-5-----5------------------------|-5-----5----------------------------|
B|-----------3---1---3------------5---|-----------5--------------------|-----------5--------------------3---|
G|----0-------------------5---7-------|---------------7---9---9----9---|---------------7---9----4---5-------|
D|------------------------------------|----7---------------------------|----7-------------------------------|
A|------------------------------------|--------------------------------|------------------------------------|
E|------------------------------------|--------------------------------|------------------------------------|


E|-3-----3------------------------|-3-----3----------------------------|-5-----5------------------------|
B|-----------3---1---3---3----3---|-----------3---1---3------------5---|-----------5--------------------|
G|----0---------------------------|----0-------------------5---7-------|---------------7---9---9----9---|
D|--------------------------------|------------------------------------|----7---------------------------|
A|--------------------------------|------------------------------------|--------------------------------|
E|--------------------------------|------------------------------------|--------------------------------|


E|-5-----5----------------------------|-3-----3------------------------|-3-----3----------------------------|
B|-----------5--------------------3---|-----------3---1---3---3----3---|-----------3---1---3------------5---|
G|---------------7---9----4---5-------|----0---------------------------|----0-------------------5---7-------|
D|----7-------------------------------|--------------------------------|------------------------------------|
A|------------------------------------|--------------------------------|------------------------------------|
E|------------------------------------|--------------------------------|------------------------------------|


E|-5-----5------------------------|-5-----5----------------------------|-3-----3------------------------|
B|-----------5--------------------|-----------5--------------------3---|-----------3---1---3---3----3---|
G|---------------7---9---9----9---|---------------7---9----4---5-------|----0---------------------------|
D|----7---------------------------|----7-------------------------------|--------------------------------|
A|--------------------------------|------------------------------------|--------------------------------|
E|--------------------------------|------------------------------------|--------------------------------|


E|-3-----3----------------------------|-5------|--------|--------|--------|--------|
B|-----------3---1---3------------5---|--------|--------|--------|--------|--------|
G|----0-------------------5---7-------|--------|--------|--------|--------|--------|
D|------------------------------------|-7------|--------|--------|--------|--------|
A|------------------------------------|--------|--------|--------|--------|--------|
E|------------------------------------|--------|--------|--------|--------|--------|


E|--------|--------|--------|--------|--------|--------|--------|--------|--------|
B|--------|--------|--------|--------|--------|--------|--------|--------|--------|
G|--------|--------|--------|--------|--------|--------|--------|--------|--------|
D|--------|--------|--------|--------|--------|--------|--------|--------|--------|
A|--------|--------|--------|--------|--------|--------|--------|--------|--------|
E|--------|--------|--------|--------|--------|--------|--------|--------|--------|


E|--------|--------|--------|--------|--------|--------|--------|--------|--------|
B|--------|--------|--------|--------|--------|--------|--------|--------|--------|
G|--------|--------|--------|--------|--------|--------|--------|--------|--------|
D|--------|--------|--------|--------|--------|--------|--------|--------|--------|
A|--------|--------|--------|--------|--------|--------|--------|--------|--------|
E|--------|--------|--------|--------|--------|--------|--------|--------|--------|


E|--------|--------|--------|--------|--------|--------|--------|--------|--------|
B|--------|--------|--------|--------|--------|--------|--------|--------|--------|
G|--------|--------|--------|--------|--------|--------|--------|--------|--------|
D|--------|--------|--------|--------|--------|--------|--------|--------|--------|
A|--------|--------|--------|--------|--------|--------|--------|--------|--------|
E|--------|--------|--------|--------|--------|--------|--------|--------|--------|


E|--------|--------|--------|--------|--------|--------|--------|--------|--------|
B|--------|--------|--------|--------|--------|--------|--------|--------|--------|
G|--------|--------|--------|--------|--------|--------|--------|--------|--------|
D|--------|--------|--------|--------|--------|--------|--------|--------|--------|
A|--------|--------|--------|--------|--------|--------|--------|--------|--------|
E|--------|--------|--------|--------|--------|--------|--------|--------|--------|


E|--------|--------|--------|--------|--------|--------|--------|--------|--------|
B|--------|--------|--------|--------|--------|--------|--------|--------|--------|
G|--------|--------|--------|--------|--------|--------|--------|--------|--------|
D|--------|--------|--------|--------|--------|--------|--------|--------|--------|
A|--------|--------|--------|--------|--------|--------|--------|--------|--------|
E|--------|--------|--------|--------|--------|--------|--------|--------|--------|


E|--------|--------|--------|--------|--------|--------|--------|--------|--------|
B|--------|--------|--------|--------|--------|--------|--------|--------|--------|
G|--------|--------|--------|--------|--------|--------|--------|--------|--------|
D|--------|--------|--------|--------|--------|--------|--------|--------|--------|
A|--------|--------|--------|--------|--------|--------|--------|--------|--------|
E|--------|--------|--------|--------|--------|--------|--------|--------|--------|


E|--------|--------|--------|--------|--------|--------|--------|--------|--------|
B|--------|--------|--------|--------|--------|--------|--------|--------|--------|
G|--------|--------|--------|--------|--------|--------|--------|--------|--------|
D|--------|--------|--------|--------|--------|--------|--------|--------|--------|
A|--------|--------|--------|--------|--------|--------|--------|--------|--------|
E|--------|--------|--------|--------|--------|--------|--------|--------|--------|


E|--------|--------|--------|--------|--------|--------|--------|--------|--------|
B|--------|--------|--------|--------|--------|--------|--------|--------|--------|
G|--------|--------|--------|--------|--------|--------|--------|--------|--------|
D|--------|--------|--------|--------|--------|--------|--------|--------|--------|
A|--------|--------|--------|--------|--------|--------|--------|--------|--------|
E|--------|--------|--------|--------|--------|--------|--------|--------|--------|


E|--------|--------|--------|--------|--------|--------|--------|--------|--------|
B|--------|--------|--------|--------|--------|--------|--------|--------|--------|
G|--------|--------|--------|--------|--------|--------|--------|--------|--------|
D|--------|--------|--------|--------|--------|--------|--------|--------|--------|
A|--------|--------|--------|--------|--------|--------|--------|--------|--------|
E|--------|--------|--------|--------|--------|--------|--------|--------|--------|


E|--------|--------|--------|--------|--------|--------|--------|--------|--------|
B|--------|--------|--------|--------|--------|--------|--------|--------|--------|
G|--------|--------|--------|--------|--------|--------|--------|--------|--------|
D|--------|--------|--------|--------|--------|--------|--------|--------|--------|
A|--------|--------|--------|--------|--------|--------|--------|--------|--------|
E|--------|--------|--------|--------|--------|--------|--------|--------|--------|


E|--------|--------|--------|--------|--------|--------|
B|--------|--------|--------|--------|--------|--------|
G|--------|--------|--------|--------|--------|--------|
D|--------|--------|--------|--------|--------|--------|
A|--------|--------|--------|--------|--------|--------|
E|--------|--------|--------|--------|--------|--------|





Track 4: Untitled

E|--------|--------|--------|--------|--------|--------|--------|--------|--------|
B|--------|--------|--------|--------|--------|--------|--------|--------|--------|
G|--------|--------|--------|--------|--------|--------|--------|--------|--------|
D|--------|--------|--------|--------|--------|--------|--------|--------|--------|
A|--------|--------|--------|--------|--------|--------|--------|--------|--------|
E|--------|--------|--------|--------|--------|--------|--------|--------|--------|


E|--------|--------|--------|--------|--------|--------|--------|--------|--------|
B|--------|--------|--------|--------|--------|--------|--------|--------|--------|
G|--------|--------|--------|--------|--------|--------|--------|--------|--------|
D|--------|--------|--------|--------|--------|--------|--------|--------|--------|
A|--------|--------|--------|--------|--------|--------|--------|--------|--------|
E|--------|--------|--------|--------|--------|--------|--------|--------|--------|


E|--------|--------|--------|--------|--------|--------|--------|--------|--------|
B|--------|--------|--------|--------|--------|--------|--------|--------|--------|
G|--------|--------|--------|--------|--------|--------|--------|--------|--------|
D|--------|--------|--------|--------|--------|--------|--------|--------|--------|
A|--------|--------|--------|--------|--------|--------|--------|--------|--------|
E|--------|--------|--------|--------|--------|--------|--------|--------|--------|


E|--------|--------|--------|--------|--------|--------|--------|--------|--------|
B|--------|--------|--------|--------|--------|--------|--------|--------|--------|
G|--------|--------|--------|--------|--------|--------|--------|--------|--------|
D|--------|--------|--------|--------|--------|--------|--------|--------|--------|
A|--------|--------|--------|--------|--------|--------|--------|--------|--------|
E|--------|--------|--------|--------|--------|--------|--------|--------|--------|


E|--------|--------|--------|--------|--------|--------|-0-----0-----------|------------------------|
B|--------|--------|--------|--------|--------|--------|-1-----1-----1-----|-0--1----1----1----1----|
G|--------|--------|--------|--------|--------|--------|-2-----2-----------|---------2----0---------|
D|--------|--------|--------|--------|--------|--------|-2-----2--------2--|-------------------3----|
A|--------|--------|--------|--------|--------|--------|-0-----0-----------|-0--0-------------------|
E|--------|--------|--------|--------|--------|--------|-------------------|------------------------|


E|-0-----0-----------|------------------------|-0-----0-----------|------------------------|
B|-1-----1-----1-----|-0--1----1---------1----|-1-----1-----1-----|-0--1----1----1----1----|
G|-2-----2-----------|---------2----0----2----|-2-----2-----------|---------2----0---------|
D|-2-----2--------2--|--------------2---------|-2-----2--------2--|-------------------3----|
A|-0-----0-----------|-0--0-------------------|-0-----0-----------|-0--0-------------------|
E|-------------------|------------------------|-------------------|------------------------|


E|-0-----0-----------|--------|--------|--------|--------|--------|--------|--------|
B|-1-----1-----1-----|--------|--------|--------|--------|--------|--------|--------|
G|-2-----2-----------|--------|--------|--------|--------|--------|--------|--------|
D|-2-----2--------2--|--------|--------|--------|--------|--------|--------|--------|
A|-0-----0-----------|--------|--------|--------|--------|--------|--------|--------|
E|-------------------|--------|--------|--------|--------|--------|--------|--------|


E|--------|--------|--------|--------|--------|--------|--------|--------|--------|
B|--------|--------|--------|--------|--------|--------|--------|--------|--------|
G|--------|--------|--------|--------|--------|--------|--------|--------|--------|
D|--------|--------|--------|--------|--------|--------|--------|--------|--------|
A|--------|--------|--------|--------|--------|--------|--------|--------|--------|
E|--------|--------|--------|--------|--------|--------|--------|--------|--------|


E|--------|--------|--------|--------|--------|--------|--------|--------|--------|
B|--------|--------|--------|--------|--------|--------|--------|--------|--------|
G|--------|--------|--------|--------|--------|--------|--------|--------|--------|
D|--------|--------|--------|--------|--------|--------|--------|--------|--------|
A|--------|--------|--------|--------|--------|--------|--------|--------|--------|
E|--------|--------|--------|--------|--------|--------|--------|--------|--------|


E|--------|--------|--------|--------|--------|--------|--------|--------|--------|
B|--------|--------|--------|--------|--------|--------|--------|--------|--------|
G|--------|--------|--------|--------|--------|--------|--------|--------|--------|
D|--------|--------|--------|--------|--------|--------|--------|--------|--------|
A|--------|--------|--------|--------|--------|--------|--------|--------|--------|
E|--------|--------|--------|--------|--------|--------|--------|--------|--------|


E|--------|--------|--------|--------|--------|--------|--------|--------|--------|
B|--------|--------|--------|--------|--------|--------|--------|--------|--------|
G|--------|--------|--------|--------|--------|--------|--------|--------|--------|
D|--------|--------|--------|--------|--------|--------|--------|--------|--------|
A|--------|--------|--------|--------|--------|--------|--------|--------|--------|
E|--------|--------|--------|--------|--------|--------|--------|--------|--------|


E|--------|--------|--------|--------|--------|--------|--------|--------|--------|
B|--------|--------|--------|--------|--------|--------|--------|--------|--------|
G|--------|--------|--------|--------|--------|--------|--------|--------|--------|
D|--------|--------|--------|--------|--------|--------|--------|--------|--------|
A|--------|--------|--------|--------|--------|--------|--------|--------|--------|
E|--------|--------|--------|--------|--------|--------|--------|--------|--------|


E|--------|--------|--------|--------|--------|--------|--------|--------|--------|
B|--------|--------|--------|--------|--------|--------|--------|--------|--------|
G|--------|--------|--------|--------|--------|--------|--------|--------|--------|
D|--------|--------|--------|--------|--------|--------|--------|--------|--------|
A|--------|--------|--------|--------|--------|--------|--------|--------|--------|
E|--------|--------|--------|--------|--------|--------|--------|--------|--------|


E|--------|--------|--------|--------|--------|--------|--------|--------|--------|
B|--------|--------|--------|--------|--------|--------|--------|--------|--------|
G|--------|--------|--------|--------|--------|--------|--------|--------|--------|
D|--------|--------|--------|--------|--------|--------|--------|--------|--------|
A|--------|--------|--------|--------|--------|--------|--------|--------|--------|
E|--------|--------|--------|--------|--------|--------|--------|--------|--------|


E|--------|--------|--------|--------|--------|--------|--------|--------|--------|
B|--------|--------|--------|--------|--------|--------|--------|--------|--------|
G|--------|--------|--------|--------|--------|--------|--------|--------|--------|
D|--------|--------|--------|--------|--------|--------|--------|--------|--------|
A|--------|--------|--------|--------|--------|--------|--------|--------|--------|
E|--------|--------|--------|--------|--------|--------|--------|--------|--------|


E|--------|--------|--------|--------|-0------|
B|--------|--------|--------|--------|-1------|
G|--------|--------|--------|--------|-2------|
D|--------|--------|--------|--------|-2------|
A|--------|--------|--------|--------|-0------|
E|--------|--------|--------|--------|--------|





Track 5: Untitled

E|--------|--------|--------|--------|--------|--------|--------|--------|--------|
B|--------|--------|--------|--------|--------|--------|--------|--------|--------|
G|--------|--------|--------|--------|--------|--------|--------|--------|--------|
D|--------|--------|--------|--------|--------|--------|--------|--------|--------|
A|--------|--------|--------|--------|--------|--------|--------|--------|--------|
E|--------|--------|--------|--------|--------|--------|--------|--------|--------|


E|--------|--------|--------|--------|--------|--------|--------|--------|--------|
B|--------|--------|--------|--------|--------|--------|--------|--------|--------|
G|--------|--------|--------|--------|--------|--------|--------|--------|--------|
D|--------|--------|--------|--------|--------|--------|--------|--------|--------|
A|--------|--------|--------|--------|--------|--------|--------|--------|--------|
E|--------|--------|--------|--------|--------|--------|--------|--------|--------|


E|--------|--------|--------|--------|--------|--------|--------|--------|--------|
B|--------|--------|--------|--------|--------|--------|--------|--------|--------|
G|--------|--------|--------|--------|--------|--------|--------|--------|--------|
D|--------|--------|--------|--------|--------|--------|--------|--------|--------|
A|--------|--------|--------|--------|--------|--------|--------|--------|--------|
E|--------|--------|--------|--------|--------|--------|--------|--------|--------|


E|--------|--------|--------|--------|--------|--------|--------|--------|--------|
B|--------|--------|--------|--------|--------|--------|--------|--------|--------|
G|--------|--------|--------|--------|--------|--------|--------|--------|--------|
D|--------|--------|--------|--------|--------|--------|--------|--------|--------|
A|--------|--------|--------|--------|--------|--------|--------|--------|--------|
E|--------|--------|--------|--------|--------|--------|--------|--------|--------|


E|--------|--------|--------|--------|--------|--------|--------|--------|--------|
B|--------|--------|--------|--------|--------|--------|--------|--------|--------|
G|--------|--------|--------|--------|--------|--------|--------|--------|--------|
D|--------|--------|--------|--------|--------|--------|--------|--------|--------|
A|--------|--------|--------|--------|--------|--------|--------|--------|--------|
E|--------|--------|--------|--------|--------|--------|--------|--------|--------|


E|--------|--------|--------|--------|--------|--------|---------------------|--------|
B|--------|--------|--------|--------|--------|--------|------1----1----1----|--------|
G|--------|--------|--------|--------|--------|-2------|-2----2----0---------|-2------|
D|--------|--------|--------|--------|--------|-2------|-2--------------3----|-2------|
A|--------|--------|--------|--------|--------|-0------|-0-------------------|-0------|
E|--------|--------|--------|--------|--------|--------|---------------------|--------|


E|---------------------|--------|--------|--------|--------|--------|--------|--------|
B|------1---------1----|--------|--------|--------|--------|--------|--------|--------|
G|-2----2----0----2----|--------|--------|--------|--------|--------|--------|--------|
D|-2---------2---------|--------|--------|--------|--------|--------|--------|--------|
A|-0-------------------|--------|--------|--------|--------|--------|--------|--------|
E|---------------------|--------|--------|--------|--------|--------|--------|--------|


E|--------|--------|--------|--------|--------|--------|--------|--------|--------|
B|--------|--------|--------|--------|--------|--------|--------|--------|--------|
G|--------|--------|--------|--------|--------|--------|--------|--------|--------|
D|--------|--------|--------|--------|--------|--------|--------|--------|--------|
A|--------|--------|--------|--------|--------|--------|--------|--------|--------|
E|--------|--------|--------|--------|--------|--------|--------|--------|--------|


E|--------|--------|--------|--------|--------|--------|--------|--------|--------|
B|--------|--------|--------|--------|--------|--------|--------|--------|--------|
G|--------|--------|--------|--------|--------|--------|--------|--------|--------|
D|--------|--------|--------|--------|--------|--------|--------|--------|--------|
A|--------|--------|--------|--------|--------|--------|--------|--------|--------|
E|--------|--------|--------|--------|--------|--------|--------|--------|--------|


E|--------|--------|--------|--------|--------|--------|--------|--------|--------|
B|--------|--------|--------|--------|--------|--------|--------|--------|--------|
G|--------|--------|--------|--------|--------|--------|--------|--------|--------|
D|--------|--------|--------|--------|--------|--------|--------|--------|--------|
A|--------|--------|--------|--------|--------|--------|--------|--------|--------|
E|--------|--------|--------|--------|--------|--------|--------|--------|--------|


E|--------|--------|--------|--------|--------|--------|--------|--------|--------|
B|--------|--------|--------|--------|--------|--------|--------|--------|--------|
G|--------|--------|--------|--------|--------|--------|--------|--------|--------|
D|--------|--------|--------|--------|--------|--------|--------|--------|--------|
A|--------|--------|--------|--------|--------|--------|--------|--------|--------|
E|--------|--------|--------|--------|--------|--------|--------|--------|--------|


E|--------|--------|--------|--------|--------|--------|--------|--------|--------|
B|--------|--------|--------|--------|--------|--------|--------|--------|--------|
G|--------|--------|--------|--------|--------|--------|--------|--------|--------|
D|--------|--------|--------|--------|--------|--------|--------|--------|--------|
A|--------|--------|--------|--------|--------|--------|--------|--------|--------|
E|--------|--------|--------|--------|--------|--------|--------|--------|--------|


E|--------|--------|--------|--------|--------|--------|--------|--------|--------|
B|--------|--------|--------|--------|--------|--------|--------|--------|--------|
G|--------|--------|--------|--------|--------|--------|--------|--------|--------|
D|--------|--------|--------|--------|--------|--------|--------|--------|--------|
A|--------|--------|--------|--------|--------|--------|--------|--------|--------|
E|--------|--------|--------|--------|--------|--------|--------|--------|--------|


E|--------|--------|--------|--------|--------|--------|--------|--------|--------|
B|--------|--------|--------|--------|--------|--------|--------|--------|--------|
G|--------|--------|--------|--------|--------|--------|--------|--------|--------|
D|--------|--------|--------|--------|--------|--------|--------|--------|--------|
A|--------|--------|--------|--------|--------|--------|--------|--------|--------|
E|--------|--------|--------|--------|--------|--------|--------|--------|--------|


E|--------|--------|--------|--------|--------|--------|--------|--------|--------|
B|--------|--------|--------|--------|--------|--------|--------|--------|--------|
G|--------|--------|--------|--------|--------|--------|--------|--------|--------|
D|--------|--------|--------|--------|--------|--------|--------|--------|--------|
A|--------|--------|--------|--------|--------|--------|--------|--------|--------|
E|--------|--------|--------|--------|--------|--------|--------|--------|--------|





Track 6: Untitled

E|--------|--------|--------|--------|--------|--------|--------|--------|--------|
B|--------|--------|--------|--------|--------|--------|--------|--------|--------|
G|--------|--------|--------|--------|--------|--------|--------|--------|--------|
D|--------|--------|--------|--------|--------|--------|--------|--------|--------|
A|--------|--------|--------|--------|--------|--------|--------|--------|--------|
E|--------|--------|--------|--------|--------|--------|--------|--------|--------|


E|--------|--------|--------|--------|--------|--------|--------|--------|--------|
B|--------|--------|--------|--------|--------|--------|--------|--------|--------|
G|--------|--------|--------|--------|--------|--------|--------|--------|--------|
D|--------|--------|--------|--------|--------|--------|--------|--------|--------|
A|--------|--------|--------|--------|--------|--------|--------|--------|--------|
E|--------|--------|--------|--------|--------|--------|--------|--------|--------|


E|--------|--------|--------|--------|--------|--------|--------|--------|--------|
B|--------|--------|--------|--------|--------|--------|--------|--------|--------|
G|--------|--------|--------|--------|--------|--------|--------|--------|--------|
D|--------|--------|--------|--------|--------|--------|--------|--------|--------|
A|--------|--------|--------|--------|--------|--------|--------|--------|--------|
E|--------|--------|--------|--------|--------|--------|--------|--------|--------|


E|--------|--------|--------|--------|--------|--------|--------|--------|--------|
B|--------|--------|--------|--------|--------|--------|--------|--------|--------|
G|--------|--------|--------|--------|--------|--------|--------|--------|--------|
D|--------|--------|--------|--------|--------|--------|--------|--------|--------|
A|--------|--------|--------|--------|--------|--------|--------|--------|--------|
E|--------|--------|--------|--------|--------|--------|--------|--------|--------|


E|--------|--------|--------|--------|--------|--------|--------|--------|--------|
B|--------|--------|--------|--------|--------|--------|--------|--------|--------|
G|--------|--------|--------|--------|--------|--------|--------|--------|--------|
D|--------|--------|--------|--------|--------|--------|--------|--------|--------|
A|--------|--------|--------|--------|--------|--------|--------|--------|--------|
E|--------|--------|--------|--------|--------|--------|--------|--------|--------|


E|--------|--------|--------|--------|--------|--------|--------|--------|--------|
B|--------|--------|--------|--------|--------|--------|--------|--------|--------|
G|--------|--------|--------|--------|--------|--------|--------|--------|--------|
D|--------|--------|--------|--------|--------|--------|--------|--------|--------|
A|--------|--------|--------|--------|--------|--------|--------|--------|--------|
E|--------|--------|--------|--------|--------|--------|--------|--------|--------|


E|--------|---------------------|--------|---------------------|-----------------------------------------|
B|--------|------1----1----1----|--------|------1---------1----|-----------------------------------------|
G|-2------|-2----2----0---------|-2------|-2----2----0----2----|-----------------------------------------|
D|-2------|-2--------------3----|-2------|-2---------2---------|-----------------------------------------|
A|-0------|-0-------------------|-0------|-0-------------------|-7---7--7--7---7--7--3---3--3--3---3--3--|
E|--------|---------------------|--------|---------------------|-----------------------------------------|


E|---------------------------------------|-----------------------------------------|
B|---------------------------------------|-----------------------------------------|
G|---------------------------------------|-----------------------------------------|
D|---------------------------------------|-----------------------------------------|
A|-5---5--5--2---5---7---7--10-7---7--7--|-7---7--7--7---7--7--3---3--3--3---3--3--|
E|---------------------------------------|-----------------------------------------|


E|-------------------------------------------------|--------------------12-12--------------------|
B|-------------------------------------------------|-12-12-12-12-15-12--------15-13-12-13-12-----|
G|-------------------------------------------------|------------------------------------------14-|
D|-------------------------------------------------|---------------------------------------------|
A|-5--5--5--5--2--2--5--5--7--7--7--10-7--7--7--7--|---------------------------------------------|
E|-------------------------------------------------|---------------------------------------------|


E|----------------------------------------|--------------------12-12--------------------|
B|--------------------12-12-12-15-12-12---|-12-12-12-12-15-12--------15-13-12-13-12-----|
G|-14-14-14-14-12-14----------------------|------------------------------------------14-|
D|----------------------------------------|---------------------------------------------|
A|----------------------------------------|---------------------------------------------|
E|----------------------------------------|---------------------------------------------|


E|----------------------------------------|--------------------12-12--------------------|
B|--------------------12-12-12-15-12-12---|-12-12-12-12-15-12--------15-13-12-13-12-----|
G|-14-14-14-14-12-14----------------------|------------------------------------------14-|
D|----------------------------------------|---------------------------------------------|
A|----------------------------------------|---------------------------------------------|
E|----------------------------------------|---------------------------------------------|


E|----------------------------------------|--------------------12-12--------------------|
B|--------------------12-12-12-15-12-12---|-12-12-12-12-15-12--------15-13-12-13-12-----|
G|-14-14-14-14-12-14----------------------|------------------------------------------14-|
D|----------------------------------------|---------------------------------------------|
A|----------------------------------------|---------------------------------------------|
E|----------------------------------------|---------------------------------------------|


E|----------------------------------------|--------|--------|--------|--------|--------|
B|--------------------12-12-12-15-12-12---|-12-----|-12-----|--------|--------|--------|
G|-14-14-14-14-12-14----------------------|--------|--------|--------|--------|--------|
D|----------------------------------------|--------|--------|--------|--------|--------|
A|----------------------------------------|--------|--------|--------|--------|--------|
E|----------------------------------------|--------|--------|--------|--------|--------|


E|--------|--------|--------|--------|--------|--------|--------|--------|--------|
B|--------|--------|--------|--------|--------|--------|--------|--------|--------|
G|--------|--------|--------|--------|--------|--------|--------|--------|--------|
D|--------|--------|--------|--------|--------|--------|--------|--------|--------|
A|--------|--------|--------|--------|--------|--------|--------|--------|--------|
E|--------|--------|--------|--------|--------|--------|--------|--------|--------|


E|--------|--------|--------|--------|--------|--------|--------|--------|--------|
B|--------|--------|--------|--------|--------|--------|--------|--------|--------|
G|--------|--------|--------|--------|--------|--------|--------|--------|--------|
D|--------|--------|--------|--------|--------|--------|--------|--------|--------|
A|--------|--------|--------|--------|--------|--------|--------|--------|--------|
E|--------|--------|--------|--------|--------|--------|--------|--------|--------|


E|--------|--------|--------|--------|--------|--------|--------|--------|--------|
B|--------|--------|--------|--------|--------|--------|--------|--------|--------|
G|--------|--------|--------|--------|--------|--------|--------|--------|--------|
D|--------|--------|--------|--------|--------|--------|--------|--------|--------|
A|--------|--------|--------|--------|--------|--------|--------|--------|--------|
E|--------|--------|--------|--------|--------|--------|--------|--------|--------|


E|--------|--------|--------|--------|--------|--------|--------|--------|--------|
B|--------|--------|--------|--------|--------|--------|--------|--------|--------|
G|--------|--------|--------|--------|--------|--------|--------|--------|--------|
D|--------|--------|--------|--------|--------|--------|--------|--------|--------|
A|--------|--------|--------|--------|--------|--------|--------|--------|--------|
E|--------|--------|--------|--------|--------|--------|--------|--------|--------|


E|--------|--------|--------|--------|--------|--------|--------|--------|--------|
B|--------|--------|--------|--------|--------|--------|--------|--------|--------|
G|--------|--------|--------|--------|--------|--------|--------|--------|--------|
D|--------|--------|--------|--------|--------|--------|--------|--------|--------|
A|--------|--------|--------|--------|--------|--------|--------|--------|--------|
E|--------|--------|--------|--------|--------|--------|--------|--------|--------|


E|--------|--------|--------|--------|--------|--------|--------|--------|--------|
B|--------|--------|--------|--------|--------|--------|--------|--------|--------|
G|--------|--------|--------|--------|--------|--------|--------|--------|--------|
D|--------|--------|--------|--------|--------|--------|--------|--------|--------|
A|--------|--------|--------|--------|--------|--------|--------|--------|--------|
E|--------|--------|--------|--------|--------|--------|--------|--------|--------|


E|--------|--------|--------|--------|
B|--------|--------|--------|--------|
G|--------|--------|--------|--------|
D|--------|--------|--------|--------|
A|--------|--------|--------|--------|
E|--------|--------|--------|--------|





Track 7: Untitled

E|--------|--------|--------|--------|--------|--------|--------|--------|--------|
B|--------|--------|--------|--------|--------|--------|--------|--------|--------|
G|--------|--------|--------|--------|--------|--------|--------|--------|--------|
D|--------|--------|--------|--------|--------|--------|--------|--------|--------|
A|--------|--------|--------|--------|--------|--------|--------|--------|--------|
E|--------|--------|--------|--------|--------|--------|--------|--------|--------|


E|--------|--------|--------|--------|--------|--------|--------|--------|--------|
B|--------|--------|--------|--------|--------|--------|--------|--------|--------|
G|--------|--------|--------|--------|--------|--------|--------|--------|--------|
D|--------|--------|--------|--------|--------|--------|--------|--------|--------|
A|--------|--------|--------|--------|--------|--------|--------|--------|--------|
E|--------|--------|--------|--------|--------|--------|--------|--------|--------|


E|--------|--------|--------|--------|--------|--------|--------|--------|--------|
B|--------|--------|--------|--------|--------|--------|--------|--------|--------|
G|--------|--------|--------|--------|--------|--------|--------|--------|--------|
D|--------|--------|--------|--------|--------|--------|--------|--------|--------|
A|--------|--------|--------|--------|--------|--------|--------|--------|--------|
E|--------|--------|--------|--------|--------|--------|--------|--------|--------|


E|--------|--------|--------|--------|--------|--------|--------|--------|--------|
B|--------|--------|--------|--------|--------|--------|--------|--------|--------|
G|--------|--------|--------|--------|--------|--------|--------|--------|--------|
D|--------|--------|--------|--------|--------|--------|--------|--------|--------|
A|--------|--------|--------|--------|--------|--------|--------|--------|--------|
E|--------|--------|--------|--------|--------|--------|--------|--------|--------|


E|--------|--------|--------|--------|--------|--------|--------|--------|--------|
B|--------|--------|--------|--------|--------|--------|--------|--------|--------|
G|--------|--------|--------|--------|--------|--------|--------|--------|--------|
D|--------|--------|--------|--------|--------|--------|--------|--------|--------|
A|--------|--------|--------|--------|--------|--------|--------|--------|--------|
E|--------|--------|--------|--------|--------|--------|--------|--------|--------|


E|--------|--------|--------|--------|--------|--------|--------|--------|--------|
B|--------|--------|--------|--------|--------|--------|--------|--------|--------|
G|--------|--------|--------|--------|--------|--------|--------|--------|--------|
D|--------|--------|--------|--------|--------|--------|--------|--------|--------|
A|--------|--------|--------|--------|--------|--------|--------|--------|--------|
E|--------|--------|--------|--------|--------|--------|--------|--------|--------|


E|--------|--------|--------|--------|--------|--------|--------|--------|--------|
B|--------|--------|--------|--------|--------|--------|--------|--------|--------|
G|--------|--------|--------|--------|--------|--------|--------|--------|--------|
D|--------|--------|--------|--------|--------|--------|--------|--------|--------|
A|--------|--------|--------|--------|--------|--------|--------|--------|--------|
E|--------|--------|--------|--------|--------|--------|--------|--------|--------|


E|--------|--------|--------|--------|--------|--------|--------|--------|--------|
B|--------|--------|--------|--------|--------|--------|--------|--------|--------|
G|--------|--------|--------|--------|--------|--------|--------|--------|--------|
D|--------|--------|--------|--------|--------|--------|--------|--------|--------|
A|--------|--------|--------|--------|--------|--------|--------|--------|--------|
E|--------|--------|--------|--------|--------|--------|--------|--------|--------|


E|--------|--------|--------|--------|--------|--------|--------|--------|--------|
B|--------|--------|--------|--------|--------|--------|--------|--------|--------|
G|-2------|--------|--------|--------|--------|--------|--------|--------|--------|
D|-2------|--------|--------|--------|--------|--------|--------|--------|--------|
A|-0------|--------|--------|--------|--------|--------|--------|--------|--------|
E|--------|--------|--------|--------|--------|--------|--------|--------|--------|


E|--------|--------|--------|--------|--------|--------|--------|--------|--------|
B|--------|--------|--------|--------|--------|--------|--------|--------|--------|
G|--------|--------|--------|--------|--------|--------|--------|--------|--------|
D|--------|--------|--------|--------|--------|--------|--------|--------|--------|
A|--------|--------|--------|--------|--------|--------|--------|--------|--------|
E|--------|--------|--------|--------|--------|--------|--------|--------|--------|


E|--------|--------|--------|--------|--------|--------|--------|--------|--------|
B|--------|--------|--------|--------|--------|--------|--------|--------|--------|
G|--------|--------|--------|--------|--------|--------|--------|--------|--------|
D|--------|--------|--------|--------|--------|--------|--------|--------|--------|
A|--------|--------|--------|--------|--------|--------|--------|--------|--------|
E|--------|--------|--------|--------|--------|--------|--------|--------|--------|


E|--------|--------|--------|--------|--------|--------|--------|--------|--------|
B|--------|--------|--------|--------|--------|--------|--------|--------|--------|
G|--------|--------|--------|--------|--------|--------|--------|--------|--------|
D|--------|--------|--------|--------|--------|--------|--------|--------|--------|
A|--------|--------|--------|--------|--------|--------|--------|--------|--------|
E|--------|--------|--------|--------|--------|--------|--------|--------|--------|


E|--------|--------|--------|--------|--------|--------|--------|--------|--------|
B|--------|--------|--------|--------|--------|--------|--------|--------|--------|
G|--------|--------|--------|--------|--------|--------|--------|--------|--------|
D|--------|--------|--------|--------|--------|--------|--------|--------|--------|
A|--------|--------|--------|--------|--------|--------|--------|--------|--------|
E|--------|--------|--------|--------|--------|--------|--------|--------|--------|


E|--------|--------|--------|--------|--------|--------|--------|--------|--------|
B|--------|--------|--------|--------|--------|--------|--------|--------|--------|
G|--------|--------|--------|--------|--------|--------|--------|--------|--------|
D|--------|--------|--------|--------|--------|--------|--------|--------|--------|
A|--------|--------|--------|--------|--------|--------|--------|--------|--------|
E|--------|--------|--------|--------|--------|--------|--------|--------|--------|


E|--------|--------|--------|--------|--------|--------|--------|
B|--------|--------|--------|--------|--------|--------|--------|
G|--------|--------|--------|--------|--------|--------|--------|
D|--------|--------|--------|--------|--------|--------|--------|
A|--------|--------|--------|--------|--------|--------|--------|
E|--------|--------|--------|--------|--------|--------|--------|





Track 8: Untitled

E|--------|--------|--------|--------|--------|--------|--------|--------|--------|
B|--------|--------|--------|--------|--------|--------|--------|--------|--------|
G|--------|--------|--------|--------|--------|--------|--------|--------|--------|
D|--------|--------|--------|--------|--------|--------|--------|--------|--------|
A|--------|--------|--------|--------|--------|--------|--------|--------|--------|
E|--------|--------|--------|--------|--------|--------|--------|--------|--------|


E|--------|--------|--------|--------|--------|--------|--------|--------|--------|
B|--------|--------|--------|--------|--------|--------|--------|--------|--------|
G|--------|--------|--------|--------|--------|--------|--------|--------|--------|
D|--------|--------|--------|--------|--------|--------|--------|--------|--------|
A|--------|--------|--------|--------|--------|--------|--------|--------|--------|
E|--------|--------|--------|--------|--------|--------|--------|--------|--------|


E|--------|--------|--------|--------|--------|--------|--------|--------|--------|
B|--------|--------|--------|--------|--------|--------|--------|--------|--------|
G|--------|--------|--------|--------|--------|--------|--------|--------|--------|
D|--------|--------|--------|--------|--------|--------|--------|--------|--------|
A|--------|--------|--------|--------|--------|--------|--------|--------|--------|
E|--------|--------|--------|--------|--------|--------|--------|--------|--------|


E|--------|--------|--------|--------|--------|--------|--------|--------|--------|
B|--------|--------|--------|--------|--------|--------|--------|--------|--------|
G|--------|--------|--------|--------|--------|--------|--------|--------|--------|
D|--------|--------|--------|--------|--------|--------|--------|--------|--------|
A|--------|--------|--------|--------|--------|--------|--------|--------|--------|
E|--------|--------|--------|--------|--------|--------|--------|--------|--------|


E|--------|--------|--------|--------|--------|--------|--------|--------|--------|
B|--------|--------|--------|--------|--------|--------|--------|--------|--------|
G|--------|--------|--------|--------|--------|--------|--------|--------|--------|
D|--------|--------|--------|--------|--------|--------|--------|--------|--------|
A|--------|--------|--------|--------|--------|--------|--------|--------|--------|
E|--------|--------|--------|--------|--------|--------|--------|--------|--------|


E|--------|--------|--------|--------|--------|--------|--------|--------|--------|
B|--------|--------|--------|--------|--------|--------|--------|--------|--------|
G|--------|--------|--------|--------|--------|--------|--------|--------|--------|
D|--------|--------|--------|--------|--------|--------|--------|--------|--------|
A|--------|--------|--------|--------|--------|--------|--------|--------|--------|
E|--------|--------|--------|--------|--------|--------|--------|--------|--------|


E|--------|--------|--------|--------|--------|--------|--------|--------|--------|
B|--------|--------|--------|--------|--------|--------|--------|--------|--------|
G|--------|--------|--------|--------|--------|--------|--------|--------|--------|
D|--------|--------|--------|--------|--------|--------|--------|--------|--------|
A|--------|--------|--------|--------|--------|--------|--------|--------|--------|
E|--------|--------|--------|--------|--------|--------|--------|--------|--------|


E|--------|--------|--------|--------|--------|--------|--------|--------|--------|
B|--------|--------|--------|--------|--------|--------|--------|--------|--------|
G|--------|--------|--------|--------|--------|--------|--------|--------|--------|
D|--------|--------|--------|--------|--------|--------|--------|--------|--------|
A|--------|--------|--------|--------|--------|--------|--------|--------|--------|
E|--------|--------|--------|--------|--------|--------|--------|--------|--------|


E|--------|--------|--------|--------|--------|--------|--------|--------|-0---------------------|
B|--------|--------|--------|--------|--------|--------|--------|--------|-----------------------|
G|--------|--------|--------|--------|--------|--------|--------|--------|---------2---2---2-----|
D|--------|--------|--------|--------|--------|--------|--------|--------|-----2-----------------|
A|--------|--------|--------|--------|--------|--------|--------|--------|-0---------------------|
E|--------|--------|--------|--------|--------|--------|--------|--------|-----------------------|


E|--------|-0---------------------|--------|-0---------------------|--------|-0---------------------|
B|--------|-----------------------|--------|-----------------------|--------|-----------------------|
G|-2------|---------2---2---2-----|-2------|---------2---2---2-----|-2------|---------2---2---2-----|
D|--------|-----2-----------------|--------|-----2-----------------|--------|-----2-----------------|
A|--------|-0---------------------|--------|-0---------------------|--------|-0---------------------|
E|--------|-----------------------|--------|-----------------------|--------|-----------------------|


E|--------|--------|--------|--------|--------|--------|--------|--------|--------|
B|--------|--------|--------|--------|--------|--------|--------|--------|--------|
G|-2------|--------|--------|--------|--------|--------|--------|--------|--------|
D|--------|--------|--------|--------|--------|--------|--------|--------|--------|
A|--------|--------|--------|--------|--------|--------|--------|--------|--------|
E|--------|--------|--------|--------|--------|--------|--------|--------|--------|


E|--------|--------|--------|--------|--------|--------|--------|--------|--------|
B|--------|--------|--------|--------|--------|--------|--------|--------|--------|
G|--------|--------|--------|--------|--------|--------|--------|--------|--------|
D|--------|--------|--------|--------|--------|--------|--------|--------|--------|
A|--------|--------|--------|--------|--------|--------|--------|--------|--------|
E|--------|--------|--------|--------|--------|--------|--------|--------|--------|


E|--------|--------|--------|--------|--------|--------|--------|--------|--------|
B|--------|--------|--------|--------|--------|--------|--------|--------|--------|
G|--------|--------|--------|--------|--------|--------|--------|--------|--------|
D|--------|--------|--------|--------|--------|--------|--------|--------|--------|
A|--------|--------|--------|--------|--------|--------|--------|--------|--------|
E|--------|--------|--------|--------|--------|--------|--------|--------|--------|


E|--------|--------|--------|--------|--------|--------|--------|--------|--------|
B|--------|--------|--------|--------|--------|--------|--------|--------|--------|
G|--------|--------|--------|--------|--------|--------|--------|--------|--------|
D|--------|--------|--------|--------|--------|--------|--------|--------|--------|
A|--------|--------|--------|--------|--------|--------|--------|--------|--------|
E|--------|--------|--------|--------|--------|--------|--------|--------|--------|


E|--------|--------|--------|--------|--------|--------|--------|--------|--------|
B|--------|--------|--------|--------|--------|--------|--------|--------|--------|
G|--------|--------|--------|--------|--------|--------|--------|--------|--------|
D|--------|--------|--------|--------|--------|--------|--------|--------|--------|
A|--------|--------|--------|--------|--------|--------|--------|--------|--------|
E|--------|--------|--------|--------|--------|--------|--------|--------|--------|


E|--------|
B|--------|
G|--------|
D|--------|
A|--------|
E|--------|





Track 9: Untitled

E|--------|--------|--------|--------|--------|--------|--------|--------|--------|
B|--------|--------|--------|--------|--------|--------|--------|--------|--------|
G|--------|--------|--------|--------|--------|--------|--------|--------|--------|
D|--------|--------|--------|--------|--------|--------|--------|--------|--------|
A|--------|--------|--------|--------|--------|--------|--------|--------|--------|
E|--------|--------|--------|--------|--------|--------|--------|--------|--------|


E|--------|--------|--------|--------|--------|--------|--------|--------|--------|
B|--------|--------|--------|--------|--------|--------|--------|--------|--------|
G|--------|--------|--------|--------|--------|--------|--------|--------|--------|
D|--------|--------|--------|--------|--------|--------|--------|--------|--------|
A|--------|--------|--------|--------|--------|--------|--------|--------|--------|
E|--------|--------|--------|--------|--------|--------|--------|--------|--------|


E|--------|--------|--------|--------|--------|--------|--------|--------|--------|
B|--------|--------|--------|--------|--------|--------|--------|--------|--------|
G|--------|--------|--------|--------|--------|--------|--------|--------|--------|
D|--------|--------|--------|--------|--------|--------|--------|--------|--------|
A|--------|--------|--------|--------|--------|--------|--------|--------|--------|
E|--------|--------|--------|--------|--------|--------|--------|--------|--------|


E|--------|--------|--------|--------|--------|--------|--------|--------|--------|
B|--------|--------|--------|--------|--------|--------|--------|--------|--------|
G|--------|--------|--------|--------|--------|--------|--------|--------|--------|
D|--------|--------|--------|--------|--------|--------|--------|--------|--------|
A|--------|--------|--------|--------|--------|--------|--------|--------|--------|
E|--------|--------|--------|--------|--------|--------|--------|--------|--------|


E|--------|--------|--------|--------|--------|--------|--------|--------|--------|
B|--------|--------|--------|--------|--------|--------|--------|--------|--------|
G|--------|--------|--------|--------|--------|--------|--------|--------|--------|
D|--------|--------|--------|--------|--------|--------|--------|--------|--------|
A|--------|--------|--------|--------|--------|--------|--------|--------|--------|
E|--------|--------|--------|--------|--------|--------|--------|--------|--------|


E|--------|--------|--------|--------|--------|--------|--------|--------|--------|
B|--------|--------|--------|--------|--------|--------|--------|--------|--------|
G|--------|--------|--------|--------|--------|--------|--------|--------|--------|
D|--------|--------|--------|--------|--------|--------|--------|--------|--------|
A|--------|--------|--------|--------|--------|--------|--------|--------|--------|
E|--------|--------|--------|--------|--------|--------|--------|--------|--------|


E|--------|--------|--------|--------|--------|--------|--------|--------|--------|
B|--------|--------|--------|--------|--------|--------|--------|--------|--------|
G|--------|--------|--------|--------|--------|--------|--------|--------|--------|
D|--------|--------|--------|--------|--------|--------|--------|--------|--------|
A|--------|--------|--------|--------|--------|--------|--------|--------|--------|
E|--------|--------|--------|--------|--------|--------|--------|--------|--------|


E|--------|--------|--------|--------|--------|--------|--------|--------|--------|
B|--------|--------|--------|--------|--------|--------|--------|--------|--------|
G|--------|--------|--------|--------|--------|--------|--------|--------|--------|
D|--------|--------|--------|--------|--------|--------|--------|--------|--------|
A|--------|--------|--------|--------|--------|--------|--------|--------|--------|
E|--------|--------|--------|--------|--------|--------|--------|--------|--------|


E|--------|--------|--------|--------|--------|--------|--------|--------|--------|
B|--------|--------|--------|--------|--------|--------|--------|--------|--------|
G|--------|--------|--------|--------|--------|--------|--------|--------|--------|
D|--------|--------|--------|--------|--------|--------|--------|--------|--------|
A|--------|--------|--------|--------|--------|--------|--------|--------|--------|
E|--------|--------|--------|--------|--------|--------|--------|--------|--------|


E|--------|--------|--------|--------|--------|--------|--------|-------------|--------|
B|--------|--------|--------|--------|--------|--------|--------|-12-----12---|-5------|
G|--------|--------|--------|--------|--------|--------|--------|-------------|--------|
D|--------|--------|--------|--------|--------|--------|--------|-------------|--------|
A|--------|--------|--------|--------|--------|--------|--------|-------------|--------|
E|--------|--------|--------|--------|--------|--------|--------|-------------|--------|


E|-------------|--------|-------------|--------|-------------|--------|--------|-----------------------|
B|-3------3----|-5------|-12-----12---|-5------|-3------3----|-5------|-0------|-0-------------3-------|
G|-------------|--------|-------------|--------|-------------|--------|--------|-----------4-------4---|
D|-------------|--------|-------------|--------|-------------|--------|--------|-------4---------------|
A|-------------|--------|-------------|--------|-------------|--------|--------|-----------------------|
E|-------------|--------|-------------|--------|-------------|--------|--------|-----------------------|


E|--------|-------------|--------|--------|--------|--------|--------|--------|--------|
B|--------|-------------|--------|--------|--------|--------|--------|--------|--------|
G|--------|-------------|--------|--------|--------|--------|--------|--------|--------|
D|-4------|-2-----0-----|--------|--------|--------|--------|--------|--------|--------|
A|--------|-------------|--------|--------|--------|--------|--------|--------|--------|
E|--------|-------------|--------|--------|--------|--------|--------|--------|--------|


E|--------|--------|--------|--------|--------|--------|--------|--------|--------|
B|--------|--------|--------|--------|--------|--------|--------|--------|--------|
G|--------|--------|--------|--------|--------|--------|--------|--------|--------|
D|--------|--------|--------|--------|--------|--------|--------|--------|--------|
A|--------|--------|--------|--------|--------|--------|--------|--------|--------|
E|--------|--------|--------|--------|--------|--------|--------|--------|--------|


E|--------|--------|--------|--------|--------|--------|--------|--------|--------|
B|--------|--------|--------|--------|--------|--------|--------|--------|--------|
G|--------|--------|--------|--------|--------|--------|--------|--------|--------|
D|--------|--------|--------|--------|--------|--------|--------|--------|--------|
A|--------|--------|--------|--------|--------|--------|--------|--------|--------|
E|--------|--------|--------|--------|--------|--------|--------|--------|--------|


E|--------|--------|--------|-----------------|-----------------|-----------------|
B|--------|--------|--------|-1-----1----1----|-3-----3----3----|-5-----5----5----|
G|--------|--------|--------|-2-----2----2----|-4-----4----4----|-5-----5----5----|
D|--------|--------|--------|-----------------|-----------------|-----------------|
A|--------|--------|--------|-----------------|-----------------|-----------------|
E|--------|--------|--------|-----------------|-----------------|-----------------|


E|-3-----1-----0----|--------|
B|-3-----1-----0----|--------|
G|-4-----2-----1----|--------|
D|------------------|--------|
A|------------------|--------|
E|------------------|--------|





Track 10: Untitled

E|--------|--------|--------|--------|--------|--------|--------|--------|--------|
B|--------|--------|--------|--------|--------|--------|--------|--------|--------|
G|--------|--------|--------|--------|--------|--------|--------|--------|--------|
D|--------|--------|--------|--------|--------|--------|--------|--------|--------|
A|--------|--------|--------|--------|--------|--------|--------|--------|--------|
E|--------|--------|--------|--------|--------|--------|--------|--------|--------|


E|--------|--------|--------|--------|--------|--------|--------|--------|--------|
B|--------|--------|--------|--------|--------|--------|--------|--------|--------|
G|--------|--------|--------|--------|--------|--------|--------|--------|--------|
D|--------|--------|--------|--------|--------|--------|--------|--------|--------|
A|--------|--------|--------|--------|--------|--------|--------|--------|--------|
E|--------|--------|--------|--------|--------|--------|--------|--------|--------|


E|--------|--------|--------|--------|--------|--------|--------|--------|--------|
B|--------|--------|--------|--------|--------|--------|--------|--------|--------|
G|--------|--------|--------|--------|--------|--------|--------|--------|--------|
D|--------|--------|--------|--------|--------|--------|--------|--------|--------|
A|--------|--------|--------|--------|--------|--------|--------|--------|--------|
E|--------|--------|--------|--------|--------|--------|--------|--------|--------|


E|--------|--------|--------|--------|--------|--------|--------|--------|--------|
B|--------|--------|--------|--------|--------|--------|--------|--------|--------|
G|--------|--------|--------|--------|--------|--------|--------|--------|--------|
D|--------|--------|--------|--------|--------|--------|--------|--------|--------|
A|--------|--------|--------|--------|--------|--------|--------|--------|--------|
E|--------|--------|--------|--------|--------|--------|--------|--------|--------|


E|--------|--------|--------|--------|--------|--------|--------|--------|--------|
B|--------|--------|--------|--------|--------|--------|--------|--------|--------|
G|--------|--------|--------|--------|--------|--------|--------|--------|--------|
D|--------|--------|--------|--------|--------|--------|--------|--------|--------|
A|--------|--------|--------|--------|--------|--------|--------|--------|--------|
E|--------|--------|--------|--------|--------|--------|--------|--------|--------|


E|--------|--------|--------|--------|--------|--------|--------|--------|--------|
B|--------|--------|--------|--------|--------|--------|--------|--------|--------|
G|--------|--------|--------|--------|--------|--------|--------|--------|--------|
D|--------|--------|--------|--------|--------|--------|--------|--------|--------|
A|--------|--------|--------|--------|--------|--------|--------|--------|--------|
E|--------|--------|--------|--------|--------|--------|--------|--------|--------|


E|--------|--------|--------|--------|--------|--------|--------|--------|--------|
B|--------|--------|--------|--------|--------|--------|--------|--------|--------|
G|--------|--------|--------|--------|--------|--------|--------|--------|--------|
D|--------|--------|--------|--------|--------|--------|--------|--------|--------|
A|--------|--------|--------|--------|--------|--------|--------|--------|--------|
E|--------|--------|--------|--------|--------|--------|--------|--------|--------|


E|--------|--------|--------|--------|--------|--------|--------|--------|--------|
B|--------|--------|--------|--------|--------|--------|--------|--------|--------|
G|--------|--------|--------|--------|--------|--------|--------|--------|--------|
D|--------|--------|--------|--------|--------|--------|--------|--------|--------|
A|--------|--------|--------|--------|--------|--------|--------|--------|--------|
E|--------|--------|--------|--------|--------|--------|--------|--------|--------|


E|--------|--------|--------|--------|--------|--------|--------|--------|--------|
B|--------|--------|--------|--------|--------|--------|--------|--------|--------|
G|--------|--------|--------|--------|--------|--------|--------|--------|--------|
D|--------|--------|--------|--------|--------|--------|--------|--------|--------|
A|--------|--------|--------|--------|--------|--------|--------|--------|--------|
E|--------|--------|--------|--------|--------|--------|--------|--------|--------|


E|--------|--------|--------|--------|--------|--------|--------|--------|--------|
B|--------|--------|--------|--------|--------|--------|--------|--------|--------|
G|--------|--------|--------|--------|--------|--------|--------|--------|--------|
D|--------|--------|--------|--------|--------|--------|--------|--------|--------|
A|--------|--------|--------|--------|--------|--------|--------|--------|--------|
E|--------|--------|--------|--------|--------|--------|--------|--------|--------|


E|--------|--------|--------|--------|--------|--------|--------|--------|--------|
B|--------|--------|--------|--------|--------|--------|--------|--------|--------|
G|--------|--------|--------|--------|--------|--------|--------|--------|--------|
D|--------|--------|--------|--------|--------|--------|--------|--------|--------|
A|--------|--------|--------|--------|--------|--------|--------|--------|--------|
E|--------|--------|--------|--------|--------|--------|--------|--------|--------|


E|--------|--------|--------|--------|--------|--------|--------|--------|--------|
B|--------|--------|--------|--------|--------|--------|--------|--------|--------|
G|--------|--------|--------|--------|--------|--------|--------|--------|--------|
D|--------|--------|--------|--------|--------|--------|--------|--------|--------|
A|--------|-2------|--------|--------|--------|--------|--------|--------|--------|
E|--------|--------|--------|--------|--------|--------|--------|--------|--------|


E|--------|--------|--------|--------|--------|--------|--------|--------|--------|
B|--------|--------|--------|--------|--------|--------|--------|--------|--------|
G|--------|--------|--------|--------|--------|--------|--------|--------|--------|
D|--------|--------|--------|--------|--------|--------|--------|--------|--------|
A|-2------|--------|--------|--------|--------|--------|--------|--------|--------|
E|--------|--------|--------|--------|--------|--------|--------|--------|--------|


E|--------|--------|--------|--------|--------|--------|--------|--------|--------|
B|--------|--------|--------|--------|--------|--------|--------|--------|--------|
G|--------|--------|--------|--------|--------|--------|--------|--------|--------|
D|--------|--------|--------|--------|--------|--------|--------|--------|--------|
A|--------|--------|--------|--------|--------|--------|--------|--------|--------|
E|--------|--------|--------|--------|--------|--------|--------|--------|--------|


E|--------|--------|--------|--------|--------|--------|--------|
B|--------|--------|--------|--------|--------|--------|--------|
G|--------|--------|--------|--------|--------|--------|--------|
D|--------|--------|--------|--------|--------|--------|--------|
A|--------|--------|--------|--------|--------|--------|--------|
E|--------|--------|--------|--------|--------|--------|--------|





Track 11: Untitled

E|--------|--------|--------|--------|--------|--------|--------|--------|--------|
B|--------|--------|--------|--------|--------|--------|--------|--------|--------|
G|--------|--------|--------|--------|--------|--------|--------|--------|--------|
D|--------|--------|--------|--------|--------|--------|--------|--------|--------|
A|--------|--------|--------|--------|--------|--------|--------|--------|--------|
E|--------|--------|--------|--------|--------|--------|--------|--------|--------|


E|--------|--------|--------|--------|--------|--------|--------|--------|--------|
B|--------|--------|--------|--------|--------|--------|--------|--------|--------|
G|--------|--------|--------|--------|--------|--------|--------|--------|--------|
D|--------|--------|--------|--------|--------|--------|--------|--------|--------|
A|--------|--------|--------|--------|--------|--------|--------|--------|--------|
E|--------|--------|--------|--------|--------|--------|--------|--------|--------|


E|--------|--------|--------|--------|--------|--------|--------|--------|--------|
B|--------|--------|--------|--------|--------|--------|--------|--------|--------|
G|--------|--------|--------|--------|--------|--------|--------|--------|--------|
D|--------|--------|--------|--------|--------|--------|--------|--------|--------|
A|--------|--------|--------|--------|--------|--------|--------|--------|--------|
E|--------|--------|--------|--------|--------|--------|--------|--------|--------|


E|--------|--------|--------|--------|--------|--------|--------|--------|--------|
B|--------|--------|--------|--------|--------|--------|--------|--------|--------|
G|--------|--------|--------|--------|--------|--------|--------|--------|--------|
D|--------|--------|--------|--------|--------|--------|--------|--------|--------|
A|--------|--------|--------|--------|--------|--------|--------|--------|--------|
E|--------|--------|--------|--------|--------|--------|--------|--------|--------|


E|--------|--------|--------|--------|--------|--------|--------|--------|--------|
B|--------|--------|--------|--------|--------|--------|--------|--------|--------|
G|--------|--------|--------|--------|--------|--------|--------|--------|--------|
D|--------|--------|--------|--------|--------|--------|--------|--------|--------|
A|--------|--------|--------|--------|--------|--------|--------|--------|--------|
E|--------|--------|--------|--------|--------|--------|--------|--------|--------|


E|--------|--------|--------|--------|--------|--------|--------|--------|--------|
B|--------|--------|--------|--------|--------|--------|--------|--------|--------|
G|--------|--------|--------|--------|--------|--------|--------|--------|--------|
D|--------|--------|--------|--------|--------|--------|--------|--------|--------|
A|--------|--------|--------|--------|--------|--------|--------|--------|--------|
E|--------|--------|--------|--------|--------|--------|--------|--------|--------|


E|--------|--------|--------|--------|--------|--------|--------|--------|--------|
B|--------|--------|--------|--------|--------|--------|--------|--------|--------|
G|--------|--------|--------|--------|--------|--------|--------|--------|--------|
D|--------|--------|--------|--------|--------|--------|--------|--------|--------|
A|--------|--------|--------|--------|--------|--------|--------|--------|--------|
E|--------|--------|--------|--------|--------|--------|--------|--------|--------|


E|--------|--------|--------|--------|--------|--------|--------|--------|--------|
B|--------|--------|--------|--------|--------|--------|--------|--------|--------|
G|--------|--------|--------|--------|--------|--------|--------|--------|--------|
D|--------|--------|--------|--------|--------|--------|--------|--------|--------|
A|--------|--------|--------|--------|--------|--------|--------|--------|--------|
E|--------|--------|--------|--------|--------|--------|--------|--------|--------|


E|--------|--------|--------|--------|--------|--------|--------|--------|--------|
B|--------|--------|--------|--------|--------|--------|--------|--------|--------|
G|--------|--------|--------|--------|--------|--------|--------|--------|--------|
D|--------|--------|--------|--------|--------|--------|--------|--------|--------|
A|--------|--------|--------|--------|--------|--------|--------|--------|--------|
E|--------|--------|--------|--------|--------|--------|--------|--------|--------|


E|--------|--------|--------|--------|--------|--------|--------|--------|--------|
B|--------|--------|--------|--------|--------|--------|--------|--------|--------|
G|--------|--------|--------|--------|--------|--------|--------|--------|--------|
D|--------|--------|--------|--------|--------|--------|--------|--------|--------|
A|--------|--------|--------|--------|--------|--------|--------|--------|--------|
E|--------|--------|--------|--------|--------|--------|--------|--------|--------|


E|--------|--------|--------|--------|--------|--------|--------|--------|--------|
B|--------|--------|--------|--------|--------|--------|--------|--------|--------|
G|--------|--------|--------|--------|--------|--------|--------|--------|--------|
D|--------|--------|--------|--------|--------|--------|--------|--------|--------|
A|--------|--------|--------|--------|--------|--------|--------|--------|--------|
E|--------|--------|--------|--------|--------|--------|--------|--------|--------|


E|--------|--------|--------|--------|--------|--------|--------|--------|--------|
B|--------|--------|--------|--------|--------|--------|--------|--------|--------|
G|--------|--------|--------|--------|--------|--------|--------|--------|--------|
D|--------|--------|--------|--------|--------|--------|--------|--------|--------|
A|--------|--------|--------|--------|--------|--------|--------|--------|--------|
E|--------|--------|--------|--------|--------|--------|--------|--------|--------|


E|--------|--------|--------|--------|--------|--------|--------|--------|--------|
B|--------|--------|--------|--------|--------|--------|--------|--------|--------|
G|--------|--------|--------|--------|--------|--------|--------|--------|--------|
D|--------|--------|--------|--------|--------|--------|--------|--------|--------|
A|--------|--------|--------|--------|--------|--------|--------|--------|--------|
E|--------|--------|--------|--------|--------|--------|--------|--------|--------|


E|--------|--------|--------|--------|--------|--------|--------|--------|--------|
B|--------|--------|--------|--------|--------|--------|--------|--------|--------|
G|--------|--------|--------|--------|--------|--------|--------|--------|--------|
D|--------|--------|--------|--------|--------|--------|--------|--------|--------|
A|--------|--------|--------|--------|--------|--------|--------|--------|--------|
E|--------|--------|--------|--------|--------|--------|--------|--------|--------|


E|--------|--------|--------|--------|--------|--------|--------|
B|--------|--------|--------|--------|--------|--------|-1------|
G|--------|--------|--------|--------|--------|--------|-2------|
D|--------|--------|--------|--------|--------|--------|--------|
A|--------|--------|--------|--------|--------|--------|--------|
E|--------|--------|--------|--------|--------|--------|--------|





Track 12: Untitled

G|---------------------|---------------------|---------------------|---------------------|
D|---------------------|---------------------|---------------------|---------------------|
A|-0----0----0----0----|-0----0----0----0----|---------------------|---------------------|
E|---------------------|---------------------|-3----3----3----3----|-3----3----3----3----|


G|---------------------|---------------------|---------------------|---------------------|
D|---------------------|---------------------|---------------------|---------------------|
A|-0----0----0----0----|-0----0----0----0----|---------------------|---------------------|
E|---------------------|---------------------|-3----3----3----3----|-3----3----3----3----|


G|-----2-------2-------2-------2---|-----2-------2-------2-------2---|---------------------------------|
D|---------------------------------|---------------------------------|-----5-------5-------5-------5---|
A|-0-------0-------0-------0-------|-0-------0-------0-------0-------|---------------------------------|
E|---------------------------------|---------------------------------|-3-------3-------3-------3-------|


G|---------------------------------|-----2-------2-------2-------2---|-----2-------2-------2-------2---|
D|-----5-------5-------5-------5---|---------------------------------|---------------------------------|
A|---------------------------------|-0-------0-------0-------0-------|-0-------0-------0-------0-------|
E|-3-------3-------3-------3-------|---------------------------------|---------------------------------|


G|---------------------------------|---------------------------------|-------------------------------------|
D|-----5-------5-------5-------5---|-----5-------5-------5-------5---|-----7--7------7-------7--7------7---|
A|---------------------------------|---------------------------------|-------------------------------------|
E|-3-------3-------3-------3-------|-3-------3-------3-------3-------|-5---------5-------5---------5-------|


G|-------------------------------------|-------------------------------------|-------------------------------------|
D|-----7--7------7-------7--7------7---|-----5--5------5-------5--5------5---|-----5--5------5-------5--5------5---|
A|-------------------------------------|-------------------------------------|-------------------------------------|
E|-5---------5-------5---------5-------|-3---------3-------3---------3-------|-3---------3-------3---------3-------|


G|-------------------------------------|-------------------------------------|-------------------------------------|
D|-----7--7------7-------7--7------7---|-----7--7------7-------7--7------7---|-----5--5------5-------5--5------5---|
A|-------------------------------------|-------------------------------------|-------------------------------------|
E|-5---------5-------5---------5-------|-5---------5-------5---------5-------|-3---------3-------3---------3-------|


G|-------------------------------------|-------------------------------------|-------------------------------------|
D|-----5--5------5-------5--5------5---|-----7--7------7-------7--7------7---|-----7--7------7-------7--7------7---|
A|-------------------------------------|-------------------------------------|-------------------------------------|
E|-3---------3-------3---------3-------|-5---------5-------5---------5-------|-5---------5-------5---------5-------|


G|-------------------------------------|-------------------------------------|-------------------------------------|
D|-----5--5------5-------5--5------5---|-----5--5------5-------5--5------5---|-----7--7------7-------7--7------7---|
A|-------------------------------------|-------------------------------------|-------------------------------------|
E|-3---------3-------3---------3-------|-3---------3-------3---------3-------|-5---------5-------5---------5-------|


G|-------------------------------------|-------------------------------------|-------------------------------------|
D|-----7--7------7-------7--7------7---|-----5--5------5-------5--5------5---|-----5--5------5-------5--5------5---|
A|-------------------------------------|-------------------------------------|-------------------------------------|
E|-5---------5-------5---------5-------|-3---------3-------3---------3-------|-3---------3-------3---------3-------|


G|--------|-------------|--------|-----------2---0-------|--------|-----------2-------2---|
D|--------|-------------|--------|-------------------3---|--------|---------------2-------|
A|-0------|-0------12---|-0------|-0-----0---------------|-0------|-0-----0---------------|
E|--------|-------------|--------|-----------------------|--------|-----------------------|


G|--------|-----------2---0-------|--------|-----------2-------2---|-------2---------2---|
D|--------|-------------------3---|--------|---------------2-------|---------------------|
A|-0------|-0-----0---------------|-0------|-0-----0---------------|-0---------0---------|
E|--------|-----------------------|--------|-----------------------|---------------------|


G|------2----0---------|-------2---------2---|------2---------2----|-------2---------2---|
D|----------------3----|---------------------|-----------2---------|---------------------|
A|-0-------------------|-0---------0---------|-0-------------------|-0---------0---------|
E|---------------------|---------------------|---------------------|---------------------|


G|------2----0---------|-------2---------2---|---------------------------------|---------2--------7---5-------|
D|----------------3----|---------------------|---------------------------------|-----2--------------------7---|
A|-0-------------------|-0---------0---------|-0---0---0---0---0---0---0---0---|-0------------7---------------|
E|---------------------|---------------------|---------------------------------|------------------------------|


G|---------2----0---------|---------2--------7---5-------|---------2---------2----|
D|-----2-------------3----|-----2--------------------7---|-----2--------2---------|
A|-0----------------------|-0------------7---------------|-0----------------------|
E|------------------------|------------------------------|------------------------|


G|---------2--------7---5-------|---------2----0---------|---------2--------7---5-------|
D|-----2--------------------7---|-----2-------------3----|-----2--------------------7---|
A|-0------------7---------------|-0----------------------|-0------------7---------------|
E|------------------------------|------------------------|------------------------------|


G|---------2---------2----|-------------|---------------------------|-------------|
D|-----2--------2---------|-------------|-------------------5-------|-------------|
A|-0----------------------|-7-----------|-5--------5---7-------7----|-7-----------|
E|------------------------|-------8-----|------7--------------------|-------8-----|


G|---------------------------|-------------------------------------------------|-------------------------------------------------|
D|-------------------5-------|-------------------------------------------------|----------------------------------5--------------|
A|-5--------5---7-------7----|-7--7--7--7--7--7--7--7--------------------------|-5--5--5--5--------5--5--7--7--7-----7--7--7--7--|
E|------7--------------------|-------------------------8--8--8--8--8--8--8--8--|-------------7--7--------------------------------|


G|-------------------------------------------------|-------------------------------------------------|
D|-------------------------------------------------|----------------------------------5--------------|
A|-7--7--7--7--7--7--7--7--------------------------|-5--5--5--5--------5--5--7--7--7-----7--7--7--7--|
E|-------------------------8--8--8--8--8--8--8--8--|-------------7--7--------------------------------|


G|-------------------------------------------------|-------------------------------------------------|
D|-------------------------------------------------|----------------------------------5--------------|
A|-7--7--7--7--7--7--7--7--------------------------|-5--5--5--5--------5--5--7--7--7-----7--7--7--7--|
E|-------------------------8--8--8--8--8--8--8--8--|-------------7--7--------------------------------|


G|-------------------------------------------------|-------------------------------------------------|
D|-------------------------------------------------|----------------------------------5--------------|
A|-7--7--7--7--7--7--7--7--------------------------|-5--5--5--5--------5--5--7--7--7-----7--7--7--7--|
E|-------------------------8--8--8--8--8--8--8--8--|-------------7--7--------------------------------|


G|--------|-----------------|---------------------|---------------------------|---------------------|
D|--------|-----------------|---------------------|-----------3---2---3---2---|---------------------|
A|-7------|-5-----3----2----|-0----0----0----0----|---------------------------|-0----0----0----0----|
E|--------|-----------------|---------------------|-3----3--------------------|---------------------|


G|------------------------|---------------------|---------------------------|---------------------|
D|------------------------|---------------------|-----------3---2---3---2---|---------------------|
A|-------------------0----|-0----0----0----0----|---------------------------|-0----0----0----0----|
E|-3----3----3---5--------|---------------------|-3----3--------------------|---------------------|


G|------------------------|---------------------|---------------------------|---------------------|
D|------------------------|---------------------|-----------3---2---3---2---|---------------------|
A|-------------------0----|-0----0----0----0----|---------------------------|-0----0----0----0----|
E|-3----3----3---5--------|---------------------|-3----3--------------------|---------------------|


G|------------------------|---------------------|---------------------------|---------------------|
D|------------------------|---------------------|-----------3---2---3---2---|---------------------|
A|-------------------0----|-0----0----0----0----|---------------------------|-0----0----0----0----|
E|-3----3----3---5--------|---------------------|-3----3--------------------|---------------------|


G|------------------------|---------------------|---------------------------|---------------------|
D|------------------------|---------------------|-----------3---2---3---2---|---------------------|
A|-------------------0----|-0----0----0----0----|---------------------------|-0----0----0----0----|
E|-3----3----3---5--------|---------------------|-3----3--------------------|---------------------|


G|------------------------|---------------------|---------------------------|---------------------|
D|------------------------|---------------------|-----------3---2---3---2---|---------------------|
A|-------------------0----|-0----0----0----0----|---------------------------|-0----0----0----0----|
E|-3----3----3---5--------|---------------------|-3----3--------------------|---------------------|


G|------------------------|--------|--------|--------|-----------------------|-----------------------4--4----------------|
D|------------------------|--------|--------|--------|-----------------------|-------4--4--------4-------------4--4------|
A|-------------------0----|-2------|-2------|--------|-2-----2---2---2---2---|-2--2--------2--2--------------------------|
E|-3----3----3---5--------|--------|--------|-2------|-----------------------|-------------------------------------------|


G|---------------------------4--4------------|-----------------------4--4----------------|
D|-------4--4--------------------------------|-------4--4--------4-------------4--4------|
A|-----------------4---2--2--------2---------|-2--2--------2--2--------------------------|
E|-2--2--------2-----------------------3--2--|-------------------------------------------|


G|-----------------------3-----|-----------------------4--4----------------|---------------------------4--4------------|
D|-------------------4---------|-------4--4--------4-------------4--4------|-------4--4--------------------------------|
A|-------------4--4------------|-2--2--------2--2--------------------------|-----------------4---2--2--------2---------|
E|-2--2--2--2------------------|-------------------------------------------|-2--2--------2-----------------------3--2--|


G|-----------------------4--4----------------|-----------------------------|-----------------------4--4----------------|
D|-------4--4--------4-------------4--4------|-------------0--0------------|-------4--4--------4-------------4--4------|
A|-2--2--------2--2--------------------------|-------------------4---2-----|-2--2--------2--2--------------------------|
E|-------------------------------------------|-2--2--2--2------------------|-------------------------------------------|


G|---------------------------4--4------------|-----------------------4--4----------------|
D|-------4--4--------------------------------|-------4--4--------4-------------4--4------|
A|-----------------4---2--2--------2---------|-2--2--------2--2--------------------------|
E|-2--2--------2-----------------------3--2--|-------------------------------------------|


G|-----------------------3-----|-----------------------4--4----------------|---------------------------4--4------------|
D|-------------------4---------|-------4--4--------4-------------4--4------|-------4--4--------------------------------|
A|-------------4--4------------|-2--2--------2--2--------------------------|-----------------4---2--2--------2---------|
E|-2--2--2--2------------------|-------------------------------------------|-2--2--------2-----------------------3--2--|


G|-----------------------4--4----------------|-----------------------------|---------------------------------|
D|-------4--4--------4-------------4--4------|-------------0--0------------|-------------14--14--14--14--14--|
A|-2--2--------2--2--------------------------|-------------------4---2-----|-12--12--12----------------------|
E|-------------------------------------------|-2--2--2--2------------------|---------------------------------|


G|---------------------------------|---------------------------------|---------------------------------|
D|-12--12--12--15--15--14--14--14--|-------------14--14--14--14--14--|-12--12--12--15--15--14--14--14--|
A|---------------------------------|-12--12--12----------------------|---------------------------------|
E|---------------------------------|---------------------------------|---------------------------------|


G|---------------------------------|---------------------------------|---------------------------------|
D|-------------14--14--14--14--14--|-12--12--12--15--15--14--14--14--|-------------14--14--14--14--14--|
A|-12--12--12----------------------|---------------------------------|-12--12--12----------------------|
E|---------------------------------|---------------------------------|---------------------------------|


G|---------------------------------|---------------------------------|---------------------------------|
D|-12--12--12--15--15--14--14--14--|-------------14--14--14--14--14--|-12--12--12--15--15--14--14--14--|
A|---------------------------------|-12--12--12----------------------|---------------------------------|
E|---------------------------------|---------------------------------|---------------------------------|


G|---------------------------------|---------------------------------|---------------------------------|
D|-------------14--14--14--14--14--|-12--12--12--15--15--14--14--14--|-------------14--14--14--14--14--|
A|-12--12--12----------------------|---------------------------------|-12--12--12----------------------|
E|---------------------------------|---------------------------------|---------------------------------|


G|---------------------------------|---------------------------------|---------------------------------|
D|-12--12--12--15--15--14--14--14--|-------------14--14--14--14--14--|-12--12--12--15--15--14--14--14--|
A|---------------------------------|-12--12--12----------------------|---------------------------------|
E|---------------------------------|---------------------------------|---------------------------------|


G|--------|
D|--------|
A|-12-----|
E|--------|