Site menu:

    

Browse: 0-9 A B C D E F G H I J K L N O P Q R S T U V W X Y Z

afi - midnight sun:



Title: Midnight Sun
Artist: 
Album: Black Sails In The Sunset
Author: AFI


Track 1: Jade Intro

E|--------|--------|--------|--------12--|-12-----14---|-14-----15---|-15-----12---|
B|--------|--------|--------|------------|--------0----|-0------0----|-0------12---|
G|--------|--------|--------|------------|-------------|-------------|-------------|
D|--------|--------|--------|------------|-------------|-------------|-------------|
A|--------|--------|--------|------------|-------------|-------------|-------------|
E|--------|--------|--------|------------|-------------|-------------|-------------|


E|-12-----|-14-----------|-15-----|-15-----7---|-7------|-7------|-7-------------------------|
B|-12-----|-----15-----15|-15-----|-17---------|--------|--------|---------------------------|
G|--------|--------------|--------|------------|--------|--------|-------------------9-------|
D|--------|--------------|--------|------------|--------|--------|-------9--9--9--9--9-------|
A|--------|--------------|--------|------------|--------|--------|-------7--7--7--7--7-------|
E|--------|--------------|--------|------------|--------|--------|-------------------7-------|


E|-------------------------------------------------|---------------------------------------------|
B|-------------------------------------------------|---------------------------------------------|
G|-------------------------------------------------|---------------------------------------------|
D|----9--9--9--7--7--7--7--9--9--9--9--9--9--9--9--|-------------------------------------10------|
A|----7--7--7--5--5--5--5--7--7--7--7--7--7--7--7--|-8--8--8--8--8--8--8--8--10-10-10-10-10------|
E|-------------------------------------------------|-6--6--6--6--6--6--6--6--8--8--8--8--8-------|


E|-------------------------9--9--9--9--9--9--9---|-10-10-10-10-10-10-10-10---------------------|
B|-------------------------9--9--9--9--9--9--9---|-10-10-10-10-10-10-10-10---------------------|
G|-------------------------10-10-10-10-10-10-10--|-12-12-12-12-12-12-12-12-------------9-------|
D|-------------------------11-11-11-11-11-11-11--|-12-12-12-12-12-12-12-12-9--9--9--9--9-------|
A|----10-10-10-9--9--9--9--11-11-11-11-11-11-11--|-10-10-10-10-10-10-10-10-7--7--7--7--7-------|
E|----8--8--8--7--7--7--7--9--9--9--9--9--9--9---|-10-10-10-10-10-10-10-10-------------7-------|


E|-------------------------------------------------|---------------------------------------------|
B|-------------------------------------------------|---------------------------------------------|
G|-------------------------------------------------|---------------------------------------------|
D|----9--9--9--7--7--7--7--9--9--9--9--9--9--9--9--|-------------------------------------10------|
A|----7--7--7--5--5--5--5--7--7--7--7--7--7--7--7--|-8--8--8--8--8--8--8--8--10-10-10-10-10------|
E|-------------------------------------------------|-6--6--6--6--6--6--6--6--8--8--8--8--8-------|


E|-------------------------9--9--9--9--9--9--9---|-10-10-10-10-10-10-10-10-7---7--7--7--7--7--7--|
B|-------------------------9--9--9--9--9--9--9---|-10-10-10-10-10-10-10-10-7---7--7--7--7--7--7--|
G|-------------------------10-10-10-10-10-10-10--|-12-12-12-12-12-12-12-12-9---9--9--9--9--9--9--|
D|-------------------------11-11-11-11-11-11-11--|-12-12-12-12-12-12-12-12-9---9--9--9--9--9--9--|
A|----10-10-10-9--9--9--9--11-11-11-11-11-11-11--|-10-10-10-10-10-10-10-10-7---7--7--7--7--7--7--|
E|----8--8--8--7--7--7--7--9--9--9--9--9--9--9---|-10-10-10-10-10-10-10-10-7---7--7--7--7--7--7--|


E|-7---7--7--7--7--7--7----------------------|---------------------7---7--7--7--7--7--7--|
B|-7---7--7--7--7--7--7--6---6--5---5--5--5--|-8---8--7---7--7--7--7---7--7--7--7--7--7--|
G|-9---9--9--9--9--9--9--5---5--5---5--5--5--|-7---7--7---7--7--7--9---9--9--9--9--9--9--|
D|-10--10-10-10-10-10-10-7---7--7---7--7--7--|-9---9--9---9--9--9--9---9--9--9--9--9--9--|
A|-7---7--7--7--7--7--7--7---7--7---7--7--7--|-9---9--9---9--9--9--7---7--7--7--7--7--7--|
E|-7---7--7--7--7--7--7--5---5--5---5--5--5--|-7---7--7---7--7--7--7---7--7--7--7--7--7--|


E|-7---7--7--7--7--7--7----------------------|-----------------------------------------|
B|-7---7--7--7--7--7--7--6---6--5---5--5--5--|-8---8--7---7--7--7----------------------|
G|-9---9--9--9--9--9--9--5---5--5---5--5--5--|-7---7--7---7--7--7--------------9-------|
D|-10--10-10-10-10-10-10-7---7--7---7--7--7--|-9---9--9---9--9--9--9--9--9--9--9-------|
A|-7---7--7--7--7--7--7--7---7--7---7--7--7--|-9---9--9---9--9--9--7--7--7--7--7-------|
E|-7---7--7--7--7--7--7--5---5--5---5--5--5--|-7---7--7---7--7--7--------------7-------|


E|-------------------------------------------------|---------------------------------------------|
B|-------------------------------------------------|---------------------------------------------|
G|-------------------------------------------------|---------------------------------------------|
D|----9--9--9--7--7--7--7--9--9--9--9--9--9--9--9--|-------------------------------------10------|
A|----7--7--7--5--5--5--5--7--7--7--7--7--7--7--7--|-8--8--8--8--8--8--8--8--10-10-10-10-10------|
E|-------------------------------------------------|-6--6--6--6--6--6--6--6--8--8--8--8--8-------|


E|-------------------------9--9--9--9--9--9--9---|-10-10-10-10-10-10-10-10---------------------|
B|-------------------------9--9--9--9--9--9--9---|-10-10-10-10-10-10-10-10---------------------|
G|-------------------------10-10-10-10-10-10-10--|-12-12-12-12-12-12-12-12-------------9-------|
D|-------------------------11-11-11-11-11-11-11--|-12-12-12-12-12-12-12-12-9--9--9--9--9-------|
A|----10-10-10-9--9--9--9--11-11-11-11-11-11-11--|-10-10-10-10-10-10-10-10-7--7--7--7--7-------|
E|----8--8--8--7--7--7--7--9--9--9--9--9--9--9---|-10-10-10-10-10-10-10-10-------------7-------|


E|-------------------------------------------------|---------------------------------------------|
B|-------------------------------------------------|---------------------------------------------|
G|-------------------------------------------------|---------------------------------------------|
D|----9--9--9--7--7--7--7--9--9--9--9--9--9--9--9--|-------------------------------------10------|
A|----7--7--7--5--5--5--5--7--7--7--7--7--7--7--7--|-8--8--8--8--8--8--8--8--10-10-10-10-10------|
E|-------------------------------------------------|-6--6--6--6--6--6--6--6--8--8--8--8--8-------|


E|-------------------------9--9--9--9--9--9--9---|-10-10-10-10-10-10-10-10-7---7--7--7--7--7--7--|
B|-------------------------9--9--9--9--9--9--9---|-10-10-10-10-10-10-10-10-7---7--7--7--7--7--7--|
G|-------------------------10-10-10-10-10-10-10--|-12-12-12-12-12-12-12-12-9---9--9--9--9--9--9--|
D|-------------------------11-11-11-11-11-11-11--|-12-12-12-12-12-12-12-12-9---9--9--9--9--9--9--|
A|----10-10-10-9--9--9--9--11-11-11-11-11-11-11--|-10-10-10-10-10-10-10-10-7---7--7--7--7--7--7--|
E|----8--8--8--7--7--7--7--9--9--9--9--9--9--9---|-10-10-10-10-10-10-10-10-7---7--7--7--7--7--7--|


E|-7---7--7--7--7--7--7----------------------|---------------------7---7--7--7--7--7--7--|
B|-7---7--7--7--7--7--7--6---6--5---5--5--5--|-8---8--7---7--7--7--7---7--7--7--7--7--7--|
G|-9---9--9--9--9--9--9--5---5--5---5--5--5--|-7---7--7---7--7--7--9---9--9--9--9--9--9--|
D|-10--10-10-10-10-10-10-7---7--7---7--7--7--|-9---9--9---9--9--9--9---9--9--9--9--9--9--|
A|-7---7--7--7--7--7--7--7---7--7---7--7--7--|-9---9--9---9--9--9--7---7--7--7--7--7--7--|
E|-7---7--7--7--7--7--7--5---5--5---5--5--5--|-7---7--7---7--7--7--7---7--7--7--7--7--7--|


E|-7---7--7--7--7--7--7----------------------|---------------------7---7--7--7--7--7--7--|
B|-7---7--7--7--7--7--7--6---6--5---5--5--5--|-8---8--7---7--7--7--7---7--7--7--7--7--7--|
G|-9---9--9--9--9--9--9--5---5--5---5--5--5--|-7---7--7---7--7--7--9---9--9--9--9--9--9--|
D|-10--10-10-10-10-10-10-7---7--7---7--7--7--|-9---9--9---9--9--9--9---9--9--9--9--9--9--|
A|-7---7--7--7--7--7--7--7---7--7---7--7--7--|-9---9--9---9--9--9--7---7--7--7--7--7--7--|
E|-7---7--7--7--7--7--7--5---5--5---5--5--5--|-7---7--7---7--7--7--7---7--7--7--7--7--7--|


E|-7---7--7--7--7--7--7----------------------|---------------------7---7--7--7--7--7--7--|
B|-7---7--7--7--7--7--7--6---6--5---5--5--5--|-8---8--7---7--7--7--7---7--7--7--7--7--7--|
G|-9---9--9--9--9--9--9--5---5--5---5--5--5--|-7---7--7---7--7--7--9---9--9--9--9--9--9--|
D|-10--10-10-10-10-10-10-7---7--7---7--7--7--|-9---9--9---9--9--9--9---9--9--9--9--9--9--|
A|-7---7--7--7--7--7--7--7---7--7---7--7--7--|-9---9--9---9--9--9--7---7--7--7--7--7--7--|
E|-7---7--7--7--7--7--7--5---5--5---5--5--5--|-7---7--7---7--7--7--7---7--7--7--7--7--7--|


E|-7---7--7--7--7--7--7----------------------|---------------------7---7--7--5--5--5--7--|
B|-7---7--7--7--7--7--7--6---6--5---5--5--5--|-8---8--7---7--7--7--7---7--7--5--5--5--7--|
G|-9---9--9--9--9--9--9--5---5--5---5--5--5--|-7---7--7---7--7--7--9---9--9--7--7--7--9--|
D|-10--10-10-10-10-10-10-7---7--7---7--7--7--|-9---9--9---9--9--9--9---9--9--7--7--7--9--|
A|-7---7--7--7--7--7--7--7---7--7---7--7--7--|-9---9--9---9--9--9--7---7--7--5--5--5--7--|
E|-7---7--7--7--7--7--7--5---5--5---5--5--5--|-7---7--7---7--7--7--7---7--7--5--5--5--7--|


E|----7--7--7--5--5--5--7--7--7--7--7--7--7--7--7--|-------------------------8---8--8--6--6--6--8--|
B|----7--7--7--7--7--7--7--7--7--7--7--7--7--7--7--|-------------------------8---8--8--6--6--6--8--|
G|----9--9--9--7--7--7--9--9--9--9--9--9--9--9--9--|-12-12-12-12-12-12-12-12-9---9--9--7--7--7--9--|
D|----9--9--9--7--7--7--9--9--9--9--9--9--9--9--9--|-------------------------10--10-10-8--8--8--10-|
A|----7--7--7--5--5--5--7--7--7--7--7--7--7--7--7--|-10-10-10-10-10-10-10-10-10--10-10-8--8--8--10-|
E|----7--7--7--5--5--5--7--7--7--7--7--7--7--7--7--|-10-10-10-10-9--9--9--9--8---8--8--6--6--6--8--|


E|----8--8--8--7--7--7--9--9--9--9--9--9--9--9--9--|-------------------------7---7--7--5--5--5--7--|
B|----8--8--8--7--7--7--9--9--9--9--9--9--9--9--9--|-------------------------7---7--7--5--5--5--7--|
G|----9--9--9--8--8--8--10-10-10-10-10-10-10-10-10-|-12-12-12-12-12-12-12-12-9---9--9--7--7--7--9--|
D|----10-10-10-9--9--9--11-11-11-11-11-11-11-11-11-|-------------------------9---9--9--7--7--7--9--|
A|----10-10-10-9--9--9--11-11-11-11-11-11-11-11-11-|-10-10-10-10-10-10-10-10-7---7--7--5--5--5--7--|
E|----8--8--8--7--7--7--9--9--9--9--9--9--9--9--9--|-10-10-10-10-9--9--9--9--7---7--7--5--5--5--7--|


E|----7--7--7--5--5--5--7--7--7--7--7--7--7--7--7--|-------------------------8---8--8--6--6--6--8--|
B|----7--7--7--7--7--7--7--7--7--7--7--7--7--7--7--|-------------------------8---8--8--6--6--6--8--|
G|----9--9--9--7--7--7--9--9--9--9--9--9--9--9--9--|-12-12-12-12-12-12-12-12-9---9--9--7--7--7--9--|
D|----9--9--9--7--7--7--9--9--9--9--9--9--9--9--9--|-------------------------10--10-10-8--8--8--10-|
A|----7--7--7--5--5--5--7--7--7--7--7--7--7--7--7--|-10-10-10-10-10-10-10-10-10--10-10-8--8--8--10-|
E|----7--7--7--5--5--5--7--7--7--7--7--7--7--7--7--|-10-10-10-10-9--9--9--9--8---8--8--6--6--6--8--|


E|----8--8--8--7--7--7--9--9--9--9--9--9--9--9---|---------------------------------|
B|----8--8--8--7--7--7--9--9--9--9--9--9--9--9---|---------------------------------|
G|----9--9--9--8--8--8--10-10-10-10-10-10-10-10--|-10--10--10--10--10--10--10--10--|
D|----10-10-10-9--9--9--11-11-11-11-11-11-11-11--|-12--12--12--12--12--12--12--12--|
A|----10-10-10-9--9--9--11-11-11-11-11-11-11-11--|-12--12--11--11--12--12--11--11--|
E|----8--8--8--7--7--7--9--9--9--9--9--9--9--9---|-10--10--9---9---10--10--9---9---|


E|---------------------------------|--------|--------|--------|--------|--------|--------|
B|---------------------------------|--------|--------|--------|--------|--------|--------|
G|-10--10--10--10--10--10--10--10--|--------|--------|--------|--------|--------|--------|
D|-12--12--12--12--12--12--12--12--|--------|--------|--------|--------|--------|--------|
A|-12--12--11--11--12--12--11--11--|--------|--------|--------|--------|--------|--------|
E|-10--10--9---9---10--10--9---9---|--------|--------|--------|--------|--------|--------|


E|--------|--------|-7---7--7--7--7--7--7--7---7--7--7--7--7--7--|-----------------------------------------|
B|--------|--------|-7---7--7--7--7--7--7--7---7--7--7--7--7--7--|-6---6--5---5--5--5--8---8--7---7--7--7--|
G|--------|--------|-9---9--9--9--9--9--9--9---9--9--9--9--9--9--|-5---5--5---5--5--5--7---7--7---7--7--7--|
D|--------|--------|-9---9--9--9--9--9--9--10--10-10-10-10-10-10-|-7---7--7---7--7--7--9---9--9---9--9--9--|
A|--------|--------|-7---7--7--7--7--7--7--7---7--7--7--7--7--7--|-7---7--7---7--7--7--9---9--9---9--9--9--|
E|--------|--------|-7---7--7--7--7--7--7--7---7--7--7--7--7--7--|-5---5--5---5--5--5--7---7--7---7--7--7--|


E|-7---7--7--7--7--7--7--7---7--7--7--7--7--7--|-----------------------------------------|
B|-7---7--7--7--7--7--7--7---7--7--7--7--7--7--|-6---6--5---5--5--5--8---8--7---7--7--7--|
G|-9---9--9--9--9--9--9--9---9--9--9--9--9--9--|-5---5--5---5--5--5--7---7--7---7--7--7--|
D|-9---9--9--9--9--9--9--10--10-10-10-10-10-10-|-7---7--7---7--7--7--9---9--9---9--9--9--|
A|-7---7--7--7--7--7--7--7---7--7--7--7--7--7--|-7---7--7---7--7--7--9---9--9---9--9--9--|
E|-7---7--7--7--7--7--7--7---7--7--7--7--7--7--|-5---5--5---5--5--5--7---7--7---7--7--7--|


E|-7---7--7--7--7--7--7--7---7--7--7--7--7--7--|-----------------------------------------|
B|-7---7--7--7--7--7--7--7---7--7--7--7--7--7--|-6---6--5---5--5--5--8---8--7---7--7--7--|
G|-9---9--9--9--9--9--9--9---9--9--9--9--9--9--|-5---5--5---5--5--5--7---7--7---7--7--7--|
D|-9---9--9--9--9--9--9--10--10-10-10-10-10-10-|-7---7--7---7--7--7--9---9--9---9--9--9--|
A|-7---7--7--7--7--7--7--7---7--7--7--7--7--7--|-7---7--7---7--7--7--9---9--9---9--9--9--|
E|-7---7--7--7--7--7--7--7---7--7--7--7--7--7--|-5---5--5---5--5--5--7---7--7---7--7--7--|


E|-7---7--7--7--7--7--7--7---7--7--7--7--7--7--|-----------------------------------------|
B|-7---7--7--7--7--7--7--7---7--7--7--7--7--7--|-6---6--5---5--5--5--8---8--7---7--7--7--|
G|-9---9--9--9--9--9--9--9---9--9--9--9--9--9--|-5---5--5---5--5--5--7---7--7---7--7--7--|
D|-9---9--9--9--9--9--9--10--10-10-10-10-10-10-|-7---7--7---7--7--7--9---9--9---9--9--9--|
A|-7---7--7--7--7--7--7--7---7--7--7--7--7--7--|-7---7--7---7--7--7--9---9--9---9--9--9--|
E|-7---7--7--7--7--7--7--7---7--7--7--7--7--7--|-5---5--5---5--5--5--7---7--7---7--7--7--|


E|-12-----|-12-----|-12-----|-12-----|-12-----|
B|-12-----|--------|--------|--------|--------|
G|-12-----|--------|--------|--------|--------|
D|-14-----|--------|--------|--------|--------|
A|-14-----|--------|--------|--------|--------|
E|-12-----|--------|--------|--------|--------|





Track 2: Jade Verse

E|--------|--------|--------|--------|--------|--------|--------|--------|--------|
B|--------|--------|--------|--------|--------|--------|--------|--------|--------|
G|--------|--------|--------|--------|--------|--------|--------|--------|--------|
D|--------|--------|--------|--------|--------|--------|--------|--------|--------|
A|--------|--------|--------|--------|--------|--------|--------|--------|--------|
E|--------|--------|--------|--------|--------|--------|--------|--------|--------|


E|--------|--------|--------|--------|--------|--------|--------|--------|--------|
B|--------|--------|--------|--------|--------|--------|--------|--------|--------|
G|--------|--------|--------|--------|--------|--------|--------|--------|--------|
D|--------|--------|--------|--------|--------|--------|--------|--------|--------|
A|--------|--------|--------|--------|--------|--------|--------|--------|--------|
E|--------|--------|--------|--------|--------|--------|--------|--------|--------|


E|--------|--------|--------|--------|--------|--------|--------|--------|--------|
B|--------|--------|--------|--------|--------|--------|--------|--------|--------|
G|--------|--------|--------|--------|--------|--------|--------|--------|--------|
D|--------|--------|--------|--------|--------|--------|--------|--------|--------|
A|--------|--------|--------|--------|--------|--------|--------|--------|--------|
E|--------|--------|--------|--------|--------|--------|--------|--------|--------|


E|--------|--------|--------|--------|--------|--------|--------|--------|--------|
B|--------|--------|--------|--------|--------|--------|--------|--------|--------|
G|--------|--------|--------|--------|--------|--------|--------|--------|--------|
D|--------|--------|--------|--------|--------|--------|--------|--------|--------|
A|--------|--------|--------|--------|--------|--------|--------|--------|--------|
E|--------|--------|--------|--------|--------|--------|--------|--------|--------|


E|--------|--------|--------|--------|--------|--------|--------|--------|--------|
B|--------|--------|--------|--------|--------|--------|--------|--------|--------|
G|--------|--------|--------|--------|--------|--------|--------|--------|--------|
D|--------|--------|--------|--------|--------|--------|--------|--------|--------|
A|--------|--------|--------|--------|--------|--------|--------|--------|--------|
E|--------|--------|--------|--------|--------|--------|--------|--------|--------|


E|--------|--------|--------|--------|--------|--------|-------------------------------------------------|
B|--------|--------|--------|--------|--------|--------|-------------------------------------------------|
G|--------|--------|--------|--------|--------|--------|-9--9--9--9--9--9--9--9--9--9--9--9--9--9--9--9--|
D|--------|--------|--------|--------|--------|--------|-7--7--7--7--7--7--7--7--10-10-10-10-10-10-10-10-|
A|--------|--------|--------|--------|--------|--------|-7--7--7--7--7--7--7--7--7--7--7--7--7--7--7--7--|
E|--------|--------|--------|--------|--------|--------|-------------------------------------------------|


E|-------------------------------------------------|-------------------------------------------------|
B|-------------------------------------------------|-------------------------------------------------|
G|-10-10-10-9--9--9--9--9--12-12-12-11-11-11-11-11-|-9--9--9--9--9--9--9--9--9--9--9--9--9--9--9--9--|
D|-8--8--8--7--7--7--7--7--10-10-10-9--9--9--9--9--|-7--7--7--7--7--7--7--7--10-10-10-10-10-10-10-10-|
A|-8--8--8-----------------10-10-10----------------|-7--7--7--7--7--7--7--7--7--7--7--7--7--7--7--7--|
E|-5--5--5--5--5--5--5--5--7--7--7--7--7--7--7--7--|-------------------------------------------------|


E|-------------------------------------------------|-------------------------------------------------|
B|-------------------------------------------------|-------------------------------------------------|
G|-10-10-10-9--9--9--9--9--12-12-12-11-11-11-11-11-|-9--9--9--9--9--9--9--9--9--9--9--9--9--9--9--9--|
D|-8--8--8--7--7--7--7--7--10-10-10-9--9--9--9--9--|-7--7--7--7--7--7--7--7--10-10-10-10-10-10-10-10-|
A|-8--8--8-----------------10-10-10----------------|-7--7--7--7--7--7--7--7--7--7--7--7--7--7--7--7--|
E|-5--5--5--5--5--5--5--5--7--7--7--7--7--7--7--7--|-------------------------------------------------|


E|-------------------------------------------------|-------------------------------------------------|
B|-------------------------------------------------|-------------------------------------------------|
G|-10-10-10-9--9--9--9--9--12-12-12-11-11-11-11-11-|-9--9--9--9--9--9--9--9--9--9--9--9--9--9--9--9--|
D|-8--8--8--7--7--7--7--7--10-10-10-9--9--9--9--9--|-7--7--7--7--7--7--7--7--10-10-10-10-10-10-10-10-|
A|-8--8--8-----------------10-10-10----------------|-7--7--7--7--7--7--7--7--7--7--7--7--7--7--7--7--|
E|-5--5--5--5--5--5--5--5--7--7--7--7--7--7--7--7--|-------------------------------------------------|


E|-----------------------------------------------|--------|--------|--------|--------|
B|-----------------------------------------------|--------|--------|--------|--------|
G|-10-10-10-10-9--9--9--9--12-12-12-12-11-11-11--|--------|--------|--------|--------|
D|-8--8--8--8--7--7--7--7--10-10-10-10-9--9--9---|--------|--------|--------|--------|
A|-8--8--8--8--------------10-10-10-10-----------|--------|--------|--------|--------|
E|-5--5--5--5--5--5--5--5--7--7--7--7--7--7--7---|--------|--------|--------|--------|


E|--------|--------|--------|--------|--------|--------|--------|--------|--------|
B|--------|--------|--------|--------|--------|--------|--------|--------|--------|
G|--------|--------|--------|--------|--------|--------|--------|--------|--------|
D|--------|--------|--------|--------|--------|--------|--------|--------|--------|
A|--------|--------|--------|--------|--------|--------|--------|--------|--------|
E|--------|--------|--------|--------|--------|--------|--------|--------|--------|





Track 3: Opening

E|--------|--------|--------|--------|--------|--------|--------|--------|--------|
B|-0------|-0------|-0------|-0------|--------|--------|--------|--------|--------|
F|-0------|-0------|-0------|-0------|--------|--------|--------|--------|--------|
C|-0------|-0------|-0------|-0------|--------|--------|--------|--------|--------|


E|--------|--------|--------|--------|-------------|--------|--------|--------|--------|
B|--------|--------|--------|--------|-------------|--------|--------|--------|--------|
F|--------|--------|--------|--------|-------------|--------|--------|--------|--------|
C|--------|--------|--------|--------|-------------|--------|--------|--------|--------|


E|--------|--------|--------|--------|--------|--------|--------|--------|--------|
B|--------|--------|--------|--------|--------|--------|--------|--------|--------|
F|--------|--------|--------|--------|--------|--------|--------|--------|--------|
C|--------|--------|--------|--------|--------|--------|--------|--------|--------|


E|--------|--------|--------|--------|--------|--------|--------|--------|--------|
B|--------|--------|--------|--------|--------|--------|--------|--------|--------|
F|--------|--------|--------|--------|--------|--------|--------|--------|--------|
C|--------|--------|--------|--------|--------|--------|--------|--------|--------|


E|--------|--------|--------|--------|--------|--------|--------|--------|--------|
B|--------|--------|--------|--------|--------|--------|--------|--------|--------|
F|--------|--------|--------|--------|--------|--------|--------|--------|--------|
C|--------|--------|--------|--------|--------|--------|--------|--------|--------|


E|--------|--------|--------|--------|--------|--------|--------|--------|--------|
B|--------|--------|--------|--------|--------|--------|--------|--------|--------|
F|--------|--------|--------|--------|--------|--------|--------|--------|--------|
C|--------|--------|--------|--------|--------|--------|--------|--------|--------|


E|--------|--------|--------|--------|--------|--------|--------|--------|--------|
B|--------|--------|--------|--------|--------|--------|--------|--------|--------|
F|--------|--------|--------|--------|--------|--------|--------|--------|--------|
C|--------|--------|--------|--------|--------|--------|--------|--------|--------|


E|--------|--------|--------|--------|--------|--------|--------|--------|--------|
B|--------|--------|--------|--------|--------|--------|--------|--------|--------|
F|--------|--------|--------|--------|--------|--------|--------|--------|--------|
C|--------|--------|--------|--------|--------|--------|--------|--------|--------|





Track 4: Untitled

G|--------|--------|--------|--------|--------|--------|--------|--------|--------|
D|--------|--------|--------|--------|--------|--------|--------|--------|--------|
A|--------|--------|--------|--------|--------|--------|--------|--------|--------|
E|--------|--------|--------|--------|--------|--------|--------|--------|--------|


G|--------|--------|--------|--------|---------------------------|-------------------------------------------------|
D|--------|--------|--------|--------|---------------------------|-------------------------------------------------|
A|--------|--------|--------|--------|-------7--7--7--7--7--7----|----7--7--7--5--5--5--5--7--7--7--7--7--7--------|
E|--------|--------|--------|--------|---------------------------|-------------------------------------------5--5--|


G|---------------------------------------------|-------------------------------------------------|
D|---------------------------------------------|-------------------------------------------------|
A|---------------------------------------------|-------------------------------------------------|
E|-6--6--6--6--6--6--6--6--8--8--8--8--8--8----|----8--8--8--7--7--7--7--9--9--9--9--9--9--9--9--|


G|---------------------------------------------|-------------------------------------------------|
D|---------------------------------------------|-------------------------------------------------|
A|-10-10-10-10-10-10-10-10-7--7--7--7--7--7----|----7--7--7--5--5--5--5--7--7--7--7--7--7--------|
E|---------------------------------------------|-------------------------------------------5--5--|


G|---------------------------------------------|-------------------------------------------------|
D|---------------------------------------------|-------------------------------------------------|
A|---------------------------------------------|-------------------------------------------------|
E|-6--6--6--6--6--6--6--6--8--8--8--8--8--8----|----8--8--8--7--7--7--7--9--9--9--9--9--9--9--9--|


G|-----------------------------------------------|---------------------------------------------|
D|-----------------------------------------------|---------------------------------------------|
A|-10-10-10-10-10-10-10-10-----------------------|-3---3--3--3--3--3--3--0---0--0--0--0--0--0--|
E|-------------------------0---0--0--0--0--0--0--|---------------------------------------------|


G|-----------------------------------------------|---------------------------------------------|
D|-----------------------------------------------|---------------------------------------------|
A|-2--2--2--2--2--2--2--2------------------------|-3---3--3--3--3--3--3--0---0--0--0--0--0--0--|
E|-------------------------0---0--0--0--0--0--0--|---------------------------------------------|


G|---------------------------------------------|-------------------------------------------------|
D|---------------------------------------------|-------------------------------------------------|
A|-2--2--2--2--2--2--2--2--7--7--7--7--7--7----|----7--7--7--5--5--5--5--7--7--7--7--7--7--------|
E|---------------------------------------------|-------------------------------------------5--5--|


G|---------------------------------------------|-------------------------------------------------|
D|---------------------------------------------|-------------------------------------------------|
A|---------------------------------------------|-------------------------------------------------|
E|-6--6--6--6--6--6--6--6--8--8--8--8--8--8----|----8--8--8--7--7--7--7--9--9--9--9--9--9--9--9--|


G|---------------------------------------------|-------------------------------------------------|
D|---------------------------------------------|-------------------------------------------------|
A|-10-10-10-10-10-10-10-10-7--7--7--7--7--7----|----7--7--7--5--5--5--5--7--7--7--7--7--7--------|
E|---------------------------------------------|-------------------------------------------5--5--|


G|---------------------------------------------|-------------------------------------------------|
D|---------------------------------------------|-------------------------------------------------|
A|---------------------------------------------|-------------------------------------------------|
E|-6--6--6--6--6--6--6--6--8--8--8--8--8--8----|----8--8--8--7--7--7--7--9--9--9--9--9--9--9--9--|


G|-----------------------------------------------|---------------------------------------------|
D|-----------------------------------------------|---------------------------------------------|
A|-10-10-10-10-10-10-10-10-----------------------|-3---3--3--3--3--3--3--0---0--0--0--0--0--0--|
E|-------------------------0---0--0--0--0--0--0--|---------------------------------------------|


G|-----------------------------------------------|---------------------------------------------|
D|-----------------------------------------------|---------------------------------------------|
A|-2--2--2--2--2--2--2--2------------------------|-3---3--3--3--3--3--3--0---0--0--0--0--0--0--|
E|-------------------------0---0--0--0--0--0--0--|---------------------------------------------|


G|-----------------------------------------------|---------------------------------------------|
D|-----------------------------------------------|---------------------------------------------|
A|-2--2--2--2--2--2--2--2------------------------|-3---3--3--3--3--3--3--0---0--0--0--0--0--0--|
E|-------------------------0---0--0--0--0--0--0--|---------------------------------------------|


G|-----------------------------------------------|---------------------------------------------|
D|-----------------------------------------------|---------------------------------------------|
A|-2--2--2--2--2--2--2--2------------------------|-3---3--3--3--3--3--3--0---0--0--0--0--0--0--|
E|-------------------------0---0--0--0--0--0--0--|---------------------------------------------|


G|-----------------------------------------------|-------------------------------------------------|
D|-----------------------------------------------|-------------------------------------------------|
A|-2--2--2--2--2--2--2--2--7---7--7--5--5--5--7--|----7--7--7--5--5--5--7--7--7--7--7--7--7--7--7--|
E|-----------------------------------------------|-------------------------------------------------|


G|-----------------------------------------------|-------------------------------------------------|
D|-----------------------------------------------|-------------------------------------------------|
A|-----------------------------------------------|-------------------------------------------------|
E|-6--6--6--6--6--6--6--6--8---8--8--6--6--6--8--|----8--8--8--7--7--7--9--9--9--9--9--9--9--9--9--|


G|-----------------------------------------------|-------------------------------------------------|
D|-----------------------------------------------|-------------------------------------------------|
A|-10-10-10-10-10-10-10-10-7---7--7--5--5--5--7--|----7--7--7--5--5--5--7--7--7--7--7--7--7--7--7--|
E|-----------------------------------------------|-------------------------------------------------|


G|-----------------------------------------------|-------------------------------------------------|
D|-----------------------------------------------|-------------------------------------------------|
A|-----------------------------------------------|-------------------------------------------------|
E|-6--6--6--6--6--6--6--6--8---8--8--6--6--6--8--|----8--8--8--7--7--7--9--9--9--9--9--9--9--9--9--|


G|-------------------------------------------------|-------------------------------------------------|
D|-------------------------------------------------|-------------------------------------------------|
A|-10-10-10-10-10-10-10-10-10-10-10-10-10-10-10-10-|-10-10-10-10-10-10-10-10-10-10-10-10-10-10-10-10-|
E|-------------------------------------------------|-------------------------------------------------|


G|--------|--------|--------|--------|--------|--------|--------|--------|---------------------------------------------|
D|--------|--------|--------|--------|--------|--------|--------|--------|---------------------------------------------|
A|--------|--------|--------|--------|--------|--------|--------|--------|-----------------------3---3--3--3--3--3--3--|
E|--------|--------|--------|--------|--------|--------|--------|--------|-0---0--0--0--0--0--0------------------------|


G|-----------------------------------------------|---------------------------------------------|
D|-----------------------------------------------|---------------------------------------------|
A|-0---0--0--0--0--0--0--2--2--2--2--2--2--2--2--|-----------------------3---3--3--3--3--3--3--|
E|-----------------------------------------------|-0---0--0--0--0--0--0------------------------|


G|-----------------------------------------------|---------------------------------------------|
D|-----------------------------------------------|---------------------------------------------|
A|-0---0--0--0--0--0--0--2--2--2--2--2--2--2--2--|-----------------------3---3--3--3--3--3--3--|
E|-----------------------------------------------|-0---0--0--0--0--0--0------------------------|


G|-----------------------------------------------|---------------------------------------------|
D|-----------------------------------------------|---------------------------------------------|
A|-0---0--0--0--0--0--0--2--2--2--2--2--2--2--2--|-----------------------3---3--3--3--3--3--3--|
E|-----------------------------------------------|-0---0--0--0--0--0--0------------------------|


G|-----------------------------------------------|-------------|--------|--------|
D|-----------------------------------------------|-------------|--------|--------|
A|-0---0--0--0--0--0--0--2--2--2--2--2--2--2--2--|-------------|--------|--------|
E|-----------------------------------------------|-12----------|--------|--------|


G|--------|--------|
D|--------|--------|
A|--------|--------|
E|--------|--------|