Site menu:

    

Browse: 0-9 A B C D E F G H I J K L N O P Q R S T U V W X Y Z

36 crazyfists - the heart and the shape:



Title: The Heart and the Shape
Artist: 
Album: A Snow Capped Romance
Author: 36 Crazyfists


Track 1: Guitar 1

D|---------------------------------|---------------------------------|---------------------------------|
A|---------------------------------|---------------------------------|---------------------------------|
F|-----10-9---9----10-9---9----9---|-----10-9---9--------10-9---9----|-----10-9---9----10-9---9----9---|
C|-0---0--0---0----0--0---0----0---|-8---8--8---8----7---7--7---7----|-0---0--0---0----0--0---0----0---|
G|---------------------------------|---------------------------------|---------------------------------|
C|---------------------------------|---------------------------------|---------------------------------|


D|---------------------------------|-----------------------------------------|-------------------------------------------|
A|---------------------------------|-----------------------------------------|-------------------------------------------|
F|-----10-9---9--------10-9---9----|-----------------------------------------|-----10-10-10-10--10-10-10-10-10--10-9--9--|
C|-8---8--8---8----7---7--7---7----|-0---3--2--0--2---0--3--2--0--2---0------|-8---8--8--8--8---8--8--7--7--7---7--7--7--|
G|---------------------------------|-0---3--2--0--2---0--3--2--0--2---0--3---|-8---8--8--8--8---8--8--7--7--7---7--7--7--|
C|---------------------------------|-0---3--2--0--2---0--3--2--0--2---0------|-8---8--8--8--8---8--8--7--7--7---7--7--7--|


D|-----------------------------------------|-------------------------------------------|
A|-----------------------------------------|-------------------------------------------|
F|-----------------------------------------|-----10-10-10-10--10-10-10-10-10--10-9--9--|
C|-0---3--2--0--2---0--3--2--0--2---0------|-8---8--8--8--8---8--8--7--7--7---7--7--7--|
G|-0---3--2--0--2---0--3--2--0--2---0--3---|-8---8--8--8--8---8--8--7--7--7---7--7--7--|
C|-0---3--2--0--2---0--3--2--0--2---0------|-8---8--8--8--8---8--8--7--7--7---7--7--7--|


D|-----------------------------|-----------------------------|-----------------------------|
A|-----------------------------|-----------------------------|-----------------------------|
F|-----------------------------|-----------------------------|-----------------------------|
C|-8---------------------------|-8---------------------------|-8---------------------------|
G|-8----0---0----0--0--0---0---|-8----0---0----0---0--0--0---|-8----0---0----0--0--0---0---|
C|-8----0---0----0--0--0---0---|-8----0---0----0---0--0--0---|-8----0---0----0--0--0---0---|


D|-------------|-----------------------------|-----------------------------|-----------------------------|
A|-------------|-----------------------------|-----------------------------|-----------------------------|
F|-------------|-----------------------------|-----------------------------|-----------------------------|
C|-8-----7-----|-8---------------------------|-8---------------------------|-8---------------------------|
G|-8-----7-----|-8----0---0----0--0--0---0---|-8----0---0----0---0--0--0---|-8----0---0----0--0--0---0---|
C|-8-----7-----|-8----0---0----0--0--0---0---|-8----0---0----0---0--0--0---|-8----0---0----0--0--0---0---|


D|-------------|---------------------------------|---------------------------------|
A|-------------|---------------------------------|---------------------------------|
F|-------------|-----10-9---9----10-9---9----9---|-----10-9---9--------10-9---9----|
C|-8-----7-----|-0---0--0---0----0--0---0----0---|-8---8--8---8----7---7--7---7----|
G|-8-----7-----|---------------------------------|---------------------------------|
C|-8-----7-----|---------------------------------|---------------------------------|


D|---------------------------------|---------------------------------|-----------------------------------------|
A|---------------------------------|---------------------------------|-----------------------------------------|
F|-----10-9---9----10-9---9----9---|-----10-9---9--------10-9---9----|-----------------------------------------|
C|-0---0--0---0----0--0---0----0---|-8---8--8---8----7---7--7---7----|-0---3--2--0--2---0--3--2--0--2---0------|
G|---------------------------------|---------------------------------|-0---3--2--0--2---0--3--2--0--2---0--3---|
C|---------------------------------|---------------------------------|-0---3--2--0--2---0--3--2--0--2---0------|


D|-------------------------------------------|-----------------------------------------|
A|-------------------------------------------|-----------------------------------------|
F|-----10-10-10-10--10-10-10-10-10--10-9--9--|-----------------------------------------|
C|-8---8--8--8--8---8--8--7--7--7---7--7--7--|-0---3--2--0--2---0--3--2--0--2---0------|
G|-8---8--8--8--8---8--8--7--7--7---7--7--7--|-0---3--2--0--2---0--3--2--0--2---0--3---|
C|-8---8--8--8--8---8--8--7--7--7---7--7--7--|-0---3--2--0--2---0--3--2--0--2---0------|


D|-------------------------------------------|-------------------------------------|
A|-------------------------------------------|-------------------------------------|
F|-----10-10-10-10--10-10-10-10-10--10-9--9--|-------------------------------------|
C|-8---8--8--8--8---8--8--7--7--7---7--7--7--|-8--0---0---0--8--0---0---0--7---8---|
G|-8---8--8--8--8---8--8--7--7--7---7--7--7--|-8--0---0---0--8--0---0---0--7---8---|
C|-8---8--8--8--8---8--8--7--7--7---7--7--7--|-8--0---0---0--8--0---0---0--7---8---|


D|-------------------------------------|-------------------------------------|-------------------------------------|
A|-------------------------------------|-------------------------------------|-------------------------------------|
F|-------------------------------------|-------------------------------------|-------------------------------------|
C|-8--0---0---0--8--0---0---0--3---5---|-----------------------------7---8---|-8--0---0---0--8--0---0---0--3---5---|
G|-8--0---0---0--8--0---0---0--3---5---|-----------------------------7---8---|-8--0---0---0--8--0---0---0--3---5---|
C|-8--0---0---0--8--0---0---0--3---5---|-8--0---0---0--8--0---0---0--7---8---|-8--0---0---0--8--0---0---0--3---5---|


D|-----------------------------|-----------------------------|-----------------------------|
A|-----------------------------|-----------------------------|-----------------------------|
F|-----------------------------|-----------------------------|-----------------------------|
C|-8---------------------------|-8---------------------------|-8---------------------------|
G|-8----0---0----0--0--0---0---|-8----0---0----0---0--0--0---|-8----0---0----0--0--0---0---|
C|-8----0---0----0--0--0---0---|-8----0---0----0---0--0--0---|-8----0---0----0--0--0---0---|


D|-------------|-----------------------------|-----------------------------|-----------------------------|
A|-------------|-----------------------------|-----------------------------|-----------------------------|
F|-------------|-----------------------------|-----------------------------|-----------------------------|
C|-8-----7-----|-8---------------------------|-8---------------------------|-8---------------------------|
G|-8-----7-----|-8----0---0----0--0--0---0---|-8----0---0----0---0--0--0---|-8----0---0----0--0--0---0---|
C|-8-----7-----|-8----0---0----0--0--0---0---|-8----0---0----0---0--0--0---|-8----0---0----0--0--0---0---|


D|-------------|---------------------------------|---------------------------------|
A|-------------|---------------------------------|---------------------------------|
F|-------------|-----10-9---9----10-9---9----9---|-----10-9---9--------10-9---9----|
C|-8-----7-----|-0---0--0---0----0--0---0----0---|-8---8--8---8----7---7--7---7----|
G|-8-----7-----|---------------------------------|---------------------------------|
C|-8-----7-----|---------------------------------|---------------------------------|


D|---------------------------------|---------------------------------|-----------------------------------------|
A|---------------------------------|---------------------------------|-----------------------------------------|
F|-----10-9---9----10-9---9----9---|-----10-9---9--------10-9---9----|-----------------------------------------|
C|-0---0--0---0----0--0---0----0---|-8---8--8---8----7---7--7---7----|-0---3--2--0--2---0--3--2--0--2---0------|
G|---------------------------------|---------------------------------|-0---3--2--0--2---0--3--2--0--2---0--3---|
C|---------------------------------|---------------------------------|-0---3--2--0--2---0--3--2--0--2---0------|


D|-------------------------------------------|-----------------------------------------|
A|-------------------------------------------|-----------------------------------------|
F|-----10-10-10-10--10-10-10-10-10--10-9--9--|-----------------------------------------|
C|-8---8--8--8--8---8--8--7--7--7---7--7--7--|-0---3--2--0--2---0--3--2--0--2---0------|
G|-8---8--8--8--8---8--8--7--7--7---7--7--7--|-0---3--2--0--2---0--3--2--0--2---0--3---|
C|-8---8--8--8--8---8--8--7--7--7---7--7--7--|-0---3--2--0--2---0--3--2--0--2---0------|


D|-------------------------------------------|-------------------------------------|
A|-------------------------------------------|-------------------------------------|
F|-----10-10-10-10--10-10-10-10-10--10-9--9--|-------------------------------------|
C|-8---8--8--8--8---8--8--7--7--7---7--7--7--|-8--0---0---0--8--0---0---0--7---8---|
G|-8---8--8--8--8---8--8--7--7--7---7--7--7--|-8--0---0---0--8--0---0---0--7---8---|
C|-8---8--8--8--8---8--8--7--7--7---7--7--7--|-8--0---0---0--8--0---0---0--7---8---|


D|-------------------------------------|-------------------------------------|-------------------------------------|
A|-------------------------------------|-------------------------------------|-------------------------------------|
F|-------------------------------------|-------------------------------------|-------------------------------------|
C|-8--0---0---0--8--0---0---0--3---5---|-----------------------------7---8---|-8--0---0---0--8--0---0---0--3---5---|
G|-8--0---0---0--8--0---0---0--3---5---|-----------------------------7---8---|-8--0---0---0--8--0---0---0--3---5---|
C|-8--0---0---0--8--0---0---0--3---5---|-8--0---0---0--8--0---0---0--7---8---|-8--0---0---0--8--0---0---0--3---5---|


D|------------------------------|------------------------------|------------------------------|
A|------------------------------|------------------------------|------------------------------|
F|------------------------------|------------------------------|------------------------------|
C|-8----0---8----0---0--7---8---|-8----0---8----0---0--3---5---|-8----0---8----0---0--7---8---|
G|-8----0---8----0---0--7---8---|-8----0---8----0---0--3---5---|-8----0---8----0---0--7---8---|
C|-8----0---8----0---0--7---8---|-8----0---8----0---0--3---5---|-8----0---8----0---0--7---8---|


D|------------------------------|---------------------|---------------------|---------------------|
A|------------------------------|---------------------|---------------------|---------------------|
F|------------------------------|---------------------|---------------------|---------------------|
C|-8----0---8----0---0--3---5---|-3--------3----------|-3-------------------|---------------------|
G|-8----0---8----0---0--3---5---|---------------------|----------3----------|----------3----------|
C|-8----0---8----0---0--3---5---|---------------------|---------------------|-3-------------------|


D|---------------------|---------------------------------|---------------------------------|
A|---------------------|---------------------------------|---------------------------------|
F|---------------------|-----10-9---9----10-9---9----9---|-----10-9---9--------10-9---9----|
C|----------3----------|-0---0--0---0----0--0---0----0---|-8---8--8---8----7---7--7---7----|
G|---------------------|---------------------------------|---------------------------------|
C|-3-------------------|---------------------------------|---------------------------------|


D|---------------------------------|---------------------------|-----------------------------------------|
A|---------------------------------|---------------------------|-----------------------------------------|
F|-----10-9---9----10-9---9----9---|-----10-9---9--------------|-----------------------------------------|
C|-0---0--0---0----0--0---0----0---|-8---8--8---8----7---------|-0---3--2--0--2---0--3--2--0--2---0------|
G|-0---0--0---0----0--0---0----0---|-0---0--0---0----0---------|-0---3--2--0--2---0--3--2--0--2---0--3---|
C|-0---0--0---0----0--0---0----0---|-0---0--0---0----0---------|-0---3--2--0--2---0--3--2--0--2---0------|


D|-------------------------------------------|-----------------------------------------|
A|-------------------------------------------|-----------------------------------------|
F|-----10-10-10-10--10-10-10-10-10--10-9--9--|-----------------------------------------|
C|-8---8--8--8--8---8--8--7--7--7---7--7--7--|-0---3--2--0--2---0--3--2--0--2---0------|
G|-8---8--8--8--8---8--8--7--7--7---7--7--7--|-0---3--2--0--2---0--3--2--0--2---0--3---|
C|-8---8--8--8--8---8--8--7--7--7---7--7--7--|-0---3--2--0--2---0--3--2--0--2---0------|


D|-------------------------------------------|-------------------------------------|
A|-------------------------------------------|-------------------------------------|
F|-----10-10-10-10--10-10-10-10-10--10-9--9--|-------------------------------------|
C|-8---8--8--8--8---8--8--7--7--7---7--7--7--|-8--0---0---0--8--0---0---0--7---8---|
G|-8---8--8--8--8---8--8--7--7--7---7--7--7--|-8--0---0---0--8--0---0---0--7---8---|
C|-8---8--8--8--8---8--8--7--7--7---7--7--7--|-8--0---0---0--8--0---0---0--7---8---|


D|-------------------------------------|-------------------------------------|-------------------------------------|
A|-------------------------------------|-------------------------------------|-------------------------------------|
F|-------------------------------------|-------------------------------------|-------------------------------------|
C|-8--0---0---0--8--0---0---0--3---5---|-----------------------------7---8---|-8--0---0---0--8--0---0---0--3---5---|
G|-8--0---0---0--8--0---0---0--3---5---|-----------------------------7---8---|-8--0---0---0--8--0---0---0--3---5---|
C|-8--0---0---0--8--0---0---0--3---5---|-8--0---0---0--8--0---0---0--7---8---|-8--0---0---0--8--0---0---0--3---5---|


D|------------------------------|------------------------------|------------------------------|
A|------------------------------|------------------------------|------------------------------|
F|------------------------------|------------------------------|------------------------------|
C|-8----0---8----0---0--7---8---|-8----0---8----0---0--3---5---|-8----0---8----0---0--7---8---|
G|-8----0---8----0---0--7---8---|-8----0---8----0---0--3---5---|-8----0---8----0---0--7---8---|
C|-8----0---8----0---0--7---8---|-8----0---8----0---0--3---5---|-8----0---8----0---0--7---8---|


D|------------------------------|---------------------|---------------------|---------------------|
A|------------------------------|---------------------|---------------------|---------------------|
F|------------------------------|---------------------|---------------------|---------------------|
C|-8----0---8----0---0--3---5---|-3--------3----------|-3-------------------|---------------------|
G|-8----0---8----0---0--3---5---|---------------------|----------3----------|----------3----------|
C|-8----0---8----0---0--3---5---|---------------------|---------------------|-3-------------------|


D|---------------------|-------------|--------|--------|--------|
A|---------------------|-------------|--------|--------|--------|
F|---------------------|-------------|--------|--------|--------|
C|----------3----------|-8----0------|-0------|-0------|-0------|
G|---------------------|-8----0------|-0------|-0------|-0------|
C|-3-------------------|-8----0------|-0------|-0------|-0------|





Track 2: Guitar 2

D|--------|--------|--------|--------|--------|--------|--------|--------|-----------------------------|
A|--------|--------|--------|--------|--------|--------|--------|--------|-----------------------------|
F|--------|--------|--------|--------|--------|--------|--------|--------|-----------------------------|
C|--------|--------|--------|--------|--------|--------|--------|--------|-8---------------------------|
G|--------|--------|--------|--------|--------|--------|--------|--------|-8----0---0----0--0--0---0---|
C|--------|--------|--------|--------|--------|--------|--------|--------|-8----0---0----0--0--0---0---|


D|-----------------------------|-----------------------------|-----------------------------|
A|-----------------------------|-----------------------------|-----------------------------|
F|-----------------------------|-----------------------------|------10---9--------9----9---|
C|-8---------------------------|-8---------------------------|-8-------------7-------------|
G|-8----0---0----0---0--0--0---|-8----0---0----0--0--0---0---|-----------------------------|
C|-8----0---0----0---0--0--0---|-8----0---0----0--0--0---0---|-----------------------------|


D|-----------------------------|-----------------------------|-----------------------------|
A|-----------------------------|-----------------------------|-----------------------------|
F|-----------------------------|-----------------------------|-----------------------------|
C|-8---------------------------|-8---------------------------|-8---------------------------|
G|-8----0---0----0--0--0---0---|-8----0---0----0---0--0--0---|-8----0---0----0--0--0---0---|
C|-8----0---0----0--0--0---0---|-8----0---0----0---0--0--0---|-8----0---0----0--0--0---0---|


D|-----------------------------|--------|-------------|--------|-------------|--------|
A|-----------------------------|--------|-------------|--------|-------------|--------|
F|------10---9--------9----9---|--------|-------------|--------|-------------|--------|
C|-8-------------7-------------|-0------|-8-----7-----|-0------|-8-----7-----|--------|
G|-----------------------------|--------|-------------|--------|-------------|--------|
C|-----------------------------|--------|-------------|--------|-------------|--------|


D|--------|--------|--------|--------|--------|--------|--------|-----------------------------|
A|--------|--------|--------|--------|--------|--------|--------|-----------------------------|
F|--------|--------|--------|--------|--------|--------|--------|-----------------------------|
C|--------|--------|--------|--------|--------|--------|--------|-8---------------------------|
G|--------|--------|--------|--------|--------|--------|--------|-8----0---0----0--0--0---0---|
C|--------|--------|--------|--------|--------|--------|--------|-8----0---0----0--0--0---0---|


D|-----------------------------|-----------------------------|-----------------------------|
A|-----------------------------|-----------------------------|-----------------------------|
F|-----------------------------|-----------------------------|------10---9--------9----9---|
C|-8---------------------------|-8---------------------------|-8-------------7-------------|
G|-8----0---0----0---0--0--0---|-8----0---0----0--0--0---0---|-----------------------------|
C|-8----0---0----0---0--0--0---|-8----0---0----0--0--0---0---|-----------------------------|


D|-----------------------------|-----------------------------|-----------------------------|
A|-----------------------------|-----------------------------|-----------------------------|
F|-----------------------------|-----------------------------|-----------------------------|
C|-8---------------------------|-8---------------------------|-8---------------------------|
G|-8----0---0----0--0--0---0---|-8----0---0----0---0--0--0---|-8----0---0----0--0--0---0---|
C|-8----0---0----0--0--0---0---|-8----0---0----0---0--0--0---|-8----0---0----0--0--0---0---|


D|-----------------------------|--------|-------------|--------|-------------|--------|
A|-----------------------------|--------|-------------|--------|-------------|--------|
F|------10---9--------9----9---|--------|-------------|--------|-------------|--------|
C|-8-------------7-------------|-0------|-8-----7-----|-0------|-8-----7-----|--------|
G|-----------------------------|--------|-------------|--------|-------------|--------|
C|-----------------------------|--------|-------------|--------|-------------|--------|


D|--------|--------|--------|--------|--------|--------|--------|--------|--------|
A|--------|--------|--------|--------|--------|--------|--------|--------|--------|
F|--------|--------|--------|--------|--------|--------|--------|--------|--------|
C|--------|--------|--------|--------|--------|--------|--------|--------|--------|
G|--------|--------|--------|--------|--------|--------|--------|--------|--------|
C|--------|--------|--------|--------|--------|--------|--------|--------|--------|


D|--------|--------|------------------------------|------------------------------|
A|--------|--------|------------------------------|------------------------------|
F|--------|--------|------------------------------|------------------------------|
C|--------|--------|-8----0---8----0---0--7---8---|-8----0---8----0---0--3---5---|
G|--------|--------|-8----0---8----0---0--7---8---|-8----0---8----0---0--3---5---|
C|--------|--------|-8----0---8----0---0--7---8---|-8----0---8----0---0--3---5---|


D|------------------------------|------------------------------|--------|--------|
A|------------------------------|------------------------------|--------|--------|
F|------------------------------|------------------------------|--------|--------|
C|-8----0---8----0---0--7---8---|-8----0---8----0---0--3---5---|--------|--------|
G|-8----0---8----0---0--7---8---|-8----0---8----0---0--3---5---|--------|--------|
C|-8----0---8----0---0--7---8---|-8----0---8----0---0--3---5---|--------|--------|


D|--------|--------|--------|--------|--------|--------|--------|--------|--------|
A|--------|--------|--------|--------|--------|--------|--------|--------|--------|
F|--------|--------|--------|--------|--------|--------|--------|--------|--------|
C|--------|--------|--------|--------|--------|--------|--------|--------|--------|
G|--------|--------|--------|--------|--------|--------|--------|--------|--------|
C|--------|--------|--------|--------|--------|--------|--------|--------|--------|


D|--------|--------|--------|--------|--------|------------------------------|------------------------------|
A|--------|--------|--------|--------|--------|------------------------------|------------------------------|
F|--------|--------|--------|--------|--------|------------------------------|------------------------------|
C|--------|--------|--------|--------|--------|-8----0---8----0---0--7---8---|-8----0---8----0---0--3---5---|
G|--------|--------|--------|--------|--------|-8----0---8----0---0--7---8---|-8----0---8----0---0--3---5---|
C|--------|--------|--------|--------|--------|-8----0---8----0---0--7---8---|-8----0---8----0---0--3---5---|


D|------------------------------|------------------------------|--------|--------|
A|------------------------------|------------------------------|--------|--------|
F|------------------------------|------------------------------|--------|--------|
C|-8----0---8----0---0--7---8---|-8----0---8----0---0--3---5---|--------|--------|
G|-8----0---8----0---0--7---8---|-8----0---8----0---0--3---5---|--------|--------|
C|-8----0---8----0---0--7---8---|-8----0---8----0---0--3---5---|--------|--------|


D|--------|--------|
A|--------|--------|
F|--------|--------|
C|--------|--------|
G|--------|--------|
C|--------|--------|





Track 3: Untitled

G|--------|--------|--------|--------|--------|--------|--------|--------|--------|
D|--------|--------|--------|--------|--------|--------|--------|--------|--------|
A|--------|--------|--------|--------|--------|--------|--------|--------|--------|
E|--------|--------|--------|--------|--------|--------|--------|--------|--------|


G|--------|--------|--------|--------|--------|--------|--------|--------|--------|
D|--------|--------|--------|--------|--------|--------|--------|--------|--------|
A|--------|--------|--------|--------|--------|--------|--------|--------|--------|
E|--------|--------|--------|--------|--------|--------|--------|--------|--------|


G|--------|--------|--------|--------|--------|--------|--------|--------|--------|
D|--------|--------|--------|--------|--------|--------|--------|--------|--------|
A|--------|--------|--------|--------|--------|--------|--------|--------|--------|
E|--------|--------|--------|--------|--------|--------|--------|--------|--------|


G|--------|--------|--------|--------|--------|--------|--------|--------|--------|
D|--------|--------|--------|--------|--------|--------|--------|--------|--------|
A|--------|--------|--------|--------|--------|--------|--------|--------|--------|
E|--------|--------|--------|--------|--------|--------|--------|--------|--------|


G|--------|--------|--------|--------|--------|--------|--------|--------|--------|
D|--------|--------|--------|--------|--------|--------|--------|--------|--------|
A|--------|--------|--------|--------|--------|--------|--------|--------|--------|
E|--------|--------|--------|--------|--------|--------|--------|--------|--------|


G|--------|--------|--------|--------|--------|--------|--------|--------|--------|
D|--------|--------|--------|--------|--------|--------|--------|--------|--------|
A|--------|--------|--------|--------|--------|--------|--------|--------|--------|
E|--------|--------|--------|--------|--------|--------|--------|--------|--------|


G|--------|--------|--------|--------|--------|--------|--------|--------|--------|
D|--------|--------|--------|--------|--------|--------|--------|--------|--------|
A|--------|--------|--------|--------|--------|--------|--------|--------|--------|
E|--------|--------|--------|--------|--------|--------|--------|--------|--------|


G|--------|--------|--------|--------|--------|--------|--------|--------|--------|
D|--------|--------|--------|--------|--------|--------|--------|--------|--------|
A|--------|--------|--------|--------|--------|--------|--------|--------|--------|
E|--------|--------|--------|--------|--------|--------|--------|--------|--------|


G|--------|--------|--------|--------|--------|--------|--------|--------|
D|--------|--------|--------|--------|--------|--------|--------|--------|
A|--------|--------|--------|--------|--------|--------|--------|--------|
E|--------|--------|--------|--------|--------|--------|--------|--------|