Site menu:

    

Browse: 0-9 A B C D E F G H I J K L N O P Q R S T U V W X Y Z

311 - uncalm:



Title: Uncalm
Artist: 
Album: From Chaos
Author: Nick Hexum and Tim Mahoney


Track 1: miT - intro w/ tremolo

E|---------------------|-----------------|---------------------|---------------------|
B|---------------------|-----------------|---------------------|---------------------|
G|---------------------|-----------------|---------------------|---------------------|
D|---------------------|-----------------|---------------------|---------------------|
A|---------------------|-----------------|-2-----3---3----2----|-------2---2---------|
E|-2-----4---4----5----|-7-----0---0-----|---------------------|-0--------------0----|


E|---------------------|-----------------|---------------------|--------|---------------------|
B|---------------------|-----------------|---------------------|--------|---------------------|
G|---------------------|-----------------|---------------------|--------|---------------------|
D|---------------------|-----------------|---------------------|--------|---------------------|
A|---------------------|-----------------|-2-----3---3---------|--------|---------------------|
E|-2-----4---4----5----|-7-----0---0-----|----------------0----|-2------|-2-----4---4----5----|


E|-----------------|---------------------|---------------------|---------------------|
B|-----------------|---------------------|---------------------|---------------------|
G|-----------------|---------------------|---------------------|---------------------|
D|-----------------|---------------------|---------------------|---------------------|
A|-----------------|-2-----3---3----2----|-------2---2---------|---------------------|
E|-7-----0---0-----|---------------------|-0--------------0----|-2-----4---4----5----|


E|-----------------|---------------------|-----------------------|---------------------|
B|-----------------|---------------------|-----------------------|---------------------|
G|-----------------|---------------------|-----------------------|---------------------|
D|-----------------|---------------------|-----------------------|---------------------|
A|-----------------|-2-----3---3---------|-----------------------|---------------------|
E|-7-----0---0-----|----------------0----|-2-----2---2---2---2---|-2-----4---4----5----|


E|-----------------|---------------------|---------------------|---------------------|
B|-----------------|---------------------|---------------------|---------------------|
G|-----------------|---------------------|---------------------|---------------------|
D|-----------------|---------------------|---------------------|---------------------|
A|-----------------|-2-----3---3----2----|-------2---2---------|---------------------|
E|-7-----0---0-----|---------------------|-0--------------0----|-2-----4---4----5----|


E|-----------------|---------------------|--------|--------|--------|--------|--------|
B|-----------------|---------------------|--------|--------|--------|--------|--------|
G|-----------------|---------------------|--------|--------|--------|--------|--------|
D|-----------------|---------------------|--------|--------|--------|--------|--------|
A|-----------------|-2-----3---3---------|--------|--------|--------|--------|--------|
E|-7-----0---0-----|----------------0----|--------|--------|--------|--------|--------|


E|--------|--------|--------|--------|--------|--------|--------|--------|--------|
B|--------|--------|--------|--------|--------|--------|--------|--------|--------|
G|--------|--------|--------|--------|--------|--------|--------|--------|--------|
D|--------|--------|--------|--------|--------|--------|--------|--------|--------|
A|--------|--------|--------|--------|--------|--------|--------|--------|--------|
E|--------|--------|--------|--------|--------|--------|--------|--------|--------|


E|--------|--------|--------|--------|--------|--------|--------|--------|--------|
B|--------|--------|--------|--------|--------|--------|--------|--------|--------|
G|--------|--------|--------|--------|--------|--------|--------|--------|--------|
D|--------|--------|--------|--------|--------|--------|--------|--------|--------|
A|--------|--------|--------|--------|--------|--------|--------|--------|--------|
E|--------|--------|--------|--------|--------|--------|--------|--------|--------|


E|--------|--------|--------|--------|--------|--------|--------|--------|--------|
B|--------|--------|--------|--------|--------|--------|--------|--------|--------|
G|--------|--------|--------|--------|--------|--------|--------|--------|--------|
D|--------|--------|--------|--------|--------|--------|--------|--------|--------|
A|--------|--------|--------|--------|--------|--------|--------|--------|--------|
E|--------|--------|--------|--------|--------|--------|--------|--------|--------|


E|--------|--------|--------|--------|--------|--------|--------|--------|--------|
B|--------|--------|--------|--------|--------|--------|--------|--------|--------|
G|--------|--------|--------|--------|--------|--------|--------|--------|--------|
D|--------|--------|--------|--------|--------|--------|--------|--------|--------|
A|--------|--------|--------|--------|--------|--------|--------|--------|--------|
E|--------|--------|--------|--------|--------|--------|--------|--------|--------|


E|--------|--------|--------|--------|--------|--------|--------|--------|--------|
B|--------|--------|--------|--------|--------|--------|--------|--------|--------|
G|--------|--------|--------|--------|--------|--------|--------|--------|--------|
D|--------|--------|--------|--------|--------|--------|--------|--------|--------|
A|--------|--------|--------|--------|--------|--------|--------|--------|--------|
E|--------|--------|--------|--------|--------|--------|--------|--------|--------|


E|--------|--------|--------|--------|--------|--------|--------|--------|--------|
B|--------|--------|--------|--------|--------|--------|--------|--------|--------|
G|--------|--------|--------|--------|--------|--------|--------|--------|--------|
D|--------|--------|--------|--------|--------|--------|--------|--------|--------|
A|--------|--------|--------|--------|--------|--------|--------|--------|--------|
E|--------|--------|--------|--------|--------|--------|--------|--------|--------|


E|--------|--------|--------|--------|--------|--------|--------|--------|--------|
B|--------|--------|--------|--------|--------|--------|--------|--------|--------|
G|--------|--------|--------|--------|--------|--------|--------|--------|--------|
D|--------|--------|--------|--------|--------|--------|--------|--------|--------|
A|--------|--------|--------|--------|--------|--------|--------|--------|--------|
E|--------|--------|--------|--------|--------|--------|--------|--------|--------|


E|--------|--------|--------|--------|--------|--------|--------|--------|--------|
B|--------|--------|--------|--------|--------|--------|--------|--------|--------|
G|--------|--------|--------|--------|--------|--------|--------|--------|--------|
D|--------|--------|--------|--------|--------|--------|--------|--------|--------|
A|--------|--------|--------|--------|--------|--------|--------|--------|--------|
E|--------|--------|--------|--------|--------|--------|--------|--------|--------|


E|--------|--------|--------|--------|--------|--------|--------|--------|--------|
B|--------|--------|--------|--------|--------|--------|--------|--------|--------|
G|--------|--------|--------|--------|--------|--------|--------|--------|--------|
D|--------|--------|--------|--------|--------|--------|--------|--------|--------|
A|--------|--------|--------|--------|--------|--------|--------|--------|--------|
E|--------|--------|--------|--------|--------|--------|--------|--------|--------|


E|--------|--------|--------|---------------------|-----------------|---------------------|
B|--------|--------|--------|---------------------|-----------------|---------------------|
G|--------|--------|--------|---------------------|-----------------|---------------------|
D|--------|--------|--------|---------------------|-----------------|---------------------|
A|--------|--------|--------|----------------0----|-----------------|-2-----3---3----2----|
E|--------|--------|--------|-2-----4---4---------|-7-----0---0-----|---------------------|


E|---------------------|---------------------|-----------------|---------------------|
B|---------------------|---------------------|-----------------|---------------------|
G|---------------------|---------------------|-----------------|---------------------|
D|---------------------|---------------------|-----------------|---------------------|
A|-------2---2---------|---------------------|-----------------|-2-----3---3---------|
E|-0--------------0----|-2-----4---4----5----|-7-----0---0-----|----------------0----|


E|---------------------------|---------------------|-----------------|---------------------|
B|---------------------------|---------------------|-----------------|---------------------|
G|---------------------------|---------------------|-----------------|---------------------|
D|---------------------------|---------------------|-----------------|---------------------|
A|---------------------------|---------------------|-2---------------|-2-----3---3----2----|
E|-2-----2---2---2---2---2---|-2-----4---4----5----|-------0---0-----|---------------------|


E|--------|--------|--------|--------|--------|
B|--------|--------|--------|--------|--------|
G|--------|--------|--------|--------|--------|
D|--------|--------|--------|--------|--------|
A|--------|--------|--------|--------|--------|
E|--------|--------|--------|--------|--------|





Track 2: Nix Hex

E|--------|--------|--------|--------|--------|--------|--------|--------|-----------------------|
B|--------|--------|--------|--------|--------|--------|--------|--------|-----------------------|
G|--------|--------|--------|--------|--------|--------|--------|--------|-----------------------|
D|--------|--------|--------|--------|--------|--------|--------|--------|-----------------------|
A|--------|--------|--------|--------|--------|--------|--------|--------|-4-----------4---------|
E|--------|--------|--------|--------|--------|--------|--------|--------|-2-----------2---------|


E|-----------------------|-----------------------|---------------------------|-----------------------|
B|-----------------------|-----------------------|---------------------------|-----------------------|
G|-----------------------|-----------------------|---------------------------|-----------------------|
D|-----------------------|-----------------------|---------------------------|-----------------------|
A|-7-----------2---------|-2-----------2---------|-2-----------4--------2----|-4-----------4---------|
E|-5-----------0---------|-0-----------0---------|-0-----------2--------0----|-2-----------2---------|


E|-----------------------|-----------------------|-----------------------|-----------------------|
B|-----------------------|-----------------------|-----------------------|-----------------------|
G|-----------------------|-----------------------|-----------------------|-----------------------|
D|-----------------------|-----------------------|-----------------------|-----------------------|
A|-7-----------2---------|-7-----------2---------|-4-----4---4---4---4---|-4-----------4---------|
E|-5-----------0---------|-5-----------0---------|-2-----2---2---2---2---|-2-----------2---------|


E|-----------------------|-----------------------|---------------------------|-----------------------|
B|-----------------------|-----------------------|---------------------------|-----------------------|
G|-----------------------|-----------------------|---------------------------|-----------------------|
D|-----------------------|-----------------------|---------------------------|-----------------------|
A|-7-----------2---------|-2-----------2---------|-2-----------4--------2----|-4-----------4---------|
E|-5-----------0---------|-0-----------0---------|-0-----------2--------0----|-2-----------2---------|


E|-----------------------|-----------------------|--------|------------------------------|
B|-----------------------|-----------------------|--------|------------------------------|
G|-----------------------|-----------------------|--------|------------------------------|
D|-----------------------|-----------------------|--------|------7---7---7---7---7---7---|
A|-7-----------2---------|-7-----------2---------|-4------|------------------------------|
E|-5-----------0---------|-5-----------0---------|-2------|------------------------------|


E|-----------------------|------------------------------|-----------------------|------------------------------|
B|-----------------------|------------------------------|-----------------------|------------------------------|
G|-----6-------6---------|------------------------------|-----------------------|------------------------------|
D|-7---------------------|------7---7---7---7---7---7---|-7---6-------6---------|------7---7---7---7---7---7---|
A|-----------------------|------------------------------|-----------------------|------------------------------|
E|-----------------------|------------------------------|-----------------------|------------------------------|


E|-----------------------|------------------------------|-----------------------|--------------------|
B|-----------------------|------------------------------|-----------------------|--------------------|
G|-----6-------6---------|------------------------------|-----------------------|------6-------------|
D|-7---------------------|------7---7---7---7---7---7---|-7---6-------6---------|--------------------|
A|-----------------------|------------------------------|-----------------------|--------------------|
E|-----------------------|------------------------------|-----------------------|--------------------|


E|--------|--------|--------|--------|--------|--------|--------|------------------------------|
B|--------|--------|--------|--------|--------|--------|--------|------------------------------|
G|--------|--------|--------|--------|--------|--------|--------|------------------------------|
D|--------|--------|--------|--------|--------|--------|--------|------------------------------|
A|--------|--------|--------|--------|--------|--------|--------|------0---0---0---0---0---0---|
E|--------|--------|--------|--------|--------|--------|--------|------------------------------|


E|-----------------------|------------------------------|-----------------------|------------------------------|
B|-----------------------|------------------------------|-----------------------|------------------------------|
G|-----------------------|------------------------------|-----------------------|------------------------------|
D|-----------------------|------------------------------|-----------------------|------------------------------|
A|-0---4-------4---------|------0---0---0---0---0---0---|-0---------------------|------0---0---0---0---0---0---|
E|-----------------------|------------------------------|-----4-------4---------|------------------------------|


E|-----------------------|------------------------------|-----------------------|------------------------------|
B|-----------------------|------------------------------|-----------------------|------------------------------|
G|-----------------------|------------------------------|-----------------------|------------------------------|
D|-----------------------|------------------------------|-----------------------|------------------------------|
A|-0---4-------4---------|------0---0---0---0---0---0---|-0---------------------|------4---4---4---4---4---4---|
E|-----------------------|------------------------------|-----4-------4---------|------------------------------|


E|-----------------------|------------------------------|-----------------------|------------------------------|
B|-----------------------|------------------------------|-----------------------|------------------------------|
G|-----------------------|------------------------------|-----------------------|------------------------------|
D|-----2-------2---------|------------------------------|-----------------------|------------------------------|
A|-4---------------------|------4---4---4---4---4---4---|-4---3-------3---------|------4---4---4---4---4---4---|
E|-----------------------|------------------------------|-----------------------|------------------------------|


E|-----------------------|------------------------------|---------------------------------|
B|-----------------------|------------------------------|---------------------------------|
G|-----------------------|------------------------------|---------------------------------|
D|-----2-------2---------|------------------------------|---------------------------------|
A|-4---------------------|------4---4---4---4---4---4---|-4---3-------3-------3-------3---|
E|-----------------------|------------------------------|---------------------------------|


E|---------------------------|---------------------------|---------------------------|
B|---------------------------|---------------------------|---------------------------|
G|---------------------------|---------------------------|---------------------------|
D|---------------------------|---------------------------|---------------------------|
A|-----4---4---4---0---------|-----4---4---4---0---------|-----4---4---4---0---------|
E|----------------------4----|----------------------4----|----------------------4----|


E|---------------------------------|---------------------------|---------------------------|
B|---------------------------------|---------------------------|---------------------------|
G|---------------------------------|---------------------------|---------------------------|
D|---------------------------------|---------------------------|---------------------------|
A|---------------------------------|-----4---4---4---0---------|-4---4---4---4---0---------|
E|-4---2---4---5---4---2-------4---|----------------------4----|----------------------4----|


E|---------------------------|---------------------------------|---------------------------|
B|---------------------------|---------------------------------|---------------------------|
G|---------------------------|---------------------------------|---------------------------|
D|---------------------------|---------------------------------|---------------------------|
A|-----4---4---4---0---------|-----------------------------4---|-----4---4---4---0---------|
E|----------------------4----|-4---2---4---5---4---2-----------|----------------------4----|


E|---------------------------|---------------------------|---------------------------------|
B|---------------------------|---------------------------|---------------------------------|
G|---------------------------|---------------------------|---------------------------------|
D|---------------------------|---------------------------|---------------------------------|
A|-----4---4---4---0---------|-----4---4---4---0---------|---------------------------------|
E|----------------------4----|----------------------4----|-4---2---4---5---4---2-------4---|


E|---------------------------|---------------------------|---------------------------|
B|---------------------------|---------------------------|---------------------------|
G|---------------------------|---------------------------|---------------------------|
D|---------------------------|---------------------------|---------------------------|
A|-----4---4---4---0---------|-4---4---4---4---0---------|-----4---4---4---0---------|
E|----------------------4----|----------------------4----|----------------------4----|


E|---------------------------------|---------------------------|---------------------------|
B|---------------------------------|---------------------------|---------------------------|
G|---------------------------------|---------------------------|---------------------------|
D|---------------------------------|---------------------------|---------------------------|
A|-----------------------------4---|-----4---4---4---0---------|-----4---4---4---0---------|
E|-4---2---4---5---4---2-----------|----------------------4----|----------------------4----|


E|---------------------------|---------------------------------|---------------------------|
B|---------------------------|---------------------------------|---------------------------|
G|---------------------------|---------------------------------|---------------------------|
D|---------------------------|---------------------------------|---------------------------|
A|-----4---4---4---0---------|---------------------------------|-----4---4---4---0---------|
E|----------------------4----|-4---2---4---5---4---2-------4---|----------------------4----|


E|---------------------------|---------------------------|---------------------------------|
B|---------------------------|---------------------------|---------------------------------|
G|---------------------------|---------------------------|---------------------------------|
D|---------------------------|---------------------------|---------------------------------|
A|-4---4---4---4---0---------|-----4---4---4---0---------|-----------------------------4---|
E|----------------------4----|----------------------4----|-4---2---4---5---4---2-----------|


E|------------------------------|-----------------------|------------------------------|
B|------------------------------|-----------------------|------------------------------|
G|------------------------------|-----6-------6---------|------------------------------|
D|------7---7---7---7---7---7---|-7---------------------|------7---7---7---7---7---7---|
A|------------------------------|-----------------------|------------------------------|
E|------------------------------|-----------------------|------------------------------|


E|-----------------------|------------------------------|-----------------------|------------------------------|
B|-----------------------|------------------------------|-----------------------|------------------------------|
G|-----------------------|------------------------------|-----6-------6---------|------------------------------|
D|-7---6-------6---------|------7---7---7---7---7---7---|-7---------------------|------7---7---7---7---7---7---|
A|-----------------------|------------------------------|-----------------------|------------------------------|
E|-----------------------|------------------------------|-----------------------|------------------------------|


E|-----------------------|------------------------------|-----------------------|------------------------------|
B|-----------------------|------------------------------|-----------------------|------------------------------|
G|-----------------------|------------------------------|-----------------------|------------------------------|
D|-7---6-------6---------|------------------------------|-----------------------|------------------------------|
A|-----------------------|------0---0---0---0---0---0---|-0---4-------4---------|------0---0---0---0---0---0---|
E|-----------------------|------------------------------|-----------------------|------------------------------|


E|-----------------------|------------------------------|-----------------------|------------------------------|
B|-----------------------|------------------------------|-----------------------|------------------------------|
G|-----------------------|------------------------------|-----------------------|------------------------------|
D|-----------------------|------------------------------|-----2-------2---------|------------------------------|
A|-0---------------------|------4---4---4---4---4---4---|-4---------------------|------4---4---4---4---4---4---|
E|-----4-------4---------|------------------------------|-----------------------|------------------------------|


E|---------------------------------|--------|--------|--------|--------|--------|--------|
B|---------------------------------|--------|--------|--------|--------|--------|--------|
G|---------------------------------|--------|--------|--------|--------|--------|--------|
D|---------------------------------|--------|--------|--------|--------|--------|--------|
A|-4---3-------3-------3-------3---|--------|--------|--------|--------|--------|--------|
E|---------------------------------|--------|--------|--------|--------|--------|--------|


E|--------|--------|--------|--------|--------|--------|--------|--------|---------------------------|
B|--------|--------|--------|--------|--------|--------|--------|--------|---------------------------|
G|--------|--------|--------|--------|--------|--------|--------|--------|---------------------------|
D|--------|--------|--------|--------|--------|--------|--------|--------|-----2---2---2-------------|
A|--------|--------|--------|--------|--------|--------|--------|--------|-----------------4----3----|
E|--------|--------|--------|--------|--------|--------|--------|--------|---------------------------|


E|------------------------------|-----------------------|-----------------------|-----------------------|
B|------------------------------|-----------------------|-----------------------|-----------------------|
G|------------------------------|-----------------------|-----------------------|-----------------------|
D|------------------------------|-----------------------|-----------------------|-----------------------|
A|-3---1---3---4---3---1--------|-4-----------4---------|-7-----------2---------|-2-----------2---------|
E|------------------------------|-2-----------2---------|-5-----------0---------|-0-----------0---------|


E|---------------------------|-----------------------|-----------------------|-----------------------|
B|---------------------------|-----------------------|-----------------------|-----------------------|
G|---------------------------|-----------------------|-----------------------|-----------------------|
D|---------------------------|-----------------------|-----------------------|-----------------------|
A|-2-----------4--------2----|-4-----------4---------|-7-----------2---------|-7-----------2---------|
E|-0-----------2--------0----|-2-----------2---------|-5-----------0---------|-5-----------0---------|


E|--------|--------|--------|--------|------------------------------|-----------------------|
B|--------|--------|--------|--------|------------------------------|-----------------------|
G|--------|--------|--------|--------|------------------------------|-----------------------|
D|--------|--------|--------|--------|------------------------------|-----------------------|
A|--------|--------|--------|--------|------------------------------|-----------------------|
E|--------|--------|--------|--------|-0-----------2-----------0----|-2-----------2---------|


E|-----------------------|-----------------------|-2------|
B|-----------------------|-----------------------|-2------|
G|-----------------------|-----------------------|-2------|
D|-----------------------|-----------------------|-4------|
A|-0---------------------|-0---------------------|-4------|
E|-------------0---------|-------------0---------|-2------|





Track 3: miT - Verse

E|--------|--------|--------|--------|--------|--------|--------|--------|--------|
B|--------|--------|--------|--------|--------|--------|--------|--------|--------|
G|--------|--------|--------|--------|--------|--------|--------|--------|--------|
D|--------|--------|--------|--------|--------|--------|--------|--------|--------|
A|--------|--------|--------|--------|--------|--------|--------|--------|--------|
E|--------|--------|--------|--------|--------|--------|--------|--------|--------|


E|--------|--------|--------|--------|--------|--------|--------|--------|--------|
B|--------|--------|--------|--------|--------|--------|--------|--------|--------|
G|--------|--------|--------|--------|--------|--------|--------|--------|--------|
D|--------|--------|--------|--------|--------|--------|--------|--------|--------|
A|--------|--------|--------|--------|--------|--------|--------|--------|--------|
E|--------|--------|--------|--------|--------|--------|--------|--------|--------|


E|--------|--------|--------|--------|--------|--------|--------|--------|--------|
B|--------|--------|--------|--------|--------|--------|--------|--------|--------|
G|--------|--------|--------|--------|--------|--------|--------|--------|--------|
D|--------|--------|--------|--------|--------|--------|--------|--------|--------|
A|--------|--------|--------|--------|--------|--------|--------|--------|--------|
E|--------|--------|--------|--------|--------|--------|--------|--------|--------|


E|--------|--------|--------|--------|--------|------------------------------|-----------------------|
B|--------|--------|--------|--------|--------|------------------------------|-----------------------|
G|--------|--------|--------|--------|--------|------------------------------|-----6-------6---------|
D|--------|--------|--------|--------|--------|------7---7---7---7---7---7---|-7---------------------|
A|--------|--------|--------|--------|--------|------------------------------|-----------------------|
E|--------|--------|--------|--------|--------|------------------------------|-----------------------|


E|------------------------------|-----------------------|------------------------------|
B|------------------------------|-----------------------|------------------------------|
G|------------------------------|-----------------------|------------------------------|
D|------7---7---7---7---7---7---|-7---6-------6---------|------7---7---7---7---7---7---|
A|------------------------------|-----------------------|------------------------------|
E|------------------------------|-----------------------|------------------------------|


E|-----------------------|------------------------------|-----------------------|--------|
B|-----------------------|------------------------------|-----------------------|--------|
G|-----6-------6---------|------------------------------|-----------------------|--------|
D|-7---------------------|------7---7---7---7---7---7---|-7---6-------6---------|--------|
A|-----------------------|------------------------------|-----------------------|--------|
E|-----------------------|------------------------------|-----------------------|--------|


E|--------|--------|--------|--------|--------|--------|--------|------------------------------|
B|--------|--------|--------|--------|--------|--------|--------|------------------------------|
G|--------|--------|--------|--------|--------|--------|--------|------------------------------|
D|--------|--------|--------|--------|--------|--------|--------|------------------------------|
A|--------|--------|--------|--------|--------|--------|--------|------0---0---0---0---0---0---|
E|--------|--------|--------|--------|--------|--------|--------|------------------------------|


E|-----------------------|------------------------------|-----------------------|------------------------------|
B|-----------------------|------------------------------|-----------------------|------------------------------|
G|-----------------------|------------------------------|-----------------------|------------------------------|
D|-----------------------|------------------------------|-----------------------|------------------------------|
A|-0---4-------4---------|------0---0---0---0---0---0---|-0---------------------|------0---0---0---0---0---0---|
E|-----------------------|------------------------------|-----4-------4---------|------------------------------|


E|-----------------------|------------------------------|---------------------------------|
B|-----------------------|------------------------------|---------------------------------|
G|-----------------------|------------------------------|---------------------------------|
D|-----------------------|------------------------------|---------------------------------|
A|-0---4-------4---------|------0---0---0---0---0---0---|-0-------------------------------|
E|-----------------------|------------------------------|-----4-------4-------4-------4---|


E|--------|--------|--------|--------|--------|--------|--------|--------|--------|
B|--------|--------|--------|--------|--------|--------|--------|--------|--------|
G|--------|--------|--------|--------|--------|--------|--------|--------|--------|
D|--------|--------|--------|--------|--------|--------|--------|--------|--------|
A|--------|--------|--------|--------|--------|--------|--------|--------|--------|
E|--------|--------|--------|--------|--------|--------|--------|--------|--------|


E|--------|--------|--------|--------|--------|--------|--------|---------------------------|
B|--------|--------|--------|--------|--------|--------|--------|---------------------------|
G|--------|--------|--------|--------|--------|--------|--------|---------------------------|
D|--------|--------|--------|--------|--------|--------|--------|-----2---2---2-------------|
A|--------|--------|--------|--------|--------|--------|--------|-----------------4----3----|
E|--------|--------|--------|--------|--------|--------|--------|---------------------------|


E|---------------------------|---------------------------|---------------------------------|
B|---------------------------|---------------------------|---------------------------------|
G|---------------------------|---------------------------|---------------------------------|
D|-----2---2---2-------------|-----2---2---2-------------|---------------------------------|
A|-----------------4----3----|-----------------4----3----|-3---1---3---4---3---1-------3---|
E|---------------------------|---------------------------|---------------------------------|


E|---------------------------|---------------------------|---------------------------|
B|---------------------------|---------------------------|---------------------------|
G|---------------------------|---------------------------|---------------------------|
D|-----2---2---2-------------|-2---2---2---2-------------|-----2---2---2-------------|
A|-----------------4----3----|-----------------4----3----|-----------------4----3----|
E|---------------------------|---------------------------|---------------------------|


E|---------------------------------|--------|--------|--------|--------|--------|--------|
B|---------------------------------|--------|--------|--------|--------|--------|--------|
G|---------------------------------|--------|--------|--------|--------|--------|--------|
D|-----------------------------2---|--------|--------|--------|--------|--------|--------|
A|-3---1---3---4---3---1-----------|--------|--------|--------|--------|--------|--------|
E|---------------------------------|--------|--------|--------|--------|--------|--------|


E|--------|--------|--------|--------|--------|--------|------------------------------|
B|--------|--------|--------|--------|--------|--------|------------------------------|
G|--------|--------|--------|--------|--------|--------|------------------------------|
D|--------|--------|--------|--------|--------|--------|------------------------------|
A|--------|--------|--------|--------|--------|--------|------0---0---0---0---0---0---|
E|--------|--------|--------|--------|--------|--------|------------------------------|


E|-----------------------|------------------------------|---------------------------------|
B|-----------------------|------------------------------|---------------------------------|
G|-----------------------|------------------------------|---------------------------------|
D|-----------------------|------------------------------|---------------------------------|
A|-0---4-------4---------|------0---0---0---0---0---0---|-0-------------------------------|
E|-----------------------|------------------------------|-----4-------4-------4-------4---|


E|---------------------------|---------------------------|---------------------------|
B|---------------------------|---------------------------|---------------------------|
G|---------------------------|---------------------------|---------------------------|
D|---------------------------|---------------------------|---------------------------|
A|-----4---4---4---0---------|-----4---4---4---0---------|-----4---4---4---0---------|
E|----------------------4----|----------------------4----|----------------------4----|


E|---------------------------------|---------------------------|---------------------------|
B|---------------------------------|---------------------------|---------------------------|
G|---------------------------------|---------------------------|---------------------------|
D|---------------------------------|---------------------------|---------------------------|
A|---------------------------------|-----4---4---4---0---------|-4---4---4---4---0---------|
E|-4---2---4---5---4---2-------4---|----------------------4----|----------------------4----|


E|---------------------------|---------------------------------|---------------------------|
B|---------------------------|---------------------------------|---------------------------|
G|---------------------------|---------------------------------|---------------------------|
D|---------------------------|---------------------------------|---------------------------|
A|-----4---4---4---0---------|-----------------------------4---|-----4---4---4---0---------|
E|----------------------4----|-4---2---4---5---4---2-----------|----------------------4----|


E|---------------------------|---------------------------|---------------------------------|
B|---------------------------|---------------------------|---------------------------------|
G|---------------------------|---------------------------|---------------------------------|
D|---------------------------|---------------------------|---------------------------------|
A|-----4---4---4---0---------|-----4---4---4---0---------|---------------------------------|
E|----------------------4----|----------------------4----|-4---2---4---5---4---2-------4---|


E|---------------------------|---------------------------|---------------------------|
B|---------------------------|---------------------------|---------------------------|
G|---------------------------|---------------------------|---------------------------|
D|---------------------------|---------------------------|---------------------------|
A|-----4---4---4---0---------|-4---4---4---4---0---------|-----4---4---4---0---------|
E|----------------------4----|----------------------4----|----------------------4----|


E|------------------------------|--------|--------|--------|--------|--------|--------|
B|------------------------------|--------|--------|--------|--------|--------|--------|
G|------------------------------|--------|--------|--------|--------|--------|--------|
D|------------------------------|--------|--------|--------|--------|--------|--------|
A|------------------------------|--------|--------|--------|--------|--------|--------|
E|-4---2---4---5---4---2--------|--------|--------|--------|--------|--------|--------|


E|--------|--------|--------|--------|--------|---------------------|---------------------|
B|--------|--------|--------|--------|--------|---------------------|---------------------|
G|--------|--------|--------|--------|--------|---------------------|---------------------|
D|--------|--------|--------|--------|--------|---------------------|---------------------|
A|--------|--------|--------|--------|--------|-------2---2---------|----------------0----|
E|--------|--------|--------|--------|--------|-0--------------0----|-2-----4---4---------|


E|-----------------|---------------------|--------|
B|-----------------|---------------------|--------|
G|-----------------|---------------------|--------|
D|-----------------|---------------------|--------|
A|-2---------------|-2-----3---3---------|--------|
E|-------0---0-----|----------------0----|-2------|





Track 4: miT - Verse

E|--------|--------|--------|--------|--------|--------|--------|--------|--------|
B|--------|--------|--------|--------|--------|--------|--------|--------|--------|
G|--------|--------|--------|--------|--------|--------|--------|--------|--------|
D|--------|--------|--------|--------|--------|--------|--------|--------|--------|
A|--------|--------|--------|--------|--------|--------|--------|--------|--------|
E|--------|--------|--------|--------|--------|--------|--------|--------|--------|


E|--------|--------|--------|--------|--------|--------|--------|--------|--------|
B|--------|--------|--------|--------|--------|--------|--------|--------|--------|
G|--------|--------|--------|--------|--------|--------|--------|--------|--------|
D|--------|--------|--------|--------|--------|--------|--------|--------|--------|
A|--------|--------|--------|--------|--------|--------|--------|--------|--------|
E|--------|--------|--------|--------|--------|--------|--------|--------|--------|


E|--------|--------|--------|--------|--------|--------|--------|--------|--------|
B|--------|--------|--------|--------|--------|--------|--------|--------|--------|
G|--------|--------|--------|--------|--------|--------|--------|--------|--------|
D|--------|--------|--------|--------|--------|--------|--------|--------|--------|
A|--------|--------|--------|--------|--------|--------|--------|--------|--------|
E|--------|--------|--------|--------|--------|--------|--------|--------|--------|


E|--------|--------|--------|--------|--------|---------------------------|-----------------------|
B|--------|--------|--------|--------|--------|---------------------------|-----5-------5---------|
G|--------|--------|--------|--------|--------|-------6---6---6---6---6---|-6---------------------|
D|--------|--------|--------|--------|--------|---------------------------|-----------------------|
A|--------|--------|--------|--------|--------|---------------------------|-----------------------|
E|--------|--------|--------|--------|--------|---------------------------|-----------------------|


E|------------------------------|-----------------------|------------------------------|
B|------------------------------|-----------------------|------------------------------|
G|------6---6---6---6---6---6---|-6---5-------5---------|------6---6---6---6---6---6---|
D|------------------------------|-----------------------|------------------------------|
A|------------------------------|-----------------------|------------------------------|
E|------------------------------|-----------------------|------------------------------|


E|-----------------------|------------------------------|-----------------------|--------|
B|-----5-------5---------|------------------------------|-----------------------|--------|
G|-6---------------------|------6---6---6---6---6---6---|-6---5-------5---------|--------|
D|-----------------------|------------------------------|-----------------------|--------|
A|-----------------------|------------------------------|-----------------------|--------|
E|-----------------------|------------------------------|-----------------------|--------|


E|--------|--------|--------|--------|--------|--------|--------|--------|--------|
B|--------|--------|--------|--------|--------|--------|--------|--------|--------|
G|--------|--------|--------|--------|--------|--------|--------|--------|--------|
D|--------|--------|--------|--------|--------|--------|--------|--------|--------|
A|--------|--------|--------|--------|--------|--------|--------|--------|--------|
E|--------|--------|--------|--------|--------|--------|--------|--------|--------|


E|--------|--------|--------|--------|--------|--------|--------|--------|--------|
B|--------|--------|--------|--------|--------|--------|--------|--------|--------|
G|--------|--------|--------|--------|--------|--------|--------|--------|--------|
D|--------|--------|--------|--------|--------|--------|--------|--------|--------|
A|--------|--------|--------|--------|--------|--------|--------|--------|--------|
E|--------|--------|--------|--------|--------|--------|--------|--------|--------|


E|--------|--------|--------|--------|--------|--------|--------|--------|--------|
B|--------|--------|--------|--------|--------|--------|--------|--------|--------|
G|--------|--------|--------|--------|--------|--------|--------|--------|--------|
D|--------|--------|--------|--------|--------|--------|--------|--------|--------|
A|--------|--------|--------|--------|--------|--------|--------|--------|--------|
E|--------|--------|--------|--------|--------|--------|--------|--------|--------|


E|--------|--------|--------|--------|--------|--------|--------|--------|--------|
B|--------|--------|--------|--------|--------|--------|--------|--------|--------|
G|--------|--------|--------|--------|--------|--------|--------|--------|--------|
D|--------|--------|--------|--------|--------|--------|--------|--------|--------|
A|--------|--------|--------|--------|--------|--------|--------|--------|--------|
E|--------|--------|--------|--------|--------|--------|--------|--------|--------|


E|--------|--------|--------|--------|--------|--------|--------|--------|--------|
B|--------|--------|--------|--------|--------|--------|--------|--------|--------|
G|--------|--------|--------|--------|--------|--------|--------|--------|--------|
D|--------|--------|--------|--------|--------|--------|--------|--------|--------|
A|--------|--------|--------|--------|--------|--------|--------|--------|--------|
E|--------|--------|--------|--------|--------|--------|--------|--------|--------|


E|--------|--------|--------|--------|--------|--------|--------|--------|--------|
B|--------|--------|--------|--------|--------|--------|--------|--------|--------|
G|--------|--------|--------|--------|--------|--------|--------|--------|--------|
D|--------|--------|--------|--------|--------|--------|--------|--------|--------|
A|--------|--------|--------|--------|--------|--------|--------|--------|--------|
E|--------|--------|--------|--------|--------|--------|--------|--------|--------|


E|--------|--------|--------|--------|--------|--------|--------|--------|--------|
B|--------|--------|--------|--------|--------|--------|--------|--------|--------|
G|--------|--------|--------|--------|--------|--------|--------|--------|--------|
D|--------|--------|--------|--------|--------|--------|--------|--------|--------|
A|--------|--------|--------|--------|--------|--------|--------|--------|--------|
E|--------|--------|--------|--------|--------|--------|--------|--------|--------|


E|---------------------------|---------------------------|---------------------------|
B|---------------------------|---------------------------|---------------------------|
G|---------------------------|---------------------------|---------------------------|
D|-----2---2---2-------------|-----2---2---2-------------|-----2---2---2-------------|
A|-----------------4----3----|-----------------4----3----|-----------------4----3----|
E|---------------------------|---------------------------|---------------------------|


E|---------------------------------|---------------------------|---------------------------|
B|---------------------------------|---------------------------|---------------------------|
G|---------------------------------|---------------------------|---------------------------|
D|---------------------------------|-----2---2---2-------------|-2---2---2---2-------------|
A|-3---1---3---4---3---1-------3---|-----------------4----3----|-----------------4----3----|
E|---------------------------------|---------------------------|---------------------------|


E|--------|--------|--------|--------|--------|--------|--------|--------|--------|
B|--------|--------|--------|--------|--------|--------|--------|--------|--------|
G|--------|--------|--------|--------|--------|--------|--------|--------|--------|
D|--------|--------|--------|--------|--------|--------|--------|--------|--------|
A|--------|--------|--------|--------|--------|--------|--------|--------|--------|
E|--------|--------|--------|--------|--------|--------|--------|--------|--------|


E|--------|--------|--------|--------|--------|--------|--------|--------|--------|
B|--------|--------|--------|--------|--------|--------|--------|--------|--------|
G|--------|--------|--------|--------|--------|--------|--------|--------|--------|
D|--------|--------|--------|--------|--------|--------|--------|--------|--------|
A|--------|--------|--------|--------|--------|--------|--------|--------|--------|
E|--------|--------|--------|--------|--------|--------|--------|--------|--------|





Track 5: miT - intro w/ tremolo

E|--------|--------|--------|--------|--------|--------|--------|--------|--------|
B|--------|--------|--------|--------|--------|--------|--------|--------|--------|
G|--------|--------|--------|--------|--------|--------|--------|--------|--------|
D|--------|--------|--------|--------|--------|--------|--------|--------|--------|
A|--------|--------|--------|--------|--------|--------|--------|--------|--------|
E|--------|--------|--------|--------|--------|--------|--------|--------|--------|


E|--------|--------|--------|--------|--------|--------|--------|--------|--------|
B|--------|--------|--------|--------|--------|--------|--------|--------|--------|
G|--------|--------|--------|--------|--------|--------|--------|--------|--------|
D|--------|--------|--------|--------|--------|--------|--------|--------|--------|
A|--------|--------|--------|--------|--------|--------|--------|--------|--------|
E|--------|--------|--------|--------|--------|--------|--------|--------|--------|


E|--------|--------|--------|--------|--------|--------|--------|--------|--------|
B|--------|--------|--------|--------|--------|--------|--------|--------|--------|
G|--------|--------|--------|--------|--------|--------|--------|--------|--------|
D|--------|--------|--------|--------|--------|--------|--------|--------|--------|
A|--------|--------|--------|--------|--------|--------|--------|--------|--------|
E|--------|--------|--------|--------|--------|--------|--------|--------|--------|


E|--------|--------|--------|--------|--------|--------|--------|--------|--------|
B|--------|--------|--------|--------|--------|--------|--------|--------|--------|
G|--------|--------|--------|--------|--------|--------|--------|--------|--------|
D|--------|--------|--------|--------|--------|--------|--------|--------|--------|
A|--------|--------|--------|--------|--------|--------|--------|--------|--------|
E|--------|--------|--------|--------|--------|--------|--------|--------|--------|


E|--------|--------|--------|--------|--------|--------|--------|--------|--------|
B|--------|--------|--------|--------|--------|--------|--------|--------|--------|
G|--------|--------|--------|--------|--------|--------|--------|--------|--------|
D|--------|--------|--------|--------|--------|--------|--------|--------|--------|
A|--------|--------|--------|--------|--------|--------|--------|--------|--------|
E|--------|--------|--------|--------|--------|--------|--------|--------|--------|


E|--------|--------|--------|--------|--------|--------|--------|--------|--------|
B|--------|--------|--------|--------|--------|--------|--------|--------|--------|
G|--------|--------|--------|--------|--------|--------|--------|--------|--------|
D|--------|--------|--------|--------|--------|--------|--------|--------|--------|
A|--------|--------|--------|--------|--------|--------|--------|--------|--------|
E|--------|--------|--------|--------|--------|--------|--------|--------|--------|


E|--------|--------|--------|--------|--------|--------|--------|--------|--------|
B|--------|--------|--------|--------|--------|--------|--------|--------|--------|
G|--------|--------|--------|--------|--------|--------|--------|--------|--------|
D|--------|--------|--------|--------|--------|--------|--------|--------|--------|
A|--------|--------|--------|--------|--------|--------|--------|--------|--------|
E|--------|--------|--------|--------|--------|--------|--------|--------|--------|


E|--------|--------|--------|--------|--------|--------|--------|--------|--------|
B|--------|--------|--------|--------|--------|--------|--------|--------|--------|
G|--------|--------|--------|--------|--------|--------|--------|--------|--------|
D|--------|--------|--------|--------|--------|--------|--------|--------|--------|
A|--------|--------|--------|--------|--------|--------|--------|--------|--------|
E|--------|--------|--------|--------|--------|--------|--------|--------|--------|


E|--------|--------|--------|--------|--------|--------|--------|--------|--------|
B|--------|--------|--------|--------|--------|--------|--------|--------|--------|
G|--------|--------|--------|--------|--------|--------|--------|--------|--------|
D|--------|--------|--------|--------|--------|--------|--------|--------|--------|
A|--------|--------|--------|--------|--------|--------|--------|--------|--------|
E|--------|--------|--------|--------|--------|--------|--------|--------|--------|


E|--------|--------|--------|-------------|--------|--------|--------|--------|--------|
B|--------|--------|--------|-------------|--------|--------|--------|--------|--------|
G|--------|--------|--------|-------------|--------|--------|--------|--------|--------|
D|--------|--------|--------|-------------|--------|--------|--------|--------|--------|
A|--------|--------|--------|-------------|--------|--------|--------|--------|--------|
E|--------|--------|--------|-------------|--------|--------|--------|--------|--------|


E|--------|--------|--------|--------|--------|--------|--------|--------|--------|
B|--------|--------|--------|--------|--------|--------|--------|--------|--------|
G|--------|--------|--------|--------|--------|--------|--------|--------|--------|
D|--------|--------|--------|--------|--------|--------|--------|--------|--------|
A|--------|--------|--------|--------|--------|--------|--------|--------|--------|
E|--------|--------|--------|--------|--------|--------|--------|--------|--------|


E|--------|--------|--------|--------|--------|--------|--------|--------|--------|
B|--------|--------|--------|--------|--------|--------|--------|--------|--------|
G|--------|--------|--------|--------|--------|--------|--------|--------|--------|
D|--------|--------|--------|--------|--------|--------|--------|--------|--------|
A|--------|--------|--------|--------|--------|--------|--------|--------|--------|
E|--------|--------|--------|--------|--------|--------|--------|--------|--------|


E|--------|--------|--------|--------|--------|--------|--------|--------|--------|
B|--------|--------|--------|--------|--------|--------|--------|--------|--------|
G|--------|--------|--------|--------|--------|--------|--------|--------|--------|
D|--------|--------|--------|--------|--------|--------|--------|--------|--------|
A|--------|--------|--------|--------|--------|--------|--------|--------|--------|
E|--------|--------|--------|--------|--------|--------|--------|--------|--------|


E|--------|--------|--------|--------|--------|--------|--------|--------|--------|
B|--------|--------|--------|--------|--------|--------|--------|--------|--------|
G|--------|--------|--------|--------|--------|--------|--------|--------|--------|
D|--------|--------|--------|--------|--------|--------|--------|--------|--------|
A|--------|--------|--------|--------|--------|--------|--------|--------|--------|
E|--------|--------|--------|--------|--------|--------|--------|--------|--------|


E|--------|--------|
B|--------|--------|
G|--------|--------|
D|--------|--------|
A|--------|--------|
E|--------|--------|





Track 6: Nix Hex

E|--------|--------|--------|--------|--------|--------|--------|--------|--------|
B|--------|--------|--------|--------|--------|--------|--------|--------|--------|
G|--------|--------|--------|--------|--------|--------|--------|--------|--------|
D|--------|--------|--------|--------|--------|--------|--------|--------|--------|
A|--------|--------|--------|--------|--------|--------|--------|--------|--------|
E|--------|--------|--------|--------|--------|--------|--------|--------|--------|


E|--------|--------|--------|--------|--------|--------|--------|--------|--------|
B|--------|--------|--------|--------|--------|--------|--------|--------|--------|
G|--------|--------|--------|--------|--------|--------|--------|--------|--------|
D|--------|--------|--------|--------|--------|--------|--------|--------|--------|
A|--------|--------|--------|--------|--------|--------|--------|--------|--------|
E|--------|--------|--------|--------|--------|--------|--------|--------|--------|


E|--------|--------|--------|--------|--------|--------|--------|--------|--------|
B|--------|--------|--------|--------|--------|--------|--------|--------|--------|
G|--------|--------|--------|--------|--------|--------|--------|--------|--------|
D|--------|--------|--------|--------|--------|--------|--------|--------|--------|
A|--------|--------|--------|--------|--------|--------|--------|--------|--------|
E|--------|--------|--------|--------|--------|--------|--------|--------|--------|


E|--------|--------|--------|--------|--------|--------|--------|--------|--------|
B|--------|--------|--------|--------|--------|--------|--------|--------|--------|
G|--------|--------|--------|--------|--------|--------|--------|--------|--------|
D|--------|--------|--------|--------|--------|--------|--------|--------|--------|
A|--------|--------|--------|--------|--------|--------|--------|--------|--------|
E|--------|--------|--------|--------|--------|--------|--------|--------|--------|


E|--------|--------|--------|--------|--------|--------|--------|--------|--------|
B|--------|--------|--------|--------|--------|--------|--------|--------|--------|
G|--------|--------|--------|--------|--------|--------|--------|--------|--------|
D|--------|--------|--------|--------|--------|--------|--------|--------|--------|
A|--------|--------|--------|--------|--------|--------|--------|--------|--------|
E|--------|--------|--------|--------|--------|--------|--------|--------|--------|


E|--------|--------|--------|--------|--------|--------|--------|--------|--------|
B|--------|--------|--------|--------|--------|--------|--------|--------|--------|
G|--------|--------|--------|--------|--------|--------|--------|--------|--------|
D|--------|--------|--------|--------|--------|--------|--------|--------|--------|
A|--------|--------|--------|--------|--------|--------|--------|--------|--------|
E|--------|--------|--------|--------|--------|--------|--------|--------|--------|


E|--------|--------|--------|--------|--------|--------|--------|--------|--------|
B|--------|--------|--------|--------|--------|--------|--------|--------|--------|
G|--------|--------|--------|--------|--------|--------|--------|--------|--------|
D|--------|--------|--------|--------|--------|--------|--------|--------|--------|
A|--------|--------|--------|--------|--------|--------|--------|--------|--------|
E|--------|--------|--------|--------|--------|--------|--------|--------|--------|


E|--------|--------|--------|--------|--------|--------|--------|--------|--------|
B|--------|--------|--------|--------|--------|--------|--------|--------|--------|
G|--------|--------|--------|--------|--------|--------|--------|--------|--------|
D|--------|--------|--------|--------|--------|--------|--------|--------|--------|
A|--------|--------|--------|--------|--------|--------|--------|--------|--------|
E|--------|--------|--------|--------|--------|--------|--------|--------|--------|


E|--------|--------|--------|--------|--------|--------|--------|--------|--------|
B|--------|--------|--------|--------|--------|--------|--------|--------|--------|
G|--------|--------|--------|--------|--------|--------|--------|--------|--------|
D|--------|--------|--------|--------|--------|--------|--------|--------|--------|
A|--------|--------|--------|--------|--------|--------|--------|--------|--------|
E|--------|--------|--------|--------|--------|--------|--------|--------|--------|


E|--------|--------|--------|------------------------------|-----------------------|
B|--------|--------|--------|------------------------------|-----5-------5---------|
G|--------|--------|--------|------6---6---6---6---6---6---|-6---------------------|
D|--------|--------|--------|------------------------------|-----------------------|
A|--------|--------|--------|------------------------------|-----------------------|
E|--------|--------|--------|------------------------------|-----------------------|


E|------------------------------|-----------------------|--------|--------|--------|
B|------------------------------|-----------------------|--------|--------|--------|
G|------6---6---6---6---6---6---|-6---5-------5---------|--------|--------|--------|
D|------------------------------|-----------------------|--------|--------|--------|
A|------------------------------|-----------------------|--------|--------|--------|
E|------------------------------|-----------------------|--------|--------|--------|


E|--------|--------|--------|--------|--------|--------|--------|--------|--------|
B|--------|--------|--------|--------|--------|--------|--------|--------|--------|
G|--------|--------|--------|--------|--------|--------|--------|--------|--------|
D|--------|--------|--------|--------|--------|--------|--------|--------|--------|
A|--------|--------|--------|--------|--------|--------|--------|--------|--------|
E|--------|--------|--------|--------|--------|--------|--------|--------|--------|


E|--------|--------|--------|--------|--------|--------|--------|--------|--------|
B|--------|--------|--------|--------|--------|--------|--------|--------|--------|
G|--------|--------|--------|--------|--------|--------|--------|--------|--------|
D|--------|--------|--------|--------|--------|--------|--------|--------|--------|
A|--------|--------|--------|--------|--------|--------|--------|--------|--------|
E|--------|--------|--------|--------|--------|--------|--------|--------|--------|


E|--------|--------|--------|--------|--------|--------|--------|--------|--------|
B|--------|--------|--------|--------|--------|--------|--------|--------|--------|
G|--------|--------|--------|--------|--------|--------|--------|--------|--------|
D|--------|--------|--------|--------|--------|--------|--------|--------|--------|
A|--------|--------|--------|--------|--------|--------|--------|--------|--------|
E|--------|--------|--------|--------|--------|--------|--------|--------|--------|


E|--------|--------|--------|--------|--------|--------|--------|--------|--------|
B|--------|--------|--------|--------|--------|--------|--------|--------|--------|
G|--------|--------|--------|--------|--------|--------|--------|--------|--------|
D|--------|--------|--------|--------|--------|--------|--------|--------|--------|
A|--------|--------|--------|--------|--------|--------|--------|--------|--------|
E|--------|--------|--------|--------|--------|--------|--------|--------|--------|


E|--------|
B|--------|
G|--------|
D|--------|
A|--------|
E|--------|