Site menu:

    

Browse: 0-9 A B C D E F G H I J K L N O P Q R S T U V W X Y Z

311 - running:



Title: Running
Artist: 
Album: Transistor
Author: Timothy Mahoney


Track 1: Clean Elec. 1

E|-------------------------------------------------|-------------------------------------------------|
B|----------2--3--2--------3--2-----------2--3--2--|-------3--2-----------2--3--2--------3--2--------|
G|----------------------0--------------------------|----0-----------------------------0--------------|
D|----2--------------4--------------2--------------|-4--------------2--------------4--------------2--|
A|-0-----0--------0--------------0-----0--------0--|-------------0-----0--------0--------------0-----|
E|-------------------------------------------------|-------------------------------------------------|


E|-------------------------------------------------|-------------------------------------------------|
B|----2--3--2--------3--2-----------2--3--2--------|-3--2-----------2--3--2--------3--2-----------2--|
G|----------------0-----------------------------0--|----------------------------0--------------------|
D|-------------4--------------2--------------4-----|----------2--------------4--------------2--------|
A|-0--------0--------------0-----0--------0--------|-------0-----0--------0--------------0-----0-----|
E|-------------------------------------------------|-------------------------------------------------|


E|-------------------------------------------------|-------------------------------------------------|
B|-3--2--------3--2-----------2--3--2--------3--2--|----------2--3--2--------3--2-----------2--3--2--|
G|----------0-----------------------------0--------|----------------------0--------------------------|
D|-------4--------------2--------------4-----------|----2--------------4--------------2--------------|
A|----0--------------0-----0--------0--------------|-0-----0--------0--------------0-----0--------0--|
E|-------------------------------------------------|-------------------------------------------------|


E|-------------------------------------------------|-------------------------------------------------|
B|-------3--2-----------2--3--2--------3--2--------|----2--3--2--------3--2-----------2--3--2--------|
G|----0-----------------------------0--------------|----------------0-----------------------------0--|
D|-4--------------2--------------4--------------2--|-------------4--------------2--------------4-----|
A|-------------0-----0--------0--------------0-----|-0--------0--------------0-----0--------0--------|
E|-------------------------------------------------|-------------------------------------------------|


E|-------------------------------------------------|-------------------------------------------------|
B|-3--2-----------2--3--2--------3--2-----------2--|-3--2--------3--2-----------2--3--2--------3--2--|
G|----------------------------0--------------------|----------0-----------------------------0--------|
D|----------2--------------4--------------2--------|-------4--------------2--------------4-----------|
A|-------0-----0--------0--------------0-----0-----|----0--------------0-----0--------0--------------|
E|-------------------------------------------------|-------------------------------------------------|


E|-------------------------------------------------|-------------------------------------------------|
B|----------2--3--2--------3--2-----------2--3--2--|-------3--2-----------2--3--2--------3--2--------|
G|----------------------0--------------------------|----0-----------------------------0--------------|
D|----2--------------4--------------2--------------|-4--------------2--------------4--------------2--|
A|-0-----0--------0--------------0-----0--------0--|-------------0-----0--------0--------------0-----|
E|-------------------------------------------------|-------------------------------------------------|


E|-------------------------------------------------|-------------------------------------------------|
B|----2--3--2--------3--2-----------2--3--2--------|-3--2-----------2--3--2--------3--2-----------2--|
G|----------------0-----------------------------0--|----------------------------0--------------------|
D|-------------4--------------2--------------4-----|----------2--------------4--------------2--------|
A|-0--------0--------------0-----0--------0--------|-------0-----0--------0--------------0-----0-----|
E|-------------------------------------------------|-------------------------------------------------|


E|-------------------------------------------------|-------------------------------------------------|
B|-3--2--------3--2-----------2--3--2--------3--2--|-------------------------------------------------|
G|----------0-----------------------------0--------|-------------------------------------------------|
D|-------4--------------2--------------4-----------|-------------------------------------------------|
A|----0--------------0-----0--------0--------------|----------3-----4--3-----5--4--3-----4--3--------|
E|-------------------------------------------------|-3--4--5-----5--------5-----------5--------5--4--|


E|-------------------------------------------------|-------------------------------------------------|
B|-------------------------------------------------|-------------------------------------------------|
G|-------------------------------------------------|-------------------------------------------------|
D|-------------------------------------------------|-------------------------------------------------|
A|----------3-----4--3-----5--4--3-----4--3--------|----------3-----4--3-----5--4--3-----4--3--------|
E|-3--4--5-----5--------5-----------5--------5--4--|-3--4--5-----5--------5-----------5--------5--4--|


E|-------------------------------------------------|-------------------------------------------------|
B|-------------------------------------------------|-------------------------------------------------|
G|-------------------------------------------------|-------------------------------------------------|
D|-------------------------------------------------|-------------------------------------------------|
A|----------3-----4--3-----5--4--3-----4--3--------|----------3-----4--3-----5--4--3-----4--3--------|
E|-3--4--5-----5--------5-----------5--------5--4--|-3--4--5-----5--------5-----------5--------5--4--|


E|-------------------------------------------------|-------------------------------------------------|
B|-------------------------------------------------|-------------------------------------------------|
G|-------------------------------------------------|-------------------------------------------------|
D|-------------------------------------------------|-------------------------------------------------|
A|----------3-----4--3-----5--4--3-----4--3--------|----------3-----4--3-----5--4--3-----4--3--------|
E|-3--4--5-----5--------5-----------5--------5--4--|-3--4--5-----5--------5-----------5--------5--4--|


E|-----------------------------------------------|--------|--------|--------|--------|
B|-----------------------------------------------|--------|--------|--------|--------|
G|-----------------------------------------------|--------|--------|--------|--------|
D|-----------------------------------------------|--------|--------|--------|--------|
A|----------3-----4--3-----5--4--3-----4--3------|--------|--------|--------|--------|
E|-3--4--5-----5--------5-----------5--------5---|--------|--------|--------|--------|


E|--------|--------|--------|--------|-------------------------------------------------|
B|--------|--------|--------|--------|-------------------------------------------------|
G|--------|--------|--------|--------|-------------------------------------------------|
D|--------|--------|--------|--------|-------------------------------------------------|
A|--------|--------|--------|--------|----------3-----4--3-----5--4--3-----4--3--------|
E|--------|--------|--------|--------|-3--4--5-----5--------5-----------5--------5--4--|


E|-------------------------------------------------|-------------------------------------------------|
B|-------------------------------------------------|-------------------------------------------------|
G|-------------------------------------------------|-------------------------------------------------|
D|-------------------------------------------------|-------------------------------------------------|
A|----------3-----4--3-----5--4--3-----4--3--------|----------3-----4--3-----5--4--3-----4--3--------|
E|-3--4--5-----5--------5-----------5--------5--4--|-3--4--5-----5--------5-----------5--------5--4--|


E|-------------------------------------------------|-------------------------------------------------|
B|-------------------------------------------------|-------------------------------------------------|
G|-------------------------------------------------|-------------------------------------------------|
D|-------------------------------------------------|-------------------------------------------------|
A|----------3-----4--3-----5--4--3-----4--3--------|----------3-----4--3-----5--4--3-----4--3--------|
E|-3--4--5-----5--------5-----------5--------5--4--|-3--4--5-----5--------5-----------5--------5--4--|


E|-------------------------------------------------|-------------------------------------------------|
B|-------------------------------------------------|-------------------------------------------------|
G|-------------------------------------------------|-------------------------------------------------|
D|-------------------------------------------------|-------------------------------------------------|
A|----------3-----4--3-----5--4--3-----4--3--------|----------3-----4--3-----5--4--3-----4--3--------|
E|-3--4--5-----5--------5-----------5--------5--4--|-3--4--5-----5--------5-----------5--------5--4--|


E|-----------------------------------------------|--------|--------|--------|--------|
B|-----------------------------------------------|--------|--------|--------|--------|
G|-----------------------------------------------|--------|--------|--------|--------|
D|-----------------------------------------------|--------|--------|--------|--------|
A|----------3-----4--3-----5--4--3-----4--3------|--------|--------|--------|--------|
E|-3--4--5-----5--------5-----------5--------5---|--------|--------|--------|--------|


E|--------|--------|--------|--------|--------|--------|--------|--------|--------|
B|--------|--------|--------|--------|--------|--------|--------|--------|--------|
G|--------|--------|--------|--------|--------|--------|--------|--------|--------|
D|--------|--------|--------|--------|--------|--------|--------|--------|--------|
A|--------|--------|--------|--------|--------|--------|--------|--------|--------|
E|--------|--------|--------|--------|--------|--------|--------|--------|--------|


E|--------|--------|--------|-------------------------------------------------|-------------------------------------------------|
B|--------|--------|--------|----------2--3--2--------3--2-----------2--3--2--|-------3--2-----------2--3--2--------3--2--------|
G|--------|--------|--------|----------------------0--------------------------|----0-----------------------------0--------------|
D|--------|--------|--------|----2--------------4--------------2--------------|-4--------------2--------------4--------------2--|
A|--------|--------|--------|-0-----0--------0--------------0-----0--------0--|-------------0-----0--------0--------------0-----|
E|--------|--------|--------|-------------------------------------------------|-------------------------------------------------|


E|-------------------------------------------------|-------------------------------------------------|
B|----2--3--2--------3--2-----------2--3--2--------|-3--2-----------2--3--2--------3--2-----------2--|
G|----------------0-----------------------------0--|----------------------------0--------------------|
D|-------------4--------------2--------------4-----|----------2--------------4--------------2--------|
A|-0--------0--------------0-----0--------0--------|-------0-----0--------0--------------0-----0-----|
E|-------------------------------------------------|-------------------------------------------------|


E|-------------------------------------------------|-------------------------------------------------|
B|-3--2--------3--2-----------2--3--2--------3--2--|----------2--3--2--------3--2-----------2--3--2--|
G|----------0-----------------------------0--------|----------------------0--------------------------|
D|-------4--------------2--------------4-----------|----2--------------4--------------2--------------|
A|----0--------------0-----0--------0--------------|-0-----0--------0--------------0-----0--------0--|
E|-------------------------------------------------|-------------------------------------------------|


E|-------------------------------------------------|-------------------------------------------------|
B|-------3--2-----------2--3--2--------3--2--------|----2--3--2--------3--2--------------------------|
G|----0-----------------------------0--------------|----------------0--------------------------------|
D|-4--------------2--------------4--------------2--|-------------4-----------------------------------|
A|-------------0-----0--------0--------------0-----|-0--------0-----------------------3-----4--3-----|
E|-------------------------------------------------|-------------------------3--4--5-----5--------5--|


E|-------------------------------------------------|-------------------------------------------------|
B|-------------------------------------------------|-------------------------------------------------|
G|-------------------------------------------------|-------------------------------------------------|
D|-------------------------------------------------|-------------------------------------------------|
A|-5--4--3-----4--3-----------------3-----4--3-----|-5--4--3-----4--3-----------------3-----4--3-----|
E|----------5--------5--4--3--4--5-----5--------5--|----------5--------5--4--3--4--5-----5--------5--|


E|-------------------------------------------------|-----------------------------|
B|-------------------------------------------------|-----------------------------|
G|-------------------------------------------------|-----------------------------|
D|-------------------------------------------------|-----------------------------|
A|-5--4--3-----4--3-----------------3-----4--3-----|-5--4--3-----4--3------------|
E|----------5--------5--4--3--4--5-----5--------5--|----------5--------5---------|


E|--------|--------|--------|--------|--------|--------|--------|-------------------------------|
B|--------|--------|--------|--------|--------|--------|--------|----------------2--3--2--------|
G|--------|--------|--------|--------|--------|--------|--------|----------------------------0--|
D|--------|--------|--------|--------|--------|--------|--------|----------2--------------4-----|
A|--------|--------|--------|--------|--------|--------|--------|-------0-----0--------0--------|
E|--------|--------|--------|--------|--------|--------|--------|-------------------------------|


E|-------------------------------------------------|-------------------------------------------------|
B|-3--2-----------2--3--2--------3--2-----------2--|-3--2--------3--2-----------2--3--2--------3--2--|
G|----------------------------0--------------------|----------0-----------------------------0--------|
D|----------2--------------4--------------2--------|-------4--------------2--------------4-----------|
A|-------0-----0--------0--------------0-----0-----|----0--------------0-----0--------0--------------|
E|-------------------------------------------------|-------------------------------------------------|


E|-------------------------------------------------|-------------------------------------------------|
B|----------2--3--2--------3--2-----------2--3--2--|-------3--2-----------2--3--2--------3--2--------|
G|----------------------0--------------------------|----0-----------------------------0--------------|
D|----2--------------4--------------2--------------|-4--------------2--------------4--------------2--|
A|-0-----0--------0--------------0-----0--------0--|-------------0-----0--------0--------------0-----|
E|-------------------------------------------------|-------------------------------------------------|


E|-------------------------------|----------------|
B|----2--3--2--------3--2--2-----|----------------|
G|----------------0--------------|----------------|
D|-------------4-----------------|----------------|
A|-0--------0--------------------|----------------|
E|-------------------------------|----------------|





Track 2: Clean Elec. 3

E|--------|--------|-----------------------|--------------12--------------|---------------------|
B|--------|--------|-------5--10---10--10--|-----10---10----------12--12--|-14--14---14---------|
G|--------|--------|-----------------------|------------------------------|---------------------|
D|--------|--------|-----------------------|------------------------------|---------------------|
A|--------|--------|-----------------------|------------------------------|---------------------|
E|--------|--------|-----------------------|------------------------------|---------------------|


E|---------------------------------------|-------------------------------------|-------------------------------------|
B|---------------------------------------|-------------------------------------|-------------------------------------|
G|-12---11-------------------------------|---------12---11---------------------|-------------------12---11-----------|
D|------------12-11----------------------|--------------------12-11------------|------------------------------12-11--|
A|--------------------12----10-9--10-9---|----------------------------12----10-|-9--10-9---12--12--------------------|
E|---------------------------------------|-10--9-------------------------------|-------------------------------------|


E|---------------------------------------|---------------------------------------|
B|---------------------------------------|---------------------------------------|
G|-------------------------------12---11-|---------------------------------------|
D|---------------------------------------|----12-11------------------------------|
A|----12----10-9--10-9-------------------|------------12----10-9--10-9---12--12--|
E|-----------------------10--9-----------|---------------------------------------|


E|---------------------------------------|-------------------------------------|-------------------------------------|
B|---------------------------------------|-------------------------------------|-------------------------------------|
G|-12---11-------------------------------|---------12---11---------------------|-------------------12---11-----------|
D|------------12-11----------------------|--------------------12-11------------|------------------------------12-11--|
A|--------------------12----10-9--10-9---|----------------------------12----10-|-9--10-9---12--12--------------------|
E|---------------------------------------|-10--9-------------------------------|-------------------------------------|


E|---------------------------------------|---------------------------------------|
B|---------------------------------------|---------------------------------------|
G|-------------------------------12---11-|---------------------------------------|
D|---------------------------------------|----12-11------------------------------|
A|----12----10-9--10-9-------------------|------------12----10-9--10-9---12--12--|
E|-----------------------10--9-----------|---------------------------------------|


E|-------------------------------------|-------------------------------------|-------------------------------------|
B|-----8-------10------8---------------|-----8-------10------8---------------|-----8-------10------8---------------|
G|-9-------11------9------7--7--5------|-9-------11------9------7--7--5------|-9-------11------9------7--7--5------|
D|---------------------------------7---|---------------------------------7---|---------------------------------7---|
A|-------------------------------------|-------------------------------------|-------------------------------------|
E|-------------------------------------|-------------------------------------|-------------------------------------|


E|-------------------------------------|-------------------------------------|-------------------------------------|
B|-----8-------10------8---------------|-----8-------10------8---------------|-----8-------10------8---------------|
G|-9-------11------9------7--7--5------|-9-------11------9------7--7--5------|-9-------11------9------7--7--5------|
D|---------------------------------7---|---------------------------------7---|---------------------------------7---|
A|-------------------------------------|-------------------------------------|-------------------------------------|
E|-------------------------------------|-------------------------------------|-------------------------------------|


E|-------------------------------------|-------------------------------------|--------|
B|-----8-------10------8---------------|-----8-------10------8---------------|--------|
G|-9-------11------9------7--7--5------|-9-------11------9------7--7--5------|--------|
D|---------------------------------7---|---------------------------------7---|--------|
A|-------------------------------------|-------------------------------------|--------|
E|-------------------------------------|-------------------------------------|--------|


E|--------|--------|--------|--------|--------|--------|--------|-------------------------------------|
B|--------|--------|--------|--------|--------|--------|--------|-----8-------10------8---------------|
G|--------|--------|--------|--------|--------|--------|--------|-9-------11------9------7--7--5------|
D|--------|--------|--------|--------|--------|--------|--------|---------------------------------7---|
A|--------|--------|--------|--------|--------|--------|--------|-------------------------------------|
E|--------|--------|--------|--------|--------|--------|--------|-------------------------------------|


E|-------------------------------------|-------------------------------------|-------------------------------------|
B|-----8-------10------8---------------|-----8-------10------8---------------|-----8-------10------8---------------|
G|-9-------11------9------7--7--5------|-9-------11------9------7--7--5------|-9-------11------9------7--7--5------|
D|---------------------------------7---|---------------------------------7---|---------------------------------7---|
A|-------------------------------------|-------------------------------------|-------------------------------------|
E|-------------------------------------|-------------------------------------|-------------------------------------|


E|-------------------------------------|-------------------------------------|-------------------------------------|
B|-----8-------10------8---------------|-----8-------10------8---------------|-----8-------10------8---------------|
G|-9-------11------9------7--7--5------|-9-------11------9------7--7--5------|-9-------11------9------7--7--5------|
D|---------------------------------7---|---------------------------------7---|---------------------------------7---|
A|-------------------------------------|-------------------------------------|-------------------------------------|
E|-------------------------------------|-------------------------------------|-------------------------------------|


E|-------------------------------------|--------|--------|--------|--------|--------|
B|-----8-------10------8---------------|--------|--------|--------|--------|--------|
G|-9-------11------9------7--7--5------|--------|--------|--------|--------|--------|
D|---------------------------------7---|--------|--------|--------|--------|--------|
A|-------------------------------------|--------|--------|--------|--------|--------|
E|-------------------------------------|--------|--------|--------|--------|--------|


E|--------|--------|--------|-----------------------------------------------|--------------------------------------|
B|--------|--------|--------|----------------------13-----------------------|--------------------------------------|
G|--------|--------|--------|----15-14-12-14-15-14-------15-14-12-15-14--12-|--------------------------------------|
D|--------|--------|--------|-----------------------------------------------|----15-----14--15-14-14---14-15-14----|
A|--------|--------|--------|-----------------------------------------------|-----------------------------------15-|
E|--------|--------|--------|-----------------------------------------------|--------------------------------------|


E|-----------------------------------------------|-------------------------------|
B|-----------------------------------------------|-------------------------------|
G|----------------------------------15-14--15-15-|----15-14-15-15-17-17-17-17----|
D|-------------------14----14-15-17--------------|-------------------------------|
A|----13-12-13-13-15----15-----------------------|-------------------------------|
E|-----------------------------------------------|-------------------------------|


E|-------------------13-12-12----|-------------------13-12-12----|-------------------13-12-12--13--------12----|
B|-------------------------------|-------------------------------|--------------------------------15-15-----13-|
G|-15-14-12-------12-------------|-15-14-12-------12-------------|-15-14-12-------12---------------------------|
D|----------15-14----------------|----------15-14----------------|----------15-14------------------------------|
A|-------------------------------|-------------------------------|---------------------------------------------|
E|-------------------------------|-------------------------------|---------------------------------------------|


E|-----------------------------------------------|------------------|-----------------|
B|-13--13-12-------------13----12----------------|------------------|-----------------|
G|-----------15-14-15----------------14-------12-|-14----14---------|-----------------|
D|-----------------------------------------15----|------------------|-----------------|
A|-----------------------------------------------|------------------|-----------------|
E|-----------------------------------------------|------------------|-----------------|


E|-------------------------|---------------------------------------|---------------------------------------|
B|-------------------------|---------------------------------------|---------------------------------------|
G|-------12---11-----------|-------------------------------12---11-|---------------------------------------|
D|------------------12-11--|---------------------------------------|----12-11------------------------------|
A|-------------------------|----12----10-9--10-9-------------------|------------12----10-9--10-9---12--12--|
E|-------------------------|-----------------------10--9-----------|---------------------------------------|


E|---------------------------------------|-------------------------------------|-----------------------------------|
B|---------------------------------------|-------------------------------------|-----------------------8-------10--|
G|-12---11-------------------------------|---------12---11---------------------|-------------------9-------11------|
D|------------12-11----------------------|--------------------12-11------------|-----------------------------------|
A|--------------------12----10-9--10-9---|----------------------------12----10-|-9--10-9---12--12------------------|
E|---------------------------------------|-10--9-------------------------------|-----------------------------------|


E|-------------------------------------|-------------------------------------|-------------------------------------|
B|-----8-------------------8-------10--|-----8-------------------8-------10--|-----8-------------------8-------10--|
G|-9------7--7--5------9-------11------|-9------7--7--5------9-------11------|-9------7--7--5------9-------11------|
D|-----------------7-------------------|-----------------7-------------------|-----------------7-------------------|
A|-------------------------------------|-------------------------------------|-------------------------------------|
E|-------------------------------------|-------------------------------------|-------------------------------------|


E|---------------------------|--------|--------|--------|--------|--------|--------|
B|-----8---------------------|--------|--------|--------|--------|--------|--------|
G|-9------7--7--5------------|--------|--------|--------|--------|--------|--------|
D|-----------------7---------|--------|--------|--------|--------|--------|--------|
A|---------------------------|--------|--------|--------|--------|--------|--------|
E|---------------------------|--------|--------|--------|--------|--------|--------|


E|--------|-----------------|-----------------------------|------------------------|
B|--------|-----------------|-----------------------------|------------------------|
G|--------|-------12----12--|-----12----12-11---11--11-9--|-9---9----9-----9---9---|
D|--------|-----------------|-----------------------------|------------------------|
A|--------|-----------------|-----------------------------|------------------------|
E|--------|-----------------|-----------------------------|------------------------|


E|---------------------|-12---------------------------|-----------------|----------------|
B|---------------------|---------12--12--14--14---14--|------14---------|----------------|
G|-14----14---14---14--|------------------------------|-----------------|----------------|
D|---------------------|------------------------------|-----------------|----------------|
A|---------------------|------------------------------|-----------------|----------------|
E|---------------------|------------------------------|-----------------|----------------|





Track 3: Clean Elec. 4

E|--------|--------|--------|--------|--------|--------|--------|--------|--------|
B|--------|--------|--------|--------|--------|--------|--------|--------|--------|
G|--------|--------|--------|--------|--------|--------|--------|--------|--------|
D|--------|--------|--------|--------|--------|--------|--------|--------|--------|
A|--------|--------|--------|--------|--------|--------|--------|--------|--------|
E|--------|--------|--------|--------|--------|--------|--------|--------|--------|


E|--------|--------|--------|--------|--------|--------|-5---5--5--5--5--5--5--5--5--5--5--5--5--5--5--|
B|--------|--------|--------|--------|--------|--------|-5---5--5--5--5--5--5--5--5--5--5--5--5--5--5--|
G|--------|--------|--------|--------|--------|--------|-6---6--6--6--6--6--6--6--6--6--6--6--6--6--6--|
D|--------|--------|--------|--------|--------|--------|-7---7--7--7--7--7--7--7--7--7--7--7--7--7--7--|
A|--------|--------|--------|--------|--------|--------|-7---7--7--7--7--7--7--7--7--7--7--7--7--7--7--|
E|--------|--------|--------|--------|--------|--------|-----------------------------------------------|


E|-5---5--5--5--5--5--5--5--5--5--5--5--5--5--5--|-5---5--5--5--5--5--5--5--5--5--5--5--5--5--5--|
B|-5---5--5--5--5--5--5--5--5--5--5--5--5--5--5--|-5---5--5--5--5--5--5--5--5--5--5--5--5--5--5--|
G|-6---6--6--6--6--6--6--6--6--6--6--6--6--6--6--|-6---6--6--6--6--6--6--6--6--6--6--6--6--6--6--|
D|-7---7--7--7--7--7--7--7--7--7--7--7--7--7--7--|-7---7--7--7--7--7--7--7--7--7--7--7--7--7--7--|
A|-7---7--7--7--7--7--7--7--7--7--7--7--7--7--7--|-7---7--7--7--7--7--7--7--7--7--7--7--7--7--7--|
E|-----------------------------------------------|-----------------------------------------------|


E|-5---5--5--5--5--5--5--5--5--5--5--5--5--5--5--|-5---5--5--5--5--5--5--5--5--5--5--5--5--5--5--|
B|-5---5--5--5--5--5--5--5--5--5--5--5--5--5--5--|-5---5--5--5--5--5--5--5--5--5--5--5--5--5--5--|
G|-6---6--6--6--6--6--6--6--6--6--6--6--6--6--6--|-6---6--6--6--6--6--6--6--6--6--6--6--6--6--6--|
D|-7---7--7--7--7--7--7--7--7--7--7--7--7--7--7--|-7---7--7--7--7--7--7--7--7--7--7--7--7--7--7--|
A|-7---7--7--7--7--7--7--7--7--7--7--7--7--7--7--|-7---7--7--7--7--7--7--7--7--7--7--7--7--7--7--|
E|-----------------------------------------------|-----------------------------------------------|


E|-5---5--5--5--5--5--5--5--5--5--5--5--5--5--5--|-5---5--5--5--5--5--5--5--5--5--5--5--5--5--5--|
B|-5---5--5--5--5--5--5--5--5--5--5--5--5--5--5--|-5---5--5--5--5--5--5--5--5--5--5--5--5--5--5--|
G|-6---6--6--6--6--6--6--6--6--6--6--6--6--6--6--|-6---6--6--6--6--6--6--6--6--6--6--6--6--6--6--|
D|-7---7--7--7--7--7--7--7--7--7--7--7--7--7--7--|-7---7--7--7--7--7--7--7--7--7--7--7--7--7--7--|
A|-7---7--7--7--7--7--7--7--7--7--7--7--7--7--7--|-7---7--7--7--7--7--7--7--7--7--7--7--7--7--7--|
E|-----------------------------------------------|-----------------------------------------------|


E|-5---5--5--5--5--5--5--5--5--5--5--5--5--5--5--|--------|--------|--------|--------|
B|-5---5--5--5--5--5--5--5--5--5--5--5--5--5--5--|--------|--------|--------|--------|
G|-6---6--6--6--6--6--6--6--6--6--6--6--6--6--6--|--------|--------|--------|--------|
D|-7---7--7--7--7--7--7--7--7--7--7--7--7--7--7--|--------|--------|--------|--------|
A|-7---7--7--7--7--7--7--7--7--7--7--7--7--7--7--|--------|--------|--------|--------|
E|-----------------------------------------------|--------|--------|--------|--------|


E|--------|--------|--------|--------|-5---5--5--5--5--5--5--5--5--5--5--5--5--5--5--|
B|--------|--------|--------|--------|-5---5--5--5--5--5--5--5--5--5--5--5--5--5--5--|
G|--------|--------|--------|--------|-6---6--6--6--6--6--6--6--6--6--6--6--6--6--6--|
D|--------|--------|--------|--------|-7---7--7--7--7--7--7--7--7--7--7--7--7--7--7--|
A|--------|--------|--------|--------|-7---7--7--7--7--7--7--7--7--7--7--7--7--7--7--|
E|--------|--------|--------|--------|-----------------------------------------------|


E|-5---5--5--5--5--5--5--5--5--5--5--5--5--5--5--|-5---5--5--5--5--5--5--5--5--5--5--5--5--5--5--|
B|-5---5--5--5--5--5--5--5--5--5--5--5--5--5--5--|-5---5--5--5--5--5--5--5--5--5--5--5--5--5--5--|
G|-6---6--6--6--6--6--6--6--6--6--6--6--6--6--6--|-6---6--6--6--6--6--6--6--6--6--6--6--6--6--6--|
D|-7---7--7--7--7--7--7--7--7--7--7--7--7--7--7--|-7---7--7--7--7--7--7--7--7--7--7--7--7--7--7--|
A|-7---7--7--7--7--7--7--7--7--7--7--7--7--7--7--|-7---7--7--7--7--7--7--7--7--7--7--7--7--7--7--|
E|-----------------------------------------------|-----------------------------------------------|


E|-5---5--5--5--5--5--5--5--5--5--5--5--5--5--5--|-5---5--5--5--5--5--5--5--5--5--5--5--5--5--5--|
B|-5---5--5--5--5--5--5--5--5--5--5--5--5--5--5--|-5---5--5--5--5--5--5--5--5--5--5--5--5--5--5--|
G|-6---6--6--6--6--6--6--6--6--6--6--6--6--6--6--|-6---6--6--6--6--6--6--6--6--6--6--6--6--6--6--|
D|-7---7--7--7--7--7--7--7--7--7--7--7--7--7--7--|-7---7--7--7--7--7--7--7--7--7--7--7--7--7--7--|
A|-7---7--7--7--7--7--7--7--7--7--7--7--7--7--7--|-7---7--7--7--7--7--7--7--7--7--7--7--7--7--7--|
E|-----------------------------------------------|-----------------------------------------------|


E|-5---5--5--5--5--5--5--5--5--5--5--5--5--5--5--|-5---5--5--5--5--5--5--5--5--5--5--5--5--5--5--|
B|-5---5--5--5--5--5--5--5--5--5--5--5--5--5--5--|-5---5--5--5--5--5--5--5--5--5--5--5--5--5--5--|
G|-6---6--6--6--6--6--6--6--6--6--6--6--6--6--6--|-6---6--6--6--6--6--6--6--6--6--6--6--6--6--6--|
D|-7---7--7--7--7--7--7--7--7--7--7--7--7--7--7--|-7---7--7--7--7--7--7--7--7--7--7--7--7--7--7--|
A|-7---7--7--7--7--7--7--7--7--7--7--7--7--7--7--|-7---7--7--7--7--7--7--7--7--7--7--7--7--7--7--|
E|-----------------------------------------------|-----------------------------------------------|


E|-5---5--5--5--5--5--5--5--5--5--5--5--5--5--5--|--------|--------|--------|--------|
B|-5---5--5--5--5--5--5--5--5--5--5--5--5--5--5--|--------|--------|--------|--------|
G|-6---6--6--6--6--6--6--6--6--6--6--6--6--6--6--|--------|--------|--------|--------|
D|-7---7--7--7--7--7--7--7--7--7--7--7--7--7--7--|--------|--------|--------|--------|
A|-7---7--7--7--7--7--7--7--7--7--7--7--7--7--7--|--------|--------|--------|--------|
E|-----------------------------------------------|--------|--------|--------|--------|


E|--------|--------|--------|--------|-8---8--8--8---8--8-----8-----8--8--8--8---|
B|--------|--------|--------|--------|-8---8--8--8---8--8-----8-----8--8--8--8---|
G|--------|--------|--------|--------|-8---8--8--8---8--8-----9-----9--9--9--9---|
D|--------|--------|--------|--------|-10--10-10-10--10-10----10----10-10-10-10--|
A|--------|--------|--------|--------|-10--10-10-10--10-10----10----10-10-10-10--|
E|--------|--------|--------|--------|-------------------------------------------|


E|-8---8--8--8---8--8-----8-----8--8--8--8---|-8---8--8--8---8--8-----8-----8--8--8--8---|
B|-8---8--8--8---8--8-----8-----8--8--8--8---|-8---8--8--8---8--8-----8-----8--8--8--8---|
G|-8---8--8--8---8--8-----9-----9--9--9--9---|-8---8--8--8---8--8-----9-----9--9--9--9---|
D|-10--10-10-10--10-10----10----10-10-10-10--|-10--10-10-10--10-10----10----10-10-10-10--|
A|-10--10-10-10--10-10----10----10-10-10-10--|-10--10-10-10--10-10----10----10-10-10-10--|
E|-------------------------------------------|-------------------------------------------|


E|-8---8--8--8---8--8-----8-----8--8--8--8---|-8---8--8--8---8--8-----8-----8--8--8--8---|
B|-8---8--8--8---8--8-----8-----8--8--8--8---|-8---8--8--8---8--8-----8-----8--8--8--8---|
G|-8---8--8--8---8--8-----9-----9--9--9--9---|-8---8--8--8---8--8-----9-----9--9--9--9---|
D|-10--10-10-10--10-10----10----10-10-10-10--|-10--10-10-10--10-10----10----10-10-10-10--|
A|-10--10-10-10--10-10----10----10-10-10-10--|-10--10-10-10--10-10----10----10-10-10-10--|
E|-------------------------------------------|-------------------------------------------|


E|-8---8--8--8---8--8-----8-----8--8--8--8---|-8---8--8--8---8--8-----8-----8--8--8--8---|
B|-8---8--8--8---8--8-----8-----8--8--8--8---|-8---8--8--8---8--8-----8-----8--8--8--8---|
G|-8---8--8--8---8--8-----9-----9--9--9--9---|-8---8--8--8---8--8-----9-----9--9--9--9---|
D|-10--10-10-10--10-10----10----10-10-10-10--|-10--10-10-10--10-10----10----10-10-10-10--|
A|-10--10-10-10--10-10----10----10-10-10-10--|-10--10-10-10--10-10----10----10-10-10-10--|
E|-------------------------------------------|-------------------------------------------|


E|-8---8--8--8---8--8-----8-----8--8--8--8---|--------|--------|--------|--------|
B|-8---8--8--8---8--8-----8-----8--8--8--8---|--------|--------|--------|--------|
G|-8---8--8--8---8--8-----9-----9--9--9--9---|--------|--------|--------|--------|
D|-10--10-10-10--10-10----10----10-10-10-10--|--------|--------|--------|--------|
A|-10--10-10-10--10-10----10----10-10-10-10--|--------|--------|--------|--------|
E|-------------------------------------------|--------|--------|--------|--------|


E|--------|--------|--------|-------5---5--5--5--5--5--5--|-5--5--5--5--5--5--5--5--5---5--5--5--5--5--5--|
B|--------|--------|--------|-------5---5--5--5--5--5--5--|-5--5--5--5--5--5--5--5--5---5--5--5--5--5--5--|
G|--------|--------|--------|-------6---6--6--6--6--6--6--|-6--6--6--6--6--6--6--6--6---6--6--6--6--6--6--|
D|--------|--------|--------|-------7---7--7--7--7--7--7--|-7--7--7--7--7--7--7--7--7---7--7--7--7--7--7--|
A|--------|--------|--------|-------7---7--7--7--7--7--7--|-7--7--7--7--7--7--7--7--7---7--7--7--7--7--7--|
E|--------|--------|--------|-----------------------------|-----------------------------------------------|


E|-5--5--5--5--5--5--5--5--5---5--5--5--5--5--5--|-5--5--5--5--5--5--5--5--5---5--5--5--5--5--5--|
B|-5--5--5--5--5--5--5--5--5---5--5--5--5--5--5--|-5--5--5--5--5--5--5--5--5---5--5--5--5--5--5--|
G|-6--6--6--6--6--6--6--6--6---6--6--6--6--6--6--|-6--6--6--6--6--6--6--6--6---6--6--6--6--6--6--|
D|-7--7--7--7--7--7--7--7--7---7--7--7--7--7--7--|-7--7--7--7--7--7--7--7--7---7--7--7--7--7--7--|
A|-7--7--7--7--7--7--7--7--7---7--7--7--7--7--7--|-7--7--7--7--7--7--7--7--7---7--7--7--7--7--7--|
E|-----------------------------------------------|-----------------------------------------------|


E|-5--5--5--5--5--5--5--5--------|--------|--------|--------|--------|--------|--------|
B|-5--5--5--5--5--5--5--5--------|--------|--------|--------|--------|--------|--------|
G|-6--6--6--6--6--6--6--6--------|--------|--------|--------|--------|--------|--------|
D|-7--7--7--7--7--7--7--7--------|--------|--------|--------|--------|--------|--------|
A|-7--7--7--7--7--7--7--7--------|--------|--------|--------|--------|--------|--------|
E|-------------------------------|--------|--------|--------|--------|--------|--------|


E|--------|--------|--------|--------|--------|--------|--------|--------|
B|--------|--------|--------|--------|--------|--------|--------|--------|
G|--------|--------|--------|--------|--------|--------|--------|--------|
D|--------|--------|--------|--------|--------|--------|--------|--------|
A|--------|--------|--------|--------|--------|--------|--------|--------|
E|--------|--------|--------|--------|--------|--------|--------|--------|





Track 4: Dist. Guitar 1

E|--------|--------|--------|--------|--------|--------|--------|--------|--------|
B|--------|--------|--------|--------|--------|--------|--------|--------|--------|
G|--------|--------|--------|--------|--------|--------|--------|--------|--------|
D|--------|--------|--------|--------|--------|--------|--------|--------|--------|
A|--------|--------|--------|--------|--------|--------|--------|--------|--------|
E|--------|--------|--------|--------|--------|--------|--------|--------|--------|


E|--------|--------|--------|--------|--------|--------|--------|--------|--------|
B|--------|--------|--------|--------|--------|--------|--------|--------|--------|
G|--------|--------|--------|--------|--------|--------|--------|--------|--------|
D|--------|--------|--------|--------|--------|--------|--------|--------|--------|
A|--------|--------|--------|--------|--------|--------|--------|--------|--------|
E|--------|--------|--------|--------|--------|--------|--------|--------|--------|


E|--------|--------|--------|--------|--------|-------------------------------------|
B|--------|--------|--------|--------|--------|-------------------------------------|
G|--------|--------|--------|--------|--------|-------------------------------------|
D|--------|--------|--------|--------|--------|-------------------------------------|
A|--------|--------|--------|--------|--------|---------7---------------------------|
E|--------|--------|--------|--------|--------|-----5--------5--7--9--7--9--7---5---|


E|-------------------------------------------|-------------------------------------|
B|-------------------------------------------|-------------------------------------|
G|-------------------------------------------|-------------------------------------|
D|-------------------------------------------|-------------------------------------|
A|--------------------5---------------5------|---------7---------------------------|
E|----3--3--3--3---------0--2--3---3-----3---|-----5--------5--7--9--7--9--7---5---|


E|-------------------------------------------|-------------------------------------|
B|-------------------------------------------|-------------------------------------|
G|-------------------------------------------|-------------------------------------|
D|-------------------------------------------|-------------------------------------|
A|--------------------5---------------5------|---------7---------------------------|
E|----3--3--3--3---------0--2--3---3-----3---|-----5--------5--7--9--7--9--7---5---|


E|-------------------------------------------|-------------------------------------|
B|-------------------------------------------|-------------------------------------|
G|-------------------------------------------|-------------------------------------|
D|-------------------------------------------|-------------------------------------|
A|--------------------5---------------5------|---------7---------------------------|
E|----3--3--3--3---------0--2--3---3-----3---|-----5--------5--7--9--7--9--7---5---|


E|-------------------------------------------|--------|--------|--------|--------|
B|-------------------------------------------|--------|--------|--------|--------|
G|-------------------------------------------|--------|--------|--------|--------|
D|-------------------------------------------|--------|--------|--------|--------|
A|--------------------5---------------5------|--------|--------|--------|--------|
E|----3--3--3--3---------0--2--3---3-----3---|--------|--------|--------|--------|


E|--------|--------|--------|--------|-------------------------------------|-------------------------------------------|
B|--------|--------|--------|--------|-------------------------------------|-------------------------------------------|
G|--------|--------|--------|--------|-------------------------------------|-------------------------------------------|
D|--------|--------|--------|--------|-------------------------------------|-------------------------------------------|
A|--------|--------|--------|--------|---------7---------------------------|--------------------5---------------5------|
E|--------|--------|--------|--------|-----5--------5--7--9--7--9--7---5---|----3--3--3--3---------0--2--3---3-----3---|


E|-------------------------------------|-------------------------------------------|
B|-------------------------------------|-------------------------------------------|
G|-------------------------------------|-------------------------------------------|
D|-------------------------------------|-------------------------------------------|
A|---------7---------------------------|--------------------5---------------5------|
E|-----5--------5--7--9--7--9--7---5---|----3--3--3--3---------0--2--3---3-----3---|


E|-------------------------------------|-------------------------------------------|
B|-------------------------------------|-------------------------------------------|
G|-------------------------------------|-------------------------------------------|
D|-------------------------------------|-------------------------------------------|
A|---------7---------------------------|--------------------5---------------5------|
E|-----5--------5--7--9--7--9--7---5---|----3--3--3--3---------0--2--3---3-----3---|


E|-------------------------------------|-------------------------------------------|
B|-------------------------------------|-------------------------------------------|
G|-------------------------------------|-------------------------------------------|
D|-------------------------------------|-------------------------------------------|
A|---------7---------------------------|--------------------5---------------5------|
E|-----5--------5--7--9--7--9--7---5---|----3--3--3--3---------0--2--3---3-----3---|


E|-----------------------------------------|-------------------------------------------|
B|-----------------------------------------|-------------------------------------------|
G|-----------------------------------------|-------------------------------------------|
D|-----------------------------------------|-------------------------------------------|
A|-------------------------------------7---|-------------------------------------------|
E|-6--8------8---5--8-----8---6--8--5------|-5--6--8-----8---5--6-----8--6--5--3--1----|


E|-----------------------------------------|---------------------------------------------|
B|-----------------------------------------|---------------------------------------------|
G|-----------------------------------------|---------------------------------------------|
D|-----------------------------------------|---------------------------------------------|
A|-------------------------------------7---|----------------8----------------------------|
E|-6--8------8---5--8-----8---6--8--5------|-5--6--8-----11----11-10----8-----6-----5----|


E|-----------------------------------------|-------------------------------------------|
B|-----------------------------------------|-------------------------------------------|
G|-----------------------------------------|-------------------------------------------|
D|-----------------------------------------|-------------------------------------------|
A|-------------------------------------7---|-------------------------------------------|
E|-6--8------8---5--8-----8---6--8--5------|-5--6--8-----8---5--6-----8--6--5--3--1----|


E|-----------------------------------------|-------------------------------------------|
B|-----------------------------------------|-------------------------------------------|
G|-----------------------------------------|-------------------------------------------|
D|-----------------------------------------|-------------------------------------------|
A|-------------------------------------7---|-------------------------------------------|
E|-6--8------8---5--8-----8---6--8--5------|-5--6--8-----8---5--6-----8--6--5--3--1----|


E|--------|--------|--------|--------|--------|--------|--------|--------|--------|
B|--------|--------|--------|--------|--------|--------|--------|--------|--------|
G|--------|--------|--------|--------|--------|--------|--------|--------|--------|
D|--------|--------|--------|--------|--------|--------|--------|--------|--------|
A|--------|--------|--------|--------|--------|--------|--------|--------|--------|
E|--------|--------|--------|--------|--------|--------|--------|--------|--------|


E|--------|--------|-----------------------|-------------------------------------------|
B|--------|--------|-----------------------|-------------------------------------------|
G|--------|--------|-----------------------|-------------------------------------------|
D|--------|--------|-----------------------|-------------------------------------------|
A|--------|--------|---------------7-------|----------------------------------------5--|
E|--------|--------|-----------5--------5--|-7--9--7--9--7---5------3--3--3--3---------|


E|-------------------------------------|-------------------------------------------|
B|-------------------------------------|-------------------------------------------|
G|-------------------------------------|-------------------------------------------|
D|-------------------------------------|-------------------------------------------|
A|--------------5--------------7-------|----------------------------------------5--|
E|-0--2--3---3-----3-------5--------5--|-7--9--7--9--7---5------3--3--3--3---------|


E|-------------------------------------|-------------------------------------------|
B|-------------------------------------|-------------------------------------------|
G|-------------------------------------|-------------------------------------------|
D|-------------------------------------|-------------------------------------------|
A|--------------5--------------7-------|----------------------------------------5--|
E|-0--2--3---3-----3-------5--------5--|-7--9--7--9--7---5------3--3--3--3---------|


E|-------------------------------------|-------------------------------------------|
B|-------------------------------------|-------------------------------------------|
G|-------------------------------------|-------------------------------------------|
D|-------------------------------------|-------------------------------------------|
A|--------------5--------------7-------|----------------------------------------5--|
E|-0--2--3---3-----3-------5--------5--|-7--9--7--9--7---5------3--3--3--3---------|


E|---------------------------|--------|--------|--------|--------|--------|--------|
B|---------------------------|--------|--------|--------|--------|--------|--------|
G|---------------------------|--------|--------|--------|--------|--------|--------|
D|---------------------------|--------|--------|--------|--------|--------|--------|
A|--------------5------------|--------|--------|--------|--------|--------|--------|
E|-0--2--3---3-----3---------|--------|--------|--------|--------|--------|--------|





Track 5: Untitled

G|--------|--------|--------|--------|--------|--------|--------|--------|--------|
D|--------|--------|--------|--------|--------|--------|--------|--------|--------|
A|--------|--------|--------|--------|--------|--------|--------|--------|--------|
E|--------|--------|--------|--------|--------|--------|--------|--------|--------|


G|--------|--------|--------|--------|--------|--------|--------|--------|--------|
D|--------|--------|--------|--------|--------|--------|--------|--------|--------|
A|--------|--------|--------|--------|--------|--------|--------|--------|--------|
E|--------|--------|--------|--------|--------|--------|--------|--------|--------|


G|--------|--------|--------|--------|--------|--------|--------|--------|--------|
D|--------|--------|--------|--------|--------|--------|--------|--------|--------|
A|--------|--------|--------|--------|--------|--------|--------|--------|--------|
E|--------|--------|--------|--------|--------|--------|--------|--------|--------|


G|--------|--------|--------|--------|--------|--------|--------|--------|--------|
D|--------|--------|--------|--------|--------|--------|--------|--------|--------|
A|--------|--------|--------|--------|--------|--------|--------|--------|--------|
E|--------|--------|--------|--------|--------|--------|--------|--------|--------|


G|--------|--------|--------|--------|--------|--------|--------|--------|--------|
D|--------|--------|--------|--------|--------|--------|--------|--------|--------|
A|--------|--------|--------|--------|--------|--------|--------|--------|--------|
E|--------|--------|--------|--------|--------|--------|--------|--------|--------|


G|--------|--------|--------|--------|--------|--------|--------|--------|--------|
D|--------|--------|--------|--------|--------|--------|--------|--------|--------|
A|--------|--------|--------|--------|--------|--------|--------|--------|--------|
E|--------|--------|--------|--------|--------|--------|--------|--------|--------|


G|--------|--------|--------|--------|--------|--------|--------|--------|--------|
D|--------|--------|--------|--------|--------|--------|--------|--------|--------|
A|--------|--------|--------|--------|--------|--------|--------|--------|--------|
E|--------|--------|--------|--------|--------|--------|--------|--------|--------|


G|--------|--------|--------|--------|--------|--------|--------|--------|--------|
D|--------|--------|--------|--------|--------|--------|--------|--------|--------|
A|--------|--------|--------|--------|--------|--------|--------|--------|--------|
E|--------|--------|--------|--------|--------|--------|--------|--------|--------|


G|--------|--------|--------|--------|--------|--------|--------|--------|--------|
D|--------|--------|--------|--------|--------|--------|--------|--------|--------|
A|--------|--------|--------|--------|--------|--------|--------|--------|--------|
E|--------|--------|--------|--------|--------|--------|--------|--------|--------|