Site menu:

    

Browse: 0-9 A B C D E F G H I J K L N O P Q R S T U V W X Y Z

311 - purpose:



Title: Purpose
Artist: 
Album: 311
Author: Nick Hexum


Track 1: Clean Elec. (Jazz)

E|--------|-----7-------7-------9-------9---|-----11------11------9-------9---|-----7-------7-------9-------9---|
B|--------|-----9-------9-------10------10--|-----12------12------10------10--|-----9-------9-------10------10--|
G|--------|-----9-------9-------11------11--|-----13------13------11------11--|-----9-------9-------11------11--|
D|--------|---------------------------------|---------------------------------|---------------------------------|
A|--------|---------------------------------|---------------------------------|---------------------------------|
E|--------|---------------------------------|---------------------------------|---------------------------------|


E|-----11------11--9-----|-----7-------7-------9-------9---|-----11------11------9-------9---|
B|-----12------12--10----|-----9-------9-------10------10--|-----12------12------10------10--|
G|-----13------13--11----|-----9-------9-------11------11--|-----13------13------11------11--|
D|-----------------------|---------------------------------|---------------------------------|
A|-----------------------|---------------------------------|---------------------------------|
E|-----------------------|---------------------------------|---------------------------------|


E|-----7-------7-------9-------9---|-----11------11--9-----|-----7-------7-------9-------9---|
B|-----9-------9-------10------10--|-----12------12--10----|-----9-------9-------10------10--|
G|-----9-------9-------11------11--|-----13------13--11----|-----9-------9-------11------11--|
D|---------------------------------|-----------------------|---------------------------------|
A|---------------------------------|-----------------------|---------------------------------|
E|---------------------------------|-----------------------|---------------------------------|


E|-----11------11------9-------9---|-----7-------7-------9-------9---|-----11------11--9-----|
B|-----12------12------10------10--|-----9-------9-------10------10--|-----12------12--10----|
G|-----13------13------11------11--|-----9-------9-------11------11--|-----13------13--11----|
D|---------------------------------|---------------------------------|-----------------------|
A|---------------------------------|---------------------------------|-----------------------|
E|---------------------------------|---------------------------------|-----------------------|


E|--------|--------|--------|--------|--------|--------|--------|--------|--------|
B|--------|--------|--------|--------|--------|--------|--------|--------|--------|
G|--------|--------|--------|--------|--------|--------|--------|--------|--------|
D|--------|--------|--------|--------|--------|--------|--------|--------|--------|
A|--------|--------|--------|--------|--------|--------|--------|--------|--------|
E|--------|--------|--------|--------|--------|--------|--------|--------|--------|


E|--------|--------|--------|--------|--------|--------|--------|--------|--------|
B|--------|--------|--------|--------|--------|--------|--------|--------|--------|
G|--------|--------|--------|--------|--------|--------|--------|--------|--------|
D|--------|--------|--------|--------|--------|--------|--------|--------|--------|
A|--------|--------|--------|--------|--------|--------|--------|--------|--------|
E|--------|--------|--------|--------|--------|--------|--------|--------|--------|


E|--------|--------|-----7-------7-------9-------9---|-----11------11------9-------9---|
B|--------|--------|-----9-------9-------10------10--|-----12------12------10------10--|
G|--------|--------|-----9-------9-------11------11--|-----13------13------11------11--|
D|--------|--------|---------------------------------|---------------------------------|
A|--------|--------|---------------------------------|---------------------------------|
E|--------|--------|---------------------------------|---------------------------------|


E|-----7-------7-------9-------9---|-----11------11--9-----|-----7-------7-------9-------9---|
B|-----9-------9-------10------10--|-----12------12--10----|-----9-------9-------10------10--|
G|-----9-------9-------11------11--|-----13------13--11----|-----9-------9-------11------11--|
D|---------------------------------|-----------------------|---------------------------------|
A|---------------------------------|-----------------------|---------------------------------|
E|---------------------------------|-----------------------|---------------------------------|


E|-----11------11------9-------9---|-----7-------7-------9-------9---|-----11------11--9-----|
B|-----12------12------10------10--|-----9-------9-------10------10--|-----12------12--10----|
G|-----13------13------11------11--|-----9-------9-------11------11--|-----13------13--11----|
D|---------------------------------|---------------------------------|-----------------------|
A|---------------------------------|---------------------------------|-----------------------|
E|---------------------------------|---------------------------------|-----------------------|


E|-----7-------7-------9-------9---|-----11------11------9-------9---|-----7-------7-------9-------9---|
B|-----9-------9-------10------10--|-----12------12------10------10--|-----9-------9-------10------10--|
G|-----9-------9-------11------11--|-----13------13------11------11--|-----9-------9-------11------11--|
D|---------------------------------|---------------------------------|---------------------------------|
A|---------------------------------|---------------------------------|---------------------------------|
E|---------------------------------|---------------------------------|---------------------------------|


E|-----11------11--9-----|--------|--------|--------|--------|--------|--------|--------|
B|-----12------12--10----|--------|--------|--------|--------|--------|--------|--------|
G|-----13------13--11----|--------|--------|--------|--------|--------|--------|--------|
D|-----------------------|--------|--------|--------|--------|--------|--------|--------|
A|-----------------------|--------|--------|--------|--------|--------|--------|--------|
E|-----------------------|--------|--------|--------|--------|--------|--------|--------|


E|--------|
B|--------|
G|--------|
D|--------|
A|--------|
E|--------|





Track 2: Clean Elec. 2

E|--------|--------|--------|--------|--------|--------|--------|--------|--------|
B|--------|--------|--------|--------|--------|--------|--------|--------|--------|
G|--------|--------|--------|--------|--------|--------|--------|--------|--------|
D|--------|--------|--------|--------|--------|--------|--------|--------|--------|
A|--------|--------|--------|--------|--------|--------|--------|--------|--------|
E|--------|--------|--------|--------|--------|--------|--------|--------|--------|


E|--------|--------|--------|--------|-------------------14------------------------|
B|--------|--------|--------|--------|----11-12-11-12-11--------9--10-9--10-9------|
G|--------|--------|--------|--------|-----------------------------------------9---|
D|--------|--------|--------|--------|---------------------------------------------|
A|--------|--------|--------|--------|---------------------------------------------|
E|--------|--------|--------|--------|---------------------------------------------|


E|-------------------14----141312---12---|-------------------14------------------------|
B|----11-12-11-12-11---------------------|----11-12-11-12-11--------9--10-9--10-9------|
G|---------------------------------------|-----------------------------------------9---|
D|---------------------------------------|---------------------------------------------|
A|---------------------------------------|---------------------------------------------|
E|---------------------------------------|---------------------------------------------|


E|-------------------14--14-16----16-|--------|--------|--------|--------|--------|
B|----11-12-11-12-11-----------------|--------|--------|--------|--------|--------|
G|-----------------------------------|--------|--------|--------|--------|--------|
D|-----------------------------------|--------|--------|--------|--------|--------|
A|-----------------------------------|--------|--------|--------|--------|--------|
E|-----------------------------------|--------|--------|--------|--------|--------|


E|--------|--------|--------|--------|--------|--------|--------|--------|--------|
B|--------|--------|--------|--------|--------|--------|--------|--------|--------|
G|--------|--------|--------|--------|--------|--------|--------|--------|--------|
D|--------|--------|--------|--------|--------|--------|--------|--------|--------|
A|--------|--------|--------|--------|--------|--------|--------|--------|--------|
E|--------|--------|--------|--------|--------|--------|--------|--------|--------|


E|--------|--------|--------|--------|--------|--------|--------|--------|--------|
B|--------|--------|--------|--------|--------|--------|--------|--------|--------|
G|--------|--------|--------|--------|--------|--------|--------|--------|--------|
D|--------|--------|--------|--------|--------|--------|--------|--------|--------|
A|--------|--------|--------|--------|--------|--------|--------|--------|--------|
E|--------|--------|--------|--------|--------|--------|--------|--------|--------|


E|--------|--------|--------|--------|--------|-------------------14------------------------|
B|--------|--------|--------|--------|--------|----11-12-11-12-11--------9--10-9--10-9------|
G|--------|--------|--------|--------|--------|-----------------------------------------9---|
D|--------|--------|--------|--------|--------|---------------------------------------------|
A|--------|--------|--------|--------|--------|---------------------------------------------|
E|--------|--------|--------|--------|--------|---------------------------------------------|


E|-------------------14----141312---12---|-------------------14------------------------|
B|----11-12-11-12-11---------------------|----11-12-11-12-11--------9--10-9--10-9------|
G|---------------------------------------|-----------------------------------------9---|
D|---------------------------------------|---------------------------------------------|
A|---------------------------------------|---------------------------------------------|
E|---------------------------------------|---------------------------------------------|


E|-------------------14--14-16----16-|-------------------------------------------|
B|----11-12-11-12-11-----------------|-------------------------------------------|
G|-----------------------------------|-------------------------------------------|
D|-----------------------------------|-------------------------------------------|
A|-----------------------------------|----------7--7------------7----------------|
E|-----------------------------------|-0--5--7---------4--5--7------4--5--7------|


E|-------------------------------------------|-------------------------------------------|
B|-------------------------------------------|-------------------------------------------|
G|-------------------------------------------|-------------------------------------------|
D|-------------------------------------------|-------------------------------------------|
A|----------7--7------------7----------------|----------7--7------------7----------------|
E|-0--5--7---------4--5--7------4--5--7--4---|-0--5--7---------4--5--7------4--5--7------|


E|-------------------------------------------|
B|-------------------------------------------|
G|-------------------------------------------|
D|-------------------------------------------|
A|----------7--7------------7----------------|
E|-0--5--7---------4--5--7------4--5--7--4---|





Track 3: Dist. Guitar

E|--------|--------|--------|--------|--------|--------|--------|--------|--------|
B|--------|--------|--------|--------|--------|--------|--------|--------|--------|
G|--------|--------|--------|--------|--------|--------|--------|--------|--------|
D|--------|--------|--------|--------|--------|--------|--------|--------|--------|
A|--------|--------|--------|--------|--------|--------|--------|--------|--------|
E|--------|--------|--------|--------|--------|--------|--------|--------|--------|


E|--------|--------|--------|--------|--------|--------|--------|--------|-------------------------------------------|
B|--------|--------|--------|--------|--------|--------|--------|--------|-------------------------------------------|
G|--------|--------|--------|--------|--------|--------|--------|--------|-------------------------------------------|
D|--------|--------|--------|--------|--------|--------|--------|--------|-------------------------------------------|
A|--------|--------|--------|--------|--------|--------|--------|--------|----------7--7------------7----------------|
E|--------|--------|--------|--------|--------|--------|--------|--------|-0--5--7---------4--5--7------4--5--7------|


E|-------------------------------------------|-------------------------------------------|
B|-------------------------------------------|-------------------------------------------|
G|-------------------------------------------|-------------------------------------------|
D|-------------------------------------------|-------------------------------------------|
A|----------7--7------------7----------------|----------7--7------------7----------------|
E|-0--5--7---------4--5--7------4--5--7--4---|-0--5--7---------4--5--7------4--5--7------|


E|-------------------------------------------|-------------------------------------------|
B|-------------------------------------------|-------------------------------------------|
G|-------------------------------------------|-------------------------------------------|
D|-------------------------------------------|-------------------------------------------|
A|----------7--7------------7----------------|----------7--7------------7----------------|
E|-0--5--7---------4--5--7------4--5--7--4---|-0--5--7---------4--5--7------4--5--7------|


E|-------------------------------------------|-------------------------------------------|
B|-------------------------------------------|-------------------------------------------|
G|-------------------------------------------|-------------------------------------------|
D|-------------------------------------------|-------------------------------------------|
A|----------7--7------------7----------------|----------7--7------------7----------------|
E|-0--5--7---------4--5--7------4--5--7--4---|-0--5--7---------4--5--7------4--5--7------|


E|-------------------------------------------|--------|--------------|--------|--------------|
B|-------------------------------------------|--------|--------------|--------|--------------|
G|-------------------------------------------|--------|-2------2-----|--------|-2------------|
D|-------------------------------------------|-4------|-2------2--2--|-4------|-2------------|
A|----------7--7------------7----------------|-4------|-0------0--2--|-4------|-0------2--2--|
E|-0--5--7---------4--5--7------4--5--7--4---|-2------|-----------0--|-2------|--------0--0--|


E|-----------------------------------------|---------------------------------------|
B|-----------------------------------------|---------------------------------------|
G|-----------------------------------------|---------------------------------------|
D|-----------------------------------------|---------------------------------------|
A|-----------------------------------------|---------------------------------------|
E|-2---0--1--2---0--1--2---0--1--2---2--4--|-5---2--4--5---2--4--5--0---0---0---0--|


E|------------------------------------|----------------------|--------|--------|--------|
B|------------------------------------|----------------------|--------|--------|--------|
G|------------------------------------|-6----6---4---4-----4-|--------|--------|--------|
D|------------------------------------|-6----6---4---4-----4-|--------|--------|--------|
A|------------------------------------|-4----4---2---2-----2-|--------|--------|--------|
E|-2---0--1--2---0--1--2---0--1--2----|-4----4---2---2-----2-|--------|--------|--------|


E|--------|--------|--------|--------|--------|--------|--------|--------|--------|
B|--------|--------|--------|--------|--------|--------|--------|--------|--------|
G|--------|--------|--------|--------|--------|--------|--------|--------|--------|
D|--------|--------|--------|--------|--------|--------|--------|--------|--------|
A|--------|--------|--------|--------|--------|--------|--------|--------|--------|
E|--------|--------|--------|--------|--------|--------|--------|--------|--------|


E|--------|--------|--------|--------|--------|--------|--------|--------|
B|--------|--------|--------|--------|--------|--------|--------|--------|
G|--------|--------|--------|--------|--------|--------|--------|--------|
D|--------|--------|--------|--------|--------|--------|--------|--------|
A|--------|--------|--------|--------|--------|--------|--------|--------|
E|--------|--------|--------|--------|--------|--------|--------|--------|





Track 4: Untitled

G|--------|--------|--------|--------|--------|--------|--------|--------|--------|
D|--------|--------|--------|--------|--------|--------|--------|--------|--------|
A|--------|--------|--------|--------|--------|--------|--------|--------|--------|
E|--------|--------|--------|--------|--------|--------|--------|--------|--------|


G|--------|--------|--------|--------|--------|--------|--------|--------|--------|
D|--------|--------|--------|--------|--------|--------|--------|--------|--------|
A|--------|--------|--------|--------|--------|--------|--------|--------|--------|
E|--------|--------|--------|--------|--------|--------|--------|--------|--------|


G|--------|--------|--------|--------|--------|--------|--------|--------|--------|
D|--------|--------|--------|--------|--------|--------|--------|--------|--------|
A|--------|--------|--------|--------|--------|--------|--------|--------|--------|
E|--------|--------|--------|--------|--------|--------|--------|--------|--------|


G|--------|--------|--------|--------|--------|--------|--------|--------|--------|
D|--------|--------|--------|--------|--------|--------|--------|--------|--------|
A|--------|--------|--------|--------|--------|--------|--------|--------|--------|
E|--------|--------|--------|--------|--------|--------|--------|--------|--------|


G|--------|--------|--------|--------|--------|--------|--------|--------|--------|
D|--------|--------|--------|--------|--------|--------|--------|--------|--------|
A|--------|--------|--------|--------|--------|--------|--------|--------|--------|
E|--------|--------|--------|--------|--------|--------|--------|--------|--------|


G|--------|--------|--------|--------|--------|--------|--------|--------|
D|--------|--------|--------|--------|--------|--------|--------|--------|
A|--------|--------|--------|--------|--------|--------|--------|--------|
E|--------|--------|--------|--------|--------|--------|--------|--------|