Site menu:

    

Browse: 0-9 A B C D E F G H I J K L N O P Q R S T U V W X Y Z

311 - prisoner:



Title: Prisoner
Artist: 
Album: Transistor
Author: Nick Hexum


Track 1: Guitar 1 w/Slight Distortion

E|-------------------------------------|-------------------------------------|-------------------------------------|
B|-------------------------------------|-------------------------------------|-------------------------------------|
G|-------------------------------------|-------------------------------------|-------------------------------------|
D|-------------------3---3---3---------|-------------------3---3---3---------|-------------------3---3---3---------|
A|------------2--5--------------5--2---|------------2--5--------------5--2---|------------2--5--------------5--2---|
E|-3---3---3---------------------------|-3---3---3---------------------------|-3---3---3---------------------------|


E|-------------------------------------|-------------------------------------|-------------------------------------|
B|-------------------------------------|-------------------------------------|-------------------------------------|
G|-------------------------------------|-------------------------------------|-------------------------------------|
D|-------------------3---3---3---------|-------------------3---3---3---------|-------------------3---3---3---------|
A|------------2--5--------------5--2---|------------2--5--------------5--2---|------------2--5--------------5--2---|
E|-3---3---3---------------------------|-3---3---3---------------------------|-3---3---3---------------------------|


E|-------------------------------------|-------------------------------------|--------|
B|-------------------------------------|-------------------------------------|--------|
G|-------------------------------------|-------------------------------------|--------|
D|-------------------3---3---3---------|-------------------3---3---3---------|--------|
A|------------2--5--------------5--2---|------------2--5--------------5--2---|--------|
E|-3---3---3---------------------------|-3---3---3---------------------------|--------|


E|--------|--------|--------|--------|--------|--------|--------|--------|--------|
B|--------|--------|--------|--------|--------|--------|--------|--------|--------|
G|--------|--------|--------|--------|--------|--------|--------|--------|--------|
D|--------|--------|--------|--------|--------|--------|--------|--------|--------|
A|--------|--------|--------|--------|--------|--------|--------|--------|--------|
E|--------|--------|--------|--------|--------|--------|--------|--------|--------|


E|--------|--------|-----10------10------8-------8---|-----10------10------8-------8---|
B|--------|--------|-----12------12------10------10--|-----12------12------10------10--|
G|--------|--------|-----12------12------10------10--|-----12------12------10------10--|
D|--------|--------|-----12------12------10------10--|-----12------12------10------10--|
A|--------|--------|---------------------------------|---------------------------------|
E|--------|--------|---------------------------------|---------------------------------|


E|-----10------10------8-------8---|-----10------10------8-------8---|-3---3--------------|
B|-----12------12------10------10--|-----12------12------10------10--|-3---3--------------|
G|-----12------12------10------10--|-----12------12------10------10--|-4---4--------------|
D|-----12------12------10------10--|-----12------12------10------10--|-5---5--------------|
A|---------------------------------|---------------------------------|--------------------|
E|---------------------------------|---------------------------------|--------------------|


E|-3---3--------------|-3---3--------------|-3---3--------------------------|-------------------------------------|
B|-3---3--------------|-3---3--------------|-3---3--------------------------|-------------------------------------|
G|-4---4--------------|-4---4--------------|-4---4--------------------------|-------------------------------------|
D|-5---5--------------|-5---5--------------|-5---5-----------3--------------|-------------------3---3---3---------|
A|--------------------|--------------------|--------------5-----5-----------|------------2--5--------------5--2---|
E|--------------------|--------------------|-----------------------1---1----|-3---3---3---------------------------|


E|-------------------------------------|-------------------------------------|-------------------------------------|
B|-------------------------------------|-------------------------------------|-------------------------------------|
G|-------------------------------------|-------------------------------------|-------------------------------------|
D|-------------------3---3---3---------|-------------------3---3---3---------|-------------------3---3---3---------|
A|------------2--5--------------5--2---|------------2--5--------------5--2---|------------2--5--------------5--2---|
E|-3---3---3---------------------------|-3---3---3---------------------------|-3---3---3---------------------------|


E|--------|--------|--------|--------|--------|--------|-----10------10------8-------8---|
B|--------|--------|--------|--------|--------|--------|-----12------12------10------10--|
G|--------|--------|--------|--------|--------|--------|-----12------12------10------10--|
D|--------|--------|--------|--------|--------|--------|-----12------12------10------10--|
A|--------|--------|--------|--------|--------|--------|---------------------------------|
E|--------|--------|--------|--------|--------|--------|---------------------------------|


E|-----10------10------8-------8---|-----------------------------------------|-----------------------------------------|
B|-----12------12------10------10--|-----------------------------------------|-----------------------------------------|
G|-----12------12------10------10--|--------------9---10-10-10-9-----9-------|--------------9---10-10-10-9-----9-------|
D|-----12------12------10------10--|-----9--10-12-----------------12----9----|-9---9--10-12-----------------12----9----|
A|---------------------------------|-----------------------------------------|-----------------------------------------|
E|---------------------------------|-----------------------------------------|-----------------------------------------|


E|-----10------10------8-------8---|-----10------10------8-------8---|-------------------------------------|
B|-----12------12------10------10--|-----12------12------10------10--|-------------------------------------|
G|-----12------12------10------10--|-----12------12------10------10--|-------------------------------------|
D|-----12------12------10------10--|-----12------12------10------10--|-------------------3---3---3---------|
A|---------------------------------|---------------------------------|------------2--5--------------5--2---|
E|---------------------------------|---------------------------------|-3---3---3---------------------------|


E|-------------------------------------|-------------------------------------|-------------------------------------|
B|-------------------------------------|-------------------------------------|-------------------------------------|
G|-------------------------------------|-------------------------------------|-------------------------------------|
D|-------------------3---3---3---------|-------------------3---3---3---------|-------------------3---3---3---------|
A|------------2--5--------------5--2---|------------2--5--------------5--2---|------------2--5--------------5--2---|
E|-3---3---3---------------------------|-3---3---3---------------------------|-3---3---3---------------------------|


E|-----------------------------|-----------------------------|-----------------------------|
B|-----------------------------|-----------------------------|-----------------------------|
G|-----------------------------|-----------------------------|-----------------------------|
D|--------------3--------------|--------------3--------------|--------------3--------------|
A|-----------5-----5-----------|-----------5-----5-----------|-----------5-----5-----------|
E|--------------------1---1----|--------------------1---1----|--------------------1---1----|


E|-----------------------------|-------------------------------------|-------------------------------------|
B|-----------------------------|-------------------------------------|-------------------------------------|
G|-----------------------------|-------------------------------------|-------------------------------------|
D|--------------3--------------|-------------------3---3---3---------|-------------------3---3---3---------|
A|-----------5-----5-----------|------------2--5--------------5--2---|------------2--5--------------5--2---|
E|--------------------1---1----|-3---3---3---------------------------|-3---3---3---------------------------|


E|-------------------------------------|-------------------------------------|-------------------------------------|
B|-------------------------------------|-------------------------------------|-------------------------------------|
G|-------------------------------------|-------------------------------------|-------------------------------------|
D|-------------------3---3---3---------|-------------------3---3---3---------|-------------------3---3---3---------|
A|------------2--5--------------5--2---|------------2--5--------------5--2---|------------2--5--------------5--2---|
E|-3---3---3---------------------------|-3---3---3---------------------------|-3---3---3---------------------------|


E|-------------------------------------|-------------------------------------|-------------------------------------|
B|-------------------------------------|-------------------------------------|-------------------------------------|
G|-------------------------------------|-------------------------------------|-------------------------------------|
D|-------------------3---3---3---------|-------------------3---3---3---------|-------------------3---3---3---------|
A|------------2--5--------------5--2---|------------2--5--------------5--2---|------------2--5--------------5--2---|
E|-3---3---3---------------------------|-3---3---3---------------------------|-3---3---3---------------------------|





Track 2: Clean Elec.

E|--------|--------|--------|--------|---------------------------|---------------------------|
B|--------|--------|--------|--------|-10-12---12--12--10----10--|-10-12---12--12--10----10--|
G|--------|--------|--------|--------|-10-12---12--12--10----10--|-10-12---12--12--10----10--|
D|--------|--------|--------|--------|-10-12---12--12--10----10--|-10-12---12--12--10----10--|
A|--------|--------|--------|--------|---------------------------|---------------------------|
E|--------|--------|--------|--------|---------------------------|---------------------------|


E|---------------------------|---------------------------|--------|--------|--------|
B|-10-12---12--12--10----10--|-10-12---12--12--10----10--|--------|--------|--------|
G|-10-12---12--12--10----10--|-10-12---12--12--10----10--|--------|--------|--------|
D|-10-12---12--12--10----10--|-10-12---12--12--10----10--|--------|--------|--------|
A|---------------------------|---------------------------|--------|--------|--------|
E|---------------------------|---------------------------|--------|--------|--------|


E|--------|---------------------------------------------|---------------------------------------------|
B|--------|---------------------------------------------|---------------------------------------------|
G|--------|-------------4--5--7---------------------2---|-------------4--5--7---------------------2---|
D|--------|----5-----5---------------3-----3--3--5------|----5-----5---------------3-----3--3--5------|
A|--------|---------------------------------------------|---------------------------------------------|
E|--------|---------------------------------------------|---------------------------------------------|


E|---------------------------------------------|---------------------------------------------|
B|---------------------------------------------|---------------------------------------------|
G|-------------4--5--7---------------------2---|-------------4--5--7---------------------2---|
D|----5-----5---------------3-----3--3--5------|----5-----5---------------3-----3--3--5------|
A|---------------------------------------------|---------------------------------------------|
E|---------------------------------------------|---------------------------------------------|


E|--------|--------|--------|--------|--------|--------|--------|--------|--------|
B|--------|--------|--------|--------|--------|--------|--------|--------|--------|
G|--------|--------|--------|--------|--------|--------|--------|--------|--------|
D|--------|--------|--------|--------|--------|--------|--------|--------|--------|
A|--------|--------|--------|--------|--------|--------|--------|--------|--------|
E|--------|--------|--------|--------|--------|--------|--------|--------|--------|


E|--------|--------|--------|---------------------------|---------------------------|
B|--------|--------|--------|-10-12---12--12--10----10--|-10-12---12--12--10----10--|
G|--------|--------|--------|-10-12---12--12--10----10--|-10-12---12--12--10----10--|
D|--------|--------|--------|-10-12---12--12--10----10--|-10-12---12--12--10----10--|
A|--------|--------|--------|---------------------------|---------------------------|
E|--------|--------|--------|---------------------------|---------------------------|


E|---------------------------|---------------------------|--------|--------|--------|
B|-10-12---12--12--10----10--|-10-12---12--12--10----10--|--------|--------|--------|
G|-10-12---12--12--10----10--|-10-12---12--12--10----10--|--------|--------|--------|
D|-10-12---12--12--10----10--|-10-12---12--12--10----10--|--------|--------|--------|
A|---------------------------|---------------------------|--------|--------|--------|
E|---------------------------|---------------------------|--------|--------|--------|


E|--------|--------|--------|--------|--------|--------|--------|--------|--------|
B|--------|--------|--------|--------|--------|--------|--------|--------|--------|
G|--------|--------|--------|--------|--------|--------|--------|--------|--------|
D|--------|--------|--------|--------|--------|--------|--------|--------|--------|
A|--------|--------|--------|--------|--------|--------|--------|--------|--------|
E|--------|--------|--------|--------|--------|--------|--------|--------|--------|


E|--------|--------|--------|--------|--------|--------|--------|--------|---------------------------|
B|--------|--------|--------|--------|--------|--------|--------|--------|-10-12---12--12--10----10--|
G|--------|--------|--------|--------|--------|--------|--------|--------|-10-12---12--12--10----10--|
D|--------|--------|--------|--------|--------|--------|--------|--------|-10-12---12--12--10----10--|
A|--------|--------|--------|--------|--------|--------|--------|--------|---------------------------|
E|--------|--------|--------|--------|--------|--------|--------|--------|---------------------------|


E|---------------------------|---------------------------|---------------------------|
B|-10-12---12--12--10----10--|-10-12---12--12--10----10--|-10-12---12--12--10----10--|
G|-10-12---12--12--10----10--|-10-12---12--12--10----10--|-10-12---12--12--10----10--|
D|-10-12---12--12--10----10--|-10-12---12--12--10----10--|-10-12---12--12--10----10--|
A|---------------------------|---------------------------|---------------------------|
E|---------------------------|---------------------------|---------------------------|


E|---------------------------|---------------------------|---------------------------|
B|-10-12---12--12--10----10--|-10-12---12--12--10----10--|-10-12---12--12--10----10--|
G|-10-12---12--12--10----10--|-10-12---12--12--10----10--|-10-12---12--12--10----10--|
D|-10-12---12--12--10----10--|-10-12---12--12--10----10--|-10-12---12--12--10----10--|
A|---------------------------|---------------------------|---------------------------|
E|---------------------------|---------------------------|---------------------------|


E|---------------------------|
B|-10-12---12--12--10----10--|
G|-10-12---12--12--10----10--|
D|-10-12---12--12--10----10--|
A|---------------------------|
E|---------------------------|





Track 3: Synth arranged for Guitar

E|--------|--------|--------|--------|--------|--------|--------|--------|--------|
B|--------|--------|--------|--------|--------|--------|--------|--------|--------|
G|--------|--------|--------|--------|--------|--------|--------|--------|--------|
D|--------|--------|--------|--------|--------|--------|--------|--------|--------|
A|--------|--------|--------|--------|--------|--------|--------|--------|--------|
E|--------|--------|--------|--------|--------|--------|--------|--------|--------|


E|--------|--------|--------|--------|--------|--------|--------|--------------13------13------|
B|--------|--------|--------|--------|--------|--------|--------|-12--12-------12------12------|
G|--------|--------|--------|--------|--------|--------|--------|-12--12-----------------------|
D|--------|--------|--------|--------|--------|--------|--------|------------------------------|
A|--------|--------|--------|--------|--------|--------|--------|------------------------------|
E|--------|--------|--------|--------|--------|--------|--------|------------------------------|


E|--------------13------13------|--------------13------13------|--------------13------13------|
B|-12--12-------12------12------|-12--12-------12------12------|-12--12-------12------12------|
G|-12--12-----------------------|-12--12-----------------------|-12--12-----------------------|
D|------------------------------|------------------------------|------------------------------|
A|------------------------------|------------------------------|------------------------------|
E|------------------------------|------------------------------|------------------------------|


E|--------|--------|--------|--------|--------|--------|--------|--------|--------|
B|--------|--------|--------|--------|--------|--------|--------|--------|--------|
G|--------|--------|--------|--------|--------|--------|--------|--------|--------|
D|--------|--------|--------|--------|--------|--------|--------|--------|--------|
A|--------|--------|--------|--------|--------|--------|--------|--------|--------|
E|--------|--------|--------|--------|--------|--------|--------|--------|--------|


E|--------|--------|--------|--------------13------13------|--------------13------13------|
B|--------|--------|--------|-12--12-------12------12------|-12--12-------12------12------|
G|--------|--------|--------|-12--12-----------------------|-12--12-----------------------|
D|--------|--------|--------|------------------------------|------------------------------|
A|--------|--------|--------|------------------------------|------------------------------|
E|--------|--------|--------|------------------------------|------------------------------|


E|--------------13------13------|--------------13------13------|--------|--------|
B|-12--12-------12------12------|-12--12-------12------12------|--------|--------|
G|-12--12-----------------------|-12--12-----------------------|--------|--------|
D|------------------------------|------------------------------|--------|--------|
A|------------------------------|------------------------------|--------|--------|
E|------------------------------|------------------------------|--------|--------|


E|--------|--------|--------|--------|--------|--------|--------|--------|--------|
B|--------|--------|--------|--------|--------|--------|--------|--------|--------|
G|--------|--------|--------|--------|--------|--------|--------|--------|--------|
D|--------|--------|--------|--------|--------|--------|--------|--------|--------|
A|--------|--------|--------|--------|--------|--------|--------|--------|--------|
E|--------|--------|--------|--------|--------|--------|--------|--------|--------|


E|--------|--------|--------|--------|--------|--------|--------|--------|--------|
B|--------|--------|--------|--------|--------|--------|--------|--------|--------|
G|--------|--------|--------|--------|--------|--------|--------|--------|--------|
D|--------|--------|--------|--------|--------|--------|--------|--------|--------|
A|--------|--------|--------|--------|--------|--------|--------|--------|--------|
E|--------|--------|--------|--------|--------|--------|--------|--------|--------|


E|--------|--------|--------|--------|
B|--------|--------|--------|--------|
G|--------|--------|--------|--------|
D|--------|--------|--------|--------|
A|--------|--------|--------|--------|
E|--------|--------|--------|--------|





Track 4: Clean Elec. (Jazz)

E|--------|--------|--------|--------|--------|--------|--------|--------|--------|
B|--------|--------|--------|--------|--------|--------|--------|--------|--------|
G|--------|--------|--------|--------|--------|--------|--------|--------|--------|
D|--------|--------|--------|--------|--------|--------|--------|--------|--------|
A|--------|--------|--------|--------|--------|--------|--------|--------|--------|
E|--------|--------|--------|--------|--------|--------|--------|--------|--------|


E|--------|--------|--------|--------|--------|--------|--------|--------|--------|
B|--------|--------|--------|--------|--------|--------|--------|--------|--------|
G|--------|--------|--------|--------|--------|--------|--------|--------|--------|
D|--------|--------|--------|--------|--------|--------|--------|--------|--------|
A|--------|--------|--------|--------|--------|--------|--------|--------|--------|
E|--------|--------|--------|--------|--------|--------|--------|--------|--------|


E|--------|--------|--------|--------|--------|--------|--------|--------|--------|
B|--------|--------|--------|--------|--------|--------|--------|--------|--------|
G|--------|--------|--------|--------|--------|--------|--------|--------|--------|
D|--------|--------|--------|--------|--------|--------|--------|--------|--------|
A|--------|--------|--------|--------|--------|--------|--------|--------|--------|
E|--------|--------|--------|--------|--------|--------|--------|--------|--------|


E|--------|--------|--------|--------|--------|--------|--------|--------|--------|
B|--------|--------|--------|--------|--------|--------|--------|--------|--------|
G|--------|--------|--------|--------|--------|--------|--------|--------|--------|
D|--------|--------|--------|--------|--------|--------|--------|--------|--------|
A|--------|--------|--------|--------|--------|--------|--------|--------|--------|
E|--------|--------|--------|--------|--------|--------|--------|--------|--------|


E|-----------------------------------------|-----------------------------------------|
B|-----------------------------------------|-----------------------------------------|
G|--------------9---10-10-10-9-----9-------|--------------9---10-10-10-9-----9-------|
D|-----9--10-12-----------------12----9----|-9---9--10-12-----------------12----9----|
A|-----------------------------------------|-----------------------------------------|
E|-----------------------------------------|-----------------------------------------|


E|--------|--------|--------|--------|--------|--------|--------|--------|--------|
B|--------|--------|--------|--------|--------|--------|--------|--------|--------|
G|--------|--------|--------|--------|--------|--------|--------|--------|--------|
D|--------|--------|--------|--------|--------|--------|--------|--------|--------|
A|--------|--------|--------|--------|--------|--------|--------|--------|--------|
E|--------|--------|--------|--------|--------|--------|--------|--------|--------|


E|--------|--------|--------|--------|--------|--------|--------|--------|--------|
B|--------|--------|--------|--------|--------|--------|--------|--------|--------|
G|--------|--------|--------|--------|--------|--------|--------|--------|--------|
D|--------|--------|--------|--------|--------|--------|--------|--------|--------|
A|--------|--------|--------|--------|--------|--------|--------|--------|--------|
E|--------|--------|--------|--------|--------|--------|--------|--------|--------|


E|--------|--------|--------|--------|
B|--------|--------|--------|--------|
G|--------|--------|--------|--------|
D|--------|--------|--------|--------|
A|--------|--------|--------|--------|
E|--------|--------|--------|--------|





Track 5: Untitled

G|--------|--------|--------|--------|--------|--------|--------|--------|--------|
D|--------|--------|--------|--------|--------|--------|--------|--------|--------|
A|--------|--------|--------|--------|--------|--------|--------|--------|--------|
E|--------|--------|--------|--------|--------|--------|--------|--------|--------|


G|--------|--------|--------|--------|--------|--------|--------|--------|--------|
D|--------|--------|--------|--------|--------|--------|--------|--------|--------|
A|--------|--------|--------|--------|--------|--------|--------|--------|--------|
E|--------|--------|--------|--------|--------|--------|--------|--------|--------|


G|--------|--------|--------|--------|--------|--------|--------|--------|--------|
D|--------|--------|--------|--------|--------|--------|--------|--------|--------|
A|--------|--------|--------|--------|--------|--------|--------|--------|--------|
E|--------|--------|--------|--------|--------|--------|--------|--------|--------|


G|--------|--------|--------|--------|--------|--------|--------|--------|--------|
D|--------|--------|--------|--------|--------|--------|--------|--------|--------|
A|--------|--------|--------|--------|--------|--------|--------|--------|--------|
E|--------|--------|--------|--------|--------|--------|--------|--------|--------|


G|--------|--------|--------|--------|--------|--------|--------|--------|--------|
D|--------|--------|--------|--------|--------|--------|--------|--------|--------|
A|--------|--------|--------|--------|--------|--------|--------|--------|--------|
E|--------|--------|--------|--------|--------|--------|--------|--------|--------|


G|--------|--------|--------|--------|--------|--------|--------|--------|--------|
D|--------|--------|--------|--------|--------|--------|--------|--------|--------|
A|--------|--------|--------|--------|--------|--------|--------|--------|--------|
E|--------|--------|--------|--------|--------|--------|--------|--------|--------|


G|--------|--------|--------|--------|--------|--------|
D|--------|--------|--------|--------|--------|--------|
A|--------|--------|--------|--------|--------|--------|
E|--------|--------|--------|--------|--------|--------|