Site menu:

    

Browse: 0-9 A B C D E F G H I J K L N O P Q R S T U V W X Y Z

311 - nutsymtom:



Title: Nutsymtom
Artist: 
Album: Grassroots
Author: Timothy J. Mahoney, Chad Sexton, Nicholas Hexum, and Aaron Wills


Track 1: Dist. Guitar 1

E|---------------------------------|-----------------------------------|-----------------------------------|
B|---------------------------------|-----------------------------------|-----------------------------------|
G|---------------------------------|-----------------------------------|-----------------------------------|
D|---------------------------------|-----------------------------------|-----------------------------------|
A|---------------------------------|-----------------------------------|-----------------------------------|
E|-0--0--------0--0--------0--0----|-----0--0--------0--0-------0--0---|-----0--0--------0--0-------0--0---|


E|-----------------------------------|--------------------------|--------------------|
B|-----------------------------------|--------------------------|--------------------|
G|-----------------------------------|--------------------------|--------------------|
D|-----------------------------------|--------------------------|--------------------|
A|-----------------------------------|--------------------------|----------------4---|
E|-----0--0--------0--0-------0--0---|-----0--0--------0--0-----|-0-----0----0---2---|


E|-----------------------------------------|-------------------------------------------|
B|-----------------------------------------|-------------------------------------------|
G|-----------------------------------------|-------------------------------------------|
D|-----2------2-----2--2------2------------|-----2---2-----------2-----------2---------|
A|-----2------2-----2--2---2--2-----2------|-----2---2--2--2--2--2--2--2--2--2--2------|
E|-3---0------0-----0--0---0--0-----0--2---|-3---0---0--0--0--0--0--0--0--0--0--0--2---|


E|-------------------------------------------|---------------------------------------------|
B|-------------------------------------------|---------------------------------------------|
G|-------------------------------------------|---------------------------------------------|
D|-----2---2-----------2-----------2---------|-----2---2-----------------------------------|
A|-----2---2--2--2--2--2--2--2--2--2--2------|-5---2---2--2--2--2--2--2--2--2--2--2--2--2--|
E|-3---0---0--0--0--0--0--0--0--0--0--0--2---|-3---0---0--0--0--0--0--0--0--0--0--0--0--0--|


E|-7---7--7------7--7--7--7------7--7--7--7--|-----7--7--7--7------7--7--7--7------------|
B|-5---5--5------5--5--5--5------5--5--5--5--|-----5--5--5--5------5--5--5--5------------|
G|-5---5--5------5--5--5--5------5--5--5--5--|-----5--5--5--5------5--5--5--5------------|
D|-7---7--7------7--7--7--7------7--7--7--7--|-----7--7--7--7------7--7--7--7------------|
A|-0-------------------0---------0-----------|-----0-----0---------0-----0---------------|
E|-------------------------------------------|------------------------------------2--2---|


E|-----------------------------------------|-------------------------------------------|
B|-----------------------------------------|-------------------------------------------|
G|-----------------------------------------|-------------------------------------------|
D|-----2------2-----2--2------2------------|-----2---2-----------2-----------2---------|
A|-----2------2-----2--2---2--2-----2------|-----2---2--2--2--2--2--2--2--2--2--2------|
E|-3---0------0-----0--0---0--0-----0--2---|-3---0---0--0--0--0--0--0--0--0--0--0--2---|


E|-------------------------------------------|---------------------------------------------|
B|-------------------------------------------|---------------------------------------------|
G|-------------------------------------------|---------------------------------------------|
D|-----2---2-----------2-----------2---------|-----2---2-----------------------------------|
A|-----2---2--2--2--2--2--2--2--2--2--2------|-5---2---2--2--2--2--2--2--2--2--2--2--2--2--|
E|-3---0---0--0--0--0--0--0--0--0--0--0--2---|-3---0---0--0--0--0--0--0--0--0--0--0--0--0--|


E|-7---7--7------7--7--7--7------7--7--7--7--|-----7--7--7--7------7--7--7--7------------|
B|-5---5--5------5--5--5--5------5--5--5--5--|-----5--5--5--5------5--5--5--5------------|
G|-5---5--5------5--5--5--5------5--5--5--5--|-----5--5--5--5------5--5--5--5------------|
D|-7---7--7------7--7--7--7------7--7--7--7--|-----7--7--7--7------7--7--7--7------------|
A|-0-------------------0---------0-----------|-----0-----0---------0-----0---------------|
E|-------------------------------------------|------------------------------------2--2---|


E|-----------------------------------------|-------------------------------------------|
B|-----------------------------------------|-------------------------------------------|
G|-----------------------------------------|-------------------------------------------|
D|-----2------2-----2--2------2------------|-----2---2---------------------------------|
A|-----2------2-----2--2---2--2-----2------|-----2---2--2--2--2--2---2--2-----2--2--2--|
E|-3---0------0-----0--0---0--0-----0--2---|-3---0---0--0--0--0--0---0--0-----0--0--0--|


E|---------------------------------|-----------12---12---|---------------------------------|
B|---------------------------------|-----------12---12---|---------------------------------|
G|-----2-------3-------4-------7---|-7----0----12---12---|-----2-------3-------4-------7---|
D|-----------------------------6---|-6----0--------------|-----------------------------6---|
A|-2-------3-------4-------5---7---|-7----0--------------|-2-------3-------4-------5---7---|
E|---------------------------------|---------------------|-----------------------------0---|


E|----------12------12----------|-----------------------------------------|-------------------------------------------|
B|------0---12----------12------|-----------------------------------------|-------------------------------------------|
G|-7----0---12--12--------------|-----------------------------------------|-------------------------------------------|
D|-6----0-----------------------|-----2------2-----2--2------2------------|-----2---2-----------2-----------2---------|
A|-7----------------------------|-----2------2-----2--2---2--2-----2------|-----2---2--2--2--2--2--2--2--2--2--2------|
E|-0------------------------2---|-3---0------0-----0--0---0--0-----0--2---|-3---0---0--0--0--0--0--0--0--0--0--0--2---|


E|-------------------------------------------|---------------------------------------------|
B|-------------------------------------------|---------------------------------------------|
G|-------------------------------------------|---------------------------------------------|
D|-----2---2-----------2-----------2---------|-----2---2-----------------------------------|
A|-----2---2--2--2--2--2--2--2--2--2--2------|-5---2---2--2--2--2--2--2--2--2--2--2--2--2--|
E|-3---0---0--0--0--0--0--0--0--0--0--0--2---|-3---0---0--0--0--0--0--0--0--0--0--0--0--0--|


E|-7---7--7------7--7--7--7------7--7--7--7--|-----7--7--7--7------7--7--7--7------------|
B|-5---5--5------5--5--5--5------5--5--5--5--|-----5--5--5--5------5--5--5--5------------|
G|-5---5--5------5--5--5--5------5--5--5--5--|-----5--5--5--5------5--5--5--5------------|
D|-7---7--7------7--7--7--7------7--7--7--7--|-----7--7--7--7------7--7--7--7------------|
A|-0-------------------0---------0-----------|-----0-----0---------0-----0---------------|
E|-------------------------------------------|------------------------------------2--2---|


E|-----------------------------------------|-------------------------------------------|
B|-----------------------------------------|-------------------------------------------|
G|-----------------------------------------|-------------------------------------------|
D|-----2------2-----2--2------2------------|-----2---2-----------2-----------2---------|
A|-----2------2-----2--2---2--2-----2------|-----2---2--2--2--2--2--2--2--2--2--2------|
E|-3---0------0-----0--0---0--0-----0--2---|-3---0---0--0--0--0--0--0--0--0--0--0--2---|


E|-------------------------------------------|---------------------------------------------|
B|-------------------------------------------|---------------------------------------------|
G|-------------------------------------------|---------------------------------------------|
D|-----2---2-----------2-----------2---------|-----2---2-----------------------------------|
A|-----2---2--2--2--2--2--2--2--2--2--2------|-5---2---2--2--2--2--2--2--2--2--2--2--2--2--|
E|-3---0---0--0--0--0--0--0--0--0--0--0--2---|-3---0---0--0--0--0--0--0--0--0--0--0--0--0--|


E|-7---7--7------7--7--7--7------7--7--7--7--|-----7--7--7--7------7--7--7--7------------|
B|-5---5--5------5--5--5--5------5--5--5--5--|-----5--5--5--5------5--5--5--5------------|
G|-5---5--5------5--5--5--5------5--5--5--5--|-----5--5--5--5------5--5--5--5------------|
D|-7---7--7------7--7--7--7------7--7--7--7--|-----7--7--7--7------7--7--7--7------------|
A|-0-------------------0---------0-----------|-----0-----0---------0-----0---------------|
E|-------------------------------------------|------------------------------------2--2---|


E|-----------------------------------------|-------------------------------------------|
B|-----------------------------------------|-------------------------------------------|
G|-----------------------------------------|-------------------------------------------|
D|-----2------2-----2--2------2------------|-----2---2---------------------------------|
A|-----2------2-----2--2---2--2-----2------|-----2---2--2--2--2--2---2--2-----2--2--2--|
E|-3---0------0-----0--0---0--0-----0--2---|-3---0---0--0--0--0--0---0--0-----0--0--0--|


E|---------------------------------|-----------12---12---|---------------------------------|
B|---------------------------------|-----------12---12---|---------------------------------|
G|-----2-------3-------4-------7---|-7----0----12---12---|-----2-------3-------4-------7---|
D|-----------------------------6---|-6----0--------------|-----------------------------6---|
A|-2-------3-------4-------5---7---|-7----0--------------|-2-------3-------4-------5---7---|
E|---------------------------------|---------------------|-----------------------------0---|


E|--------|--------|--------|--------|-----------------|-14-15--14-15--14-15-15-14-15-14-15-14-15-14-15-14-|
B|--------|--------|--------|--------|-----------------|---------------------------------------------------|
G|-7------|-7------|-7------|-7------|-7---------------|---------------------------------------------------|
D|-6------|-6------|-6------|-6------|-6---------------|---------------------------------------------------|
A|-7------|-7------|-7------|-7------|-7---------------|---------------------------------------------------|
E|-0------|-0------|-0------|-0------|-0---------------|---------------------------------------------------|


E|-17-------------------14-15-14-|----------14-15-14----14-15-14----14-14----------|
B|-------------------------------|-17----------------17----------17--------17--15--|
G|-------------------------------|-------------------------------------------------|
D|-------------------------------|-------------------------------------------------|
A|-------------------------------|-------------------------------------------------|
E|-------------------------------|-------------------------------------------------|


E|------------------------------------|------19---19---19---|-19---19--19-19-19---19-19-19--|
B|-14-15-14----14---------------------|---------------------|-------------------------------|
G|----------16-----16--14-16-14-------|---------------------|-------------------------------|
D|------------------------------------|---------------------|-------------------------------|
A|------------------------------------|---------------------|-------------------------------|
E|------------------------------------|---------------------|-------------------------------|


E|------------------------|--------------------------------|-------------------------------|
B|-17----17--12--0--------|--------------------------------|-------------------------------|
G|------------------------|--------------------------------|---------------------11---12---|
D|-------------------9----|-9------------------------------|------11---12---14-------------|
A|-------------------7----|-7---------------9----11---12---|-14----------------------------|
E|------------------------|-----9---10--12-----------------|-------------------------------|


E|------------------------|------------------------|--------------------------------|
B|----------------15--14--|------------------------|------------------------12------|
G|-14----14--14-----------|-14----14--14-----------|-14------14-16-14--14-------12--|
D|------------------------|----------------16--17--|--------------------------------|
A|------------------------|------------------------|--------------------------------|
E|------------------------|------------------------|--------------------------------|


E|--------------------|--------------------------------|--------|--------|--------|
B|--------------------|---------------------------14---|--------|--------|--------|
G|-12---11------------|---------11--12--14---16--------|--------|--------|--------|
D|----------12--12----|-12--14-------------------------|--------|--------|--------|
A|--------------------|--------------------------------|--------|--------|--------|
E|--------------------|--------------------------------|--------|--------|--------|


E|--------|--------|--------|--------|--------|--------|--------|--------|--------|
B|--------|--------|--------|--------|--------|--------|--------|--------|--------|
G|--------|--------|--------|--------|--------|--------|--------|--------|--------|
D|--------|--------|--------|--------|--------|--------|--------|--------|--------|
A|--------|--------|--------|--------|--------|--------|--------|--------|--------|
E|--------|--------|--------|--------|--------|--------|--------|--------|--------|


E|--------|--------|--------|--------|--------|--------|---------------------------------|
B|--------|--------|--------|--------|--------|--------|---------------------------------|
G|--------|--------|--------|--------|--------|--------|-----2-------3-------4-------7---|
D|--------|--------|--------|--------|--------|--------|-----------------------------6---|
A|--------|--------|--------|--------|--------|--------|-2-------3-------4-------5---7---|
E|--------|--------|--------|--------|--------|--------|---------------------------------|


E|--------------------|---------------------------------|--------|--------|------------------|
B|--------------------|---------------------------------|--------|--------|------------------|
G|-7-----7----7-------|-----2-------3-------4-------7---|-7------|-7------|-7----------------|
D|-6-----6----6-------|-----------------------------6---|-6------|-6------|-6----------7--6--|
A|-7-----7----7----7--|-2-------3-------4-------5---7---|-7------|-7------|-7----------------|
E|--------------------|---------------------------------|--------|--------|--------0---------|


E|--------------------|
B|--------------------|
G|-0------------------|
D|--------------------|
A|--------------------|
E|--------------------|





Track 2: Dist. Guitar 2

E|--------|--------|--------|--------|--------|--------|--------|--------|--------|
B|--------|--------|--------|--------|--------|--------|--------|--------|--------|
G|--------|--------|--------|--------|--------|--------|--------|--------|--------|
D|--------|--------|--------|--------|--------|--------|--------|--------|--------|
A|--------|--------|--------|--------|--------|--------|--------|--------|--------|
E|--------|--------|--------|--------|--------|--------|--------|--------|--------|


E|--------|--------|--------|--------|--------|--------|--------|--------|--------|
B|--------|--------|--------|--------|--------|--------|--------|--------|--------|
G|--------|--------|--------|--------|--------|--------|--------|--------|--------|
D|--------|--------|--------|--------|--------|--------|--------|--------|--------|
A|--------|--------|--------|--------|--------|--------|--------|--------|--------|
E|--------|--------|--------|--------|--------|--------|--------|--------|--------|


E|--------|--------|--------|--------|--------|--------|--------|--------|--------|
B|--------|--------|--------|--------|--------|--------|--------|--------|--------|
G|--------|--------|--------|--------|--------|--------|--------|--------|--------|
D|--------|--------|--------|--------|--------|--------|--------|--------|--------|
A|--------|--------|--------|--------|--------|--------|--------|--------|--------|
E|--------|--------|--------|--------|--------|--------|--------|--------|--------|


E|--------|--------|--------|--------|--------|--------|--------|--------|--------|
B|--------|--------|--------|--------|--------|--------|--------|--------|--------|
G|--------|--------|--------|--------|--------|--------|--------|--------|--------|
D|--------|--------|--------|--------|--------|--------|--------|--------|--------|
A|--------|--------|--------|--------|--------|--------|--------|--------|--------|
E|--------|--------|--------|--------|--------|--------|--------|--------|--------|


E|--------|--------|--------|--------|--------|--------|--------|--------|--------|
B|--------|--------|--------|--------|--------|--------|--------|--------|--------|
G|--------|--------|--------|--------|--------|--------|--------|--------|--------|
D|--------|--------|--------|--------|--------|--------|--------|--------|--------|
A|--------|--------|--------|--------|--------|--------|--------|--------|--------|
E|--------|--------|--------|--------|--------|--------|--------|--------|--------|


E|--------|--------|--------|--------|--------|--------|--------|--------|--------|
B|--------|--------|--------|--------|--------|--------|--------|--------|--------|
G|--------|--------|--------|--------|--------|--------|--------|--------|--------|
D|--------|--------|--------|--------|--------|--------|--------|--------|--------|
A|--------|--------|--------|--------|--------|--------|--------|--------|--------|
E|--------|--------|--------|--------|--------|--------|--------|--------|--------|


E|--------|--------|--------|--------|--------|--------|-----------------------------------------|
B|--------|--------|--------|--------|--------|--------|-15-14-------14--------------------------|
G|--------|--------|--------|--------|--------|--------|-------16-14-----16--14------------14-16-|
D|--------|--------|--------|--------|--------|--------|-------------------------16--14-16-------|
A|--------|--------|--------|--------|--------|--------|-----------------------------------------|
E|--------|--------|--------|--------|--------|--------|-----------------------------------------|


E|----------------------------------|-----14-----------------------|-----14-----------------------|
B|-15---14-----------14-------------|------------15---12-----------|------------15---12-----------|
G|-----------16--14-----16-14-------|-------------------------12---|-4-----------------------12---|
D|----------------------------------|------------------------------|------------------------------|
A|----------------------------------|------------------------------|------------------------------|
E|----------------------------------|------------------------------|------------------------------|


E|-----14--------------------------|-----14--------------------------|-----14--15--17--19---19-17--15--|
B|------------15---14--14--14--7---|------------15---14--14--14--7---|---------------------------------|
G|-4-------------------------------|---------------------------------|---------------------------------|
D|---------------------------------|---------------------------------|---------------------------------|
A|---------------------------------|---------------------------------|---------------------------------|
E|---------------------------------|---------------------------------|---------------------------------|


E|-14---15--14--14--15--14---|-------------------------------|-14---15---16---17--16--15---|
B|---------------------------|------14---15---16---17---18---|-----------------------------|
G|---------------------------|-------------------------------|-----------------------------|
D|---------------------------|-------------------------------|-----------------------------|
A|---------------------------|-------------------------------|-----------------------------|
E|---------------------------|-------------------------------|-----------------------------|


E|------19---19---19-19---|-19--19---19--19---19-22-19--|-----19--19--19-19-19---19--21--|
B|------------------------|-----------------------------|-22-----------------------------|
G|------------------------|-----------------------------|--------------------------------|
D|------------------------|-----------------------------|--------------------------------|
A|------------------------|-----------------------------|--------------------------------|
E|------------------------|-----------------------------|--------------------------------|


E|-22---21---19---22----|-22---22--22-19-22----|-22--22--22--22-19-22---21---19---|
B|----------------------|----------------------|----------------------------------|
G|----------------------|----------------------|----------------------------------|
D|----------------------|----------------------|----------------------------------|
A|----------------------|----------------------|----------------------------------|
E|----------------------|----------------------|----------------------------------|


E|-----------------------------------------|-------------------------------|-----11------12------14------16--|
B|-22---20----19-20-19-----19--20--22--20--|-19------20-19-----------------|-10------11------12------14--15--|
G|---------------------21------------------|----21---------21-19-21--------|---------------------------------|
D|-----------------------------------------|-------------------------------|---------------------------------|
A|-----------------------------------------|-------------------------------|---------------------------------|
E|-----------------------------------------|-------------------------------|---------------------------------|


E|-16----16--------|-------17-------17-------17-------17-------17-----17--|-17------16-14-------------------------------|
B|-15----15--------|-14-17----14-17----14-17----14-17----14-17---1417-----|-----17--------17-15-14----------------------|
G|-----------------|------------------------------------------------------|------------------------16-14----------------|
D|-----------------|------------------------------------------------------|------------------------------17-16-14-------|
A|-----------------|------------------------------------------------------|---------------------------------------17-16-|
E|-----------------|------------------------------------------------------|---------------------------------------------|


E|-----------------------|---------------------------|--------|
B|-----------------------|---------------------------|--------|
G|-----------------------|---------------------------|--------|
D|-----------------------|---------------------------|--------|
A|-14--------------------|---------------------------|--------|
E|-----17--16----12---11-|-10---9--8----7--6---------|--------|





Track 3: Clean Elec.

E|--------|--------|--------|--------|--------|--------|--------|--------|--------|
B|--------|--------|--------|--------|--------|--------|--------|--------|--------|
G|--------|--------|--------|--------|--------|--------|--------|--------|--------|
D|--------|--------|--------|--------|--------|--------|--------|--------|--------|
A|--------|--------|--------|--------|--------|--------|--------|--------|--------|
E|--------|--------|--------|--------|--------|--------|--------|--------|--------|


E|--------|--------|--------|--------|--------|--------|--------|--------|--------|
B|--------|--------|--------|--------|--------|--------|--------|--------|--------|
G|--------|--------|--------|--------|--------|--------|--------|--------|--------|
D|--------|--------|--------|--------|--------|--------|--------|--------|--------|
A|--------|--------|--------|--------|--------|--------|--------|--------|--------|
E|--------|--------|--------|--------|--------|--------|--------|--------|--------|


E|--------|--------|--------|--------|--------|--------|--------|--------|--------|
B|--------|--------|--------|--------|--------|--------|--------|--------|--------|
G|--------|--------|--------|--------|--------|--------|--------|--------|--------|
D|--------|--------|--------|--------|--------|--------|--------|--------|--------|
A|--------|--------|--------|--------|--------|--------|--------|--------|--------|
E|--------|--------|--------|--------|--------|--------|--------|--------|--------|


E|--------|--------|--------|--------|--------|--------|--------|--------|--------|
B|--------|--------|--------|--------|--------|--------|--------|--------|--------|
G|--------|--------|--------|--------|--------|--------|--------|--------|--------|
D|--------|--------|--------|--------|--------|--------|--------|--------|--------|
A|--------|--------|--------|--------|--------|--------|--------|--------|--------|
E|--------|--------|--------|--------|--------|--------|--------|--------|--------|


E|--------|--------|--------|--------|--------|--------|--------|--------|--------|
B|--------|--------|--------|--------|--------|--------|--------|--------|--------|
G|--------|--------|--------|--------|--------|--------|--------|--------|--------|
D|--------|--------|--------|--------|--------|--------|--------|--------|--------|
A|--------|--------|--------|--------|--------|--------|--------|--------|--------|
E|--------|--------|--------|--------|--------|--------|--------|--------|--------|


E|--------|--------|--------|--------|--------|--------|--------|--------|--------|
B|--------|--------|--------|--------|--------|--------|--------|--------|--------|
G|--------|--------|--------|--------|--------|--------|--------|--------|--------|
D|--------|--------|--------|--------|--------|--------|--------|--------|--------|
A|--------|--------|--------|--------|--------|--------|--------|--------|--------|
E|--------|--------|--------|--------|--------|--------|--------|--------|--------|


E|--------|--------|--------|--------|--------|--------|--------|--------|-----------------------|
B|--------|--------|--------|--------|--------|--------|--------|--------|-----------------------|
G|--------|--------|--------|--------|--------|--------|--------|--------|-----------------7-----|
D|--------|--------|--------|--------|--------|--------|--------|--------|-----5------5----5-----|
A|--------|--------|--------|--------|--------|--------|--------|--------|-----7------7----7-----|
E|--------|--------|--------|--------|--------|--------|--------|--------|-----------------------|


E|-----------------------|-----------------------|-----------------------|-----------------------|
B|-----------------------|-----------------------|-----------------------|-----------------------|
G|-7---7------7----7-----|-7---9------9----9-----|-9---9------9----9-----|-9-------7-------7-----|
D|-5---5------5----5-----|-5---7------7----7-----|-7---7------7----7-----|-7-------5-------5-----|
A|-7---7------7----7-----|-7---9------9----9-----|-9---9------9----9-----|-9---7---7---7---7-----|
E|-----------------------|-----------------------|-----------------------|-----------------------|


E|-----------------------|-----------------------|-----------------------|-7---7------7-----7--7---7--7--7--7--7---|
B|-----------------7-----|-7---9------9----9-----|-9---9------9----9-----|-7---7------7-----7--7---7--7--7--7--7---|
G|-7---7------7----7-----|-7---9------9----9-----|-9---9------9----9-----|-7---7------7-----7--7---7--7--7--7--7---|
D|-5---5------5----5-----|-5---7------7----7-----|-7---7------7----7-----|-5-------5--5-----5--5---5-----5-----5---|
A|-7---7------7----------|-----------------9-----|-9---------------9-----|-7-------7-------------------------------|
E|-----------------------|-----------------------|-----------------------|-----------------------------------------|


E|-7---7------7-----7--7---7--7--7--7--7---|-----9------9-----9--9--9-----9--9--9-----9--|
B|-7---7------7-----7--7---7--7--7--7--7---|-----9------9-----9--9--9-----9--9--9-----9--|
G|-7---7------7-----7--7---7--7--7--7--7---|-9---9------9-----9--9--9--9--9--9--9--9--9--|
D|-5-------5--5-----5--5---5-----5-----5---|-7-------7-----7-----7-----7-----7-----7-----|
A|-7-------7-------------------------------|-9-------9-----9-----9-----9-----9-----9-----|
E|-----------------------------------------|---------------------------------------------|


E|-----9------9-----9--9--9-----9--9--9-----9--|--------7-----7-----7-----7-----7-----7-----7--|
B|-----9------9-----9--9--9-----9--9--9-----9--|--------7-----7-----7-----7-----7-----7-----7--|
G|-9---9------9-----9--9--9--9--9--9--9--9--9--|-7---7--7--7--7--7--7--7--7--7--7--7--7--7--7--|
D|-7-------7-----7-----7-----7-----7-----7-----|-5---5-----5-----5-----5-----5-----5-----5-----|
A|-9-------9-----9-----9-----9-----9-----9-----|-7---7-----7-----7-----7-----7-----7-----7-----|
E|---------------------------------------------|-----------------------------------------------|


E|--------7-----7-----7-----7-----7-----7-----7--|------------9-----9-----9-----9-----9-----9--|
B|--------7-----7-----7-----7-----7-----7-----7--|------------9-----9--9--9--9--9--9--9--9--9--|
G|-7---7--7--7--7--7--7--7--7--7--7--7--7--7--7--|-9---9---9--9--9--9--9--9--9--9--9--9--9--9--|
D|-5---5-----5-----5-----5-----5-----5-----5-----|-7---7---7-----7-----7-----7-----7-----7-----|
A|-7---7-----7-----7-----7-----7-----7-----7-----|-9---9---9-----9-----9-----9-----9-----9-----|
E|-----------------------------------------------|---------------------------------------------|


E|--------9-----9-----9-----9-----9----------|--------|--------|--------|--------|
B|-9------9-----9-----9-----9-----9--9---9---|--------|--------|--------|--------|
G|-9---9--9--9--9--9--9--9--9--9--9--9---9---|--------|--------|--------|--------|
D|-7---7-----7-----7-----7-----7-----7---7---|--------|--------|--------|--------|
A|-9---9-----9-----9-----9-----9-----9---9---|--------|--------|--------|--------|
E|-------------------------------------------|--------|--------|--------|--------|


E|--------|--------|--------|
B|--------|--------|--------|
G|--------|--------|--------|
D|--------|--------|--------|
A|--------|--------|--------|
E|--------|--------|--------|





Track 4: Slap Bass

G|--------|--------|--------|--------|--------|-----------------------------|--------|
D|--------|--------|--------|--------|--------|----------7-----5-----4------|--------|
A|--------|--------|--------|--------|--------|-----------------------------|--------|
E|--------|--------|--------|--------|--------|-------5-----3-----2---------|--------|
B|--------|--------|--------|--------|--------|-----------------------------|--------|


G|--------|--------|--------|--------|--------|--------|--------|--------|--------|
D|--------|--------|--------|--------|--------|--------|--------|--------|--------|
A|--------|--------|--------|--------|--------|--------|--------|--------|--------|
E|--------|--------|--------|--------|--------|--------|--------|--------|--------|
B|--------|--------|--------|--------|--------|--------|--------|--------|--------|


G|--------|--------|--------|--------|--------|--------|--------|--------|--------|
D|--------|--------|--------|--------|--------|--------|--------|--------|--------|
A|--------|--------|--------|--------|--------|--------|--------|--------|--------|
E|--------|--------|--------|--------|--------|--------|--------|--------|--------|
B|--------|--------|--------|--------|--------|--------|--------|--------|--------|


G|--------|--------|--------|--------|--------|--------|--------|--------|--------|
D|--------|--------|--------|--------|--------|--------|--------|--------|--------|
A|--------|--------|--------|--------|--------|--------|--------|--------|--------|
E|--------|--------|--------|--------|--------|--------|--------|--------|--------|
B|--------|--------|--------|--------|--------|--------|--------|--------|--------|


G|--------|--------|--------|--------|--------|--------|--------|--------|----0--7---9---------------7-------------|
D|--------|--------|--------|--------|--------|--------|--------|--------|-----------------------------------------|
A|--------|--------|--------|--------|--------|--------|--------|--------|------------------0--4--4-----5---7------|
E|--------|--------|--------|--------|--------|--------|--------|--------|--------------------------------------0--|
B|--------|--------|--------|--------|--------|--------|--------|--------|-0------------------------------------0--|


G|-9--7---9---------------7--------------|----0--7---9---------------7-------------|
D|---------------------------------------|-----------------------------------------|
A|---------------0--4--4-----5---7-------|------------------0--4--4-----5---7------|
E|-----------------------------------0---|--------------------------------------0--|
B|-----------------------------------0---|-0------------------------------------0--|


G|----7--9---9---------------7-------------|----9--9---9---------------7-------------|
D|-----------------------------------------|-----------------------------------------|
A|------------------0--4--4-----5---7------|------------------0--4--4-----5---7------|
E|--------------------------------------0--|--------------------------------------0--|
B|-0------------------------------------0--|-0------------------------------------0--|


G|----0--7---9---------------7-------------|-9--7---9---------------7--------------|
D|-----------------------------------------|---------------------------------------|
A|------------------0--4--4-----5---7------|---------------0--4--4-----5---7-------|
E|--------------------------------------0--|-----------------------------------0---|
B|-0------------------------------------0--|-----------------------------------0---|


G|----0--7---9---------------7-------------|----7--9---9---------------7-------------|
D|-----------------------------------------|-----------------------------------------|
A|------------------0--4--4-----5---7------|------------------0--4--4-----5---7------|
E|--------------------------------------0--|--------------------------------------0--|
B|-0------------------------------------0--|-0------------------------------------0--|


G|----9--9---9---------------7-------------|----0--7---9---------------7-------------|
D|-----------------------------------------|-----------------------------------------|
A|------------------0--4--4-----5---7------|------------------0--4--4-----5---7------|
E|--------------------------------------0--|--------------------------------------0--|
B|-0------------------------------------0--|-0------------------------------------0--|


G|-9--7---9---------------7--------------|----0--7---9---------------7-------------|
D|---------------------------------------|-----------------------------------------|
A|---------------0--4--4-----5---7-------|------------------0--4--4-----5---7------|
E|-----------------------------------0---|--------------------------------------0--|
B|-----------------------------------0---|-0------------------------------------0--|


G|----7--9---9---------------7-------------|----9--9---9---------------7-------------|
D|-----------------------------------------|-----------------------------------------|
A|------------------0--4--4-----5---7------|------------------0--4--4-----5---7------|
E|--------------------------------------0--|--------------------------------------0--|
B|-0------------------------------------0--|-0------------------------------------0--|


G|----0--7---9---------------7-------------|-9--7---9---------------7--------------|
D|-----------------------------------------|---------------------------------------|
A|------------------0--4--4-----5---7------|---------------0--4--4-----5---7-------|
E|--------------------------------------0--|-----------------------------------0---|
B|-0------------------------------------0--|-----------------------------------0---|


G|----0--7---9---------------7-------------|----7--9---9---------------7-------------|
D|-----------------------------------------|-----------------------------------------|
A|------------------0--4--4-----5---7------|------------------0--4--4-----5---7------|
E|--------------------------------------0--|--------------------------------------0--|
B|-0------------------------------------0--|-0------------------------------------0--|


G|----9--9---9---------------7-------------|----0--7---9---------------7-------------|
D|-----------------------------------------|-----------------------------------------|
A|------------------0--4--4-----5---7------|------------------0--4--4-----5---7------|
E|--------------------------------------0--|--------------------------------------0--|
B|-0------------------------------------0--|-0------------------------------------0--|


G|-9--7---9---------------7--------------|----7--9---9---------------7-------------|
D|---------------------------------------|-----------------------------------------|
A|---------------0--4--4-----5---7-------|------------------0--4--4-----5---7------|
E|-----------------------------------0---|--------------------------------------0--|
B|-----------------------------------0---|-0------------------------------------0--|


G|----9--9---9---------------7-------------|----0--7---9---------------7-------------|
D|-----------------------------------------|-----------------------------------------|
A|------------------0--4--4-----5---7------|------------------0--4--4-----5---7------|
E|--------------------------------------0--|--------------------------------------0--|
B|-0------------------------------------0--|-0------------------------------------0--|


G|-9--7---9---------------7--------------|----7--9---9---------------7-------------|
D|---------------------------------------|-----------------------------------------|
A|---------------0--4--4-----5---7-------|------------------0--4--4-----5---7------|
E|-----------------------------------0---|--------------------------------------0--|
B|-----------------------------------0---|-0------------------------------------0--|


G|----9--9---9---------------7-------------|----0--7---9---------------7-------------|
D|-----------------------------------------|-----------------------------------------|
A|------------------0--4--4-----5---7------|------------------0--4--4-----5---7------|
E|--------------------------------------0--|--------------------------------------0--|
B|-0------------------------------------0--|-0------------------------------------0--|


G|-9--7---9---------------7--------------|----7--9---9---------------7-------------|
D|---------------------------------------|-----------------------------------------|
A|---------------0--4--4-----5---7-------|------------------0--4--4-----5---7------|
E|-----------------------------------0---|--------------------------------------0--|
B|-----------------------------------0---|-0------------------------------------0--|


G|----9--9---9---------------7-------------|----0--7---9---------------7-------------|
D|-----------------------------------------|-----------------------------------------|
A|------------------0--4--4-----5---7------|------------------0--4--4-----5---7------|
E|--------------------------------------0--|--------------------------------------0--|
B|-0------------------------------------0--|-0------------------------------------0--|


G|-9--7---9---------------7--------------|----7--9---9---------------7-------------|
D|---------------------------------------|-----------------------------------------|
A|---------------0--4--4-----5---7-------|------------------0--4--4-----5---7------|
E|-----------------------------------0---|--------------------------------------0--|
B|-----------------------------------0---|-0------------------------------------0--|


G|----9--9---9---------------7-------------|---------------------------------|-----------------|
D|-----------------------------------------|-----0-------1-------2-----------|-----------------|
A|------------------0--4--4-----5---7------|-2-------3-------4-------5---7---|-7-----7---------|
E|--------------------------------------0--|---------------------------------|-----------------|
B|-0------------------------------------0--|---------------------------------|-----------------|


G|---------------------------------|--------|--------|--------|--------|
D|-----0-------1-------2-----------|--------|--------|--------|--------|
A|-2-------3-------4-------5---7---|-7------|--------|--------|--------|
E|---------------------------------|--------|--------|--------|--------|
B|---------------------------------|--------|--------|--------|--------|





Track 5: Untitled

G|--------|--------|--------|--------|--------|----------------|-------------------------------------------|
D|--------|--------|--------|--------|--------|----------------|---------------------------------3---------|
A|--------|--------|--------|--------|--------|----------------|---------------------------------3---------|
E|--------|--------|--------|--------|--------|------------2---|-3---0---3--0-----3--0-----3--0--3--0--2---|
B|--------|--------|--------|--------|--------|----------------|-------------------------------------------|


G|-------------------------------------------|-------------------------------------------|
D|---------------------------------3---------|---------------------------------3---------|
A|---------------------------------3---------|---------------------------------3---------|
E|-3---0---3--0-----3--0-----3--0--3--0--2---|-3---0---3--0-----3--0-----3--0--3--0--2---|
B|-------------------------------------------|-------------------------------------------|


G|-------------------------------------------|---------------------------------------------|
D|---------------------------------3---------|---------------------------------------------|
A|---------------------------------3---------|---------------------------------------------|
E|-3---0---3--0-----3--0-----3--0--3--0--0---|-5--5--5--5------5--5--5--5------5--5--5--5--|
B|-------------------------------------------|---------------------------------------------|


G|------------------------------------0------|-------------------------------------------|
D|-------------------------------------------|---------------------------------3---------|
A|-------------------------------------------|---------------------------------3---------|
E|-----5--5--5--5------5--5--5--5--3-----2---|-3---0---3--0-----3--0-----3--0--3--0--2---|
B|-------------------------------------------|-------------------------------------------|


G|-------------------------------------------|-------------------------------------------|
D|---------------------------------3---------|---------------------------------3---------|
A|---------------------------------3---------|---------------------------------3---------|
E|-3---0---3--0-----3--0-----3--0--3--0--2---|-3---0---3--0-----3--0-----3--0--3--0--2---|
B|-------------------------------------------|-------------------------------------------|


G|-------------------------------------------|---------------------------------------------|
D|---------------------------------3---------|---------------------------------------------|
A|---------------------------------3---------|---------------------------------------------|
E|-3---0---3--0-----3--0-----3--0--3--0--0---|-5--5--5--5------5--5--5--5------5--5--5--5--|
B|-------------------------------------------|---------------------------------------------|


G|------------------------------------0------|-------------------------------------------|
D|-------------------------------------------|---------------------------------3---------|
A|-------------------------------------------|---------------------------------3---------|
E|-----5--5--5--5------5--5--5--5--3-----2---|-3---0---3--0-----3--0-----3--0--3--0--2---|
B|-------------------------------------------|-------------------------------------------|


G|-------------------------------------------|---------------------------------|------------------------------------|
D|---------------------------------3---------|-----0-------1-------2-----------|-----------6--7--9--7--6--7--6--6---|
A|---------------------------------3---------|-2-------3-------4-------5---7---|-7----7-----------------------------|
E|-3---0---3--0-----3--0-----3--0--3--0--0---|---------------------------------|------------------------------------|
B|-------------------------------------------|---------------------------------|------------------------------------|


G|---------------------------------|----------------------------------|-------------------------------------------|
D|-----0-------1-------2-----------|-----------6--7--9--7--6--7-------|---------------------------------3---------|
A|-2-------3-------4-------5---7---|-7----7---------------------------|---------------------------------3---------|
E|---------------------------------|------------------------------2---|-3---0---3--0-----3--0-----3--0--3--0--2---|
B|---------------------------------|----------------------------------|-------------------------------------------|


G|-------------------------------------------|-------------------------------------------|
D|---------------------------------3---------|---------------------------------3---------|
A|---------------------------------3---------|---------------------------------3---------|
E|-3---0---3--0-----3--0-----3--0--3--0--2---|-3---0---3--0-----3--0-----3--0--3--0--2---|
B|-------------------------------------------|-------------------------------------------|


G|-------------------------------------------|---------------------------------------------|
D|---------------------------------3---------|---------------------------------------------|
A|---------------------------------3---------|---------------------------------------------|
E|-3---0---3--0-----3--0-----3--0--3--0--0---|-5--5--5--5------5--5--5--5------5--5--5--5--|
B|-------------------------------------------|---------------------------------------------|


G|------------------------------------0------|-------------------------------------------|
D|-------------------------------------------|---------------------------------3---------|
A|-------------------------------------------|---------------------------------3---------|
E|-----5--5--5--5------5--5--5--5--3-----2---|-3---0---3--0-----3--0-----3--0--3--0--2---|
B|-------------------------------------------|-------------------------------------------|


G|-------------------------------------------|-------------------------------------------|
D|---------------------------------3---------|---------------------------------3---------|
A|---------------------------------3---------|---------------------------------3---------|
E|-3---0---3--0-----3--0-----3--0--3--0--2---|-3---0---3--0-----3--0-----3--0--3--0--2---|
B|-------------------------------------------|-------------------------------------------|


G|-------------------------------------------|---------------------------------------------|
D|---------------------------------3---------|---------------------------------------------|
A|---------------------------------3---------|---------------------------------------------|
E|-3---0---3--0-----3--0-----3--0--3--0--0---|-5--5--5--5------5--5--5--5------5--5--5--5--|
B|-------------------------------------------|---------------------------------------------|


G|------------------------------------0------|-------------------------------------------|
D|-------------------------------------------|---------------------------------3---------|
A|-------------------------------------------|---------------------------------3---------|
E|-----5--5--5--5------5--5--5--5--3-----2---|-3---0---3--0-----3--0-----3--0--3--0--2---|
B|-------------------------------------------|-------------------------------------------|


G|-------------------------------------------|---------------------------------|------------------------------------|
D|---------------------------------3---------|-----0-------1-------2-----------|-----------6--7--9--7--6--7--6--6---|
A|---------------------------------3---------|-2-------3-------4-------5---7---|-7----7-----------------------------|
E|-3---0---3--0-----3--0-----3--0--3--0--0---|---------------------------------|------------------------------------|
B|-------------------------------------------|---------------------------------|------------------------------------|


G|---------------------------------|--------|--------|--------|--------|--------|--------|
D|-----0-------1-------2-----------|--------|--------|--------|--------|--------|--------|
A|-2-------3-------4-------5---7---|-7------|--------|--------|--------|--------|--------|
E|---------------------------------|--------|--------|--------|--------|--------|--------|
B|---------------------------------|--------|--------|--------|--------|--------|--------|


G|--------|--------|--------|--------|--------|--------|--------|--------|--------|
D|--------|--------|--------|--------|--------|--------|--------|--------|--------|
A|--------|--------|--------|--------|--------|--------|--------|--------|--------|
E|--------|--------|--------|--------|--------|--------|--------|--------|--------|
B|--------|--------|--------|--------|--------|--------|--------|--------|--------|


G|--------|--------|--------|--------|--------|--------|--------|--------|--------|
D|--------|--------|--------|--------|--------|--------|--------|--------|--------|
A|--------|--------|--------|--------|--------|--------|--------|--------|--------|
E|--------|--------|--------|--------|--------|--------|--------|--------|--------|
B|--------|--------|--------|--------|--------|--------|--------|--------|--------|


G|--------|--------|--------|--------|--------|--------|--------|--------|--------|
D|--------|--------|--------|--------|--------|--------|--------|--------|--------|
A|--------|--------|--------|--------|--------|--------|--------|--------|--------|
E|--------|--------|--------|--------|--------|--------|--------|--------|--------|
B|--------|--------|--------|--------|--------|--------|--------|--------|--------|


G|--------|--------|--------|--------|--------|--------|--------|--------|--------|
D|--------|--------|--------|--------|--------|--------|--------|--------|--------|
A|--------|--------|--------|--------|--------|--------|--------|--------|--------|
E|--------|--------|--------|--------|--------|--------|--------|--------|--------|
B|--------|--------|--------|--------|--------|--------|--------|--------|--------|


G|--------|--------|
D|--------|--------|
A|--------|--------|
E|--------|--------|
B|--------|--------|