Site menu:

    

Browse: 0-9 A B C D E F G H I J K L N O P Q R S T U V W X Y Z

311 - nix hex:



Title: Nix Hex
Artist: 
Album: Music
Author: Nick Hexum


Track 1: clean

E|-----------------------------|------------------------------------|---------------------------------------|
B|-----------------------------|------------------------------------|---------------------------------------|
G|----------5--5--3--5--3------|-------------------------------3----|---------------------------------------|
D|-------------------------5---|-5------3-----5------5--3-----------|-5------3-----5------5--3--------------|
A|-----------------------------|-----5------------5--------5--------|-----5------------5--------5---3--1----|
E|-----------------------------|------------------------------------|---------------------------------------|


E|--------------------------------------|-------------------------------------------|
B|--------------------------------------|-------------------------------------------|
G|---------------------------------3----|-----------------------3--5--3-------------|
D|-5------3-----5--3-----5--3-----------|-5------3-----5--3---------------3--5--3---|
A|-----5--------------3--------5--------|-----5--------------3----------------------|
E|--------------------------------------|-------------------------------------------|


E|------------------------------------|---------------------------------------|--------------------------------------|
B|------------------------------------|---------------------------------------|--------------------------------------|
G|-------------------------------3----|---------------------------------------|---------------------------------3----|
D|-5------3-----5------5--3-----------|-5------3-----5------5--3--------------|-5------3-----5--3-----5--3-----------|
A|-----5------------5--------5--------|-----5------------5--------5---3--1----|-----5--------------3--------5--------|
E|------------------------------------|---------------------------------------|--------------------------------------|


E|-------------------------------------------|------------------------------------|
B|-------------------------------------------|------------------------------------|
G|-----------------------3--5--3-------------|-------------------------------3----|
D|-5------3-----5--3---------------3--5--3---|-5------3-----5------5--3-----------|
A|-----5--------------3----------------------|-----5------------5--------5--------|
E|-------------------------------------------|------------------------------------|


E|---------------------------------------|--------------------------------------|-------------------------------------------|
B|---------------------------------------|--------------------------------------|-------------------------------------------|
G|---------------------------------------|---------------------------------3----|-----------------------3--5--3-------------|
D|-5------3-----5------5--3--------------|-5------3-----5--3-----5--3-----------|-5------3-----5--3---------------3--5--3---|
A|-----5------------5--------5---3--1----|-----5--------------3--------5--------|-----5--------------3----------------------|
E|---------------------------------------|--------------------------------------|-------------------------------------------|


E|-----7------7---5--5-----|-----7------7---5--5-----|-----7------7---5--5-----|-----7------7---5--5-----|
B|-----7------7---5--5-----|-----7------7---5--5-----|-----7------7---5--5-----|-----7------7---5--5-----|
G|-----7------7---5--5-----|-----7------7---5--5-----|-----7------7---5--5-----|-----7------7---5--5-----|
D|-------------------------|-------------------------|-------------------------|-------------------------|
A|-------------------------|-------------------------|-------------------------|-------------------------|
E|-------------------------|-------------------------|-------------------------|-------------------------|


E|------------------------------------|---------------------------------------------|
B|------------------------------------|---------------------------------------------|
G|-------------------------------3----|---------------------------------------------|
D|-5------3-----5------5--3-----------|-5------3-----5------5--3--------------------|
A|-----5------------5--------5--------|-----5------------5--------5--3--3--3--1-----|
E|------------------------------------|---------------------------------------------|


E|--------------------------------------|----------------------------------------------|
B|--------------------------------------|----------------------------------------------|
G|---------------------------------3----|-------------------------3--3--3--3--3--3-----|
D|--------3-----5--3-----5--3-----------|-5------3-----5-------------------------------|
A|-5---5--------------3--------5--------|-----5----------------------------------------|
E|--------------------------------------|----------------------------------------------|


E|--------|--------|--------|--------|------------------------------------|---------------------------------------|
B|--------|--------|--------|--------|------------------------------------|---------------------------------------|
G|--------|--------|--------|--------|-------------------------------3----|---------------------------------------|
D|--------|--------|--------|--------|-5------3-----5------5--3-----------|-5------3--------5---5--3--------------|
A|--------|--------|--------|--------|-----5------------5--------5--------|-----5---------------------5---3--1----|
E|--------|--------|--------|--------|------------------------------------|--------------3------------------------|


E|--------------------------------------|-------------------------------------------|
B|--------------------------------------|------------------------------------3------|
G|---------------------------------3----|------------------------3-----3--5-----5---|
D|-5--3-----3-----3------5--3-----------|-5---3--------3------------5---------------|
A|-------5---------------------5--------|--------5----------------------------------|
E|--------------------------------------|-------------------------------------------|


E|-----7------7---5--5-----|-----7------7---5--5-----|-----7------7---5--5-----|-----7------7---5--5-----|
B|-----7------7---5--5-----|-----7------7---5--5-----|-----7------7---5--5-----|-----7------7---5--5-----|
G|-----7------7---5--5-----|-----7------7---5--5-----|-----7------7---5--5-----|-----7------7---5--5-----|
D|-------------------------|-------------------------|-------------------------|-------------------------|
A|-------------------------|-------------------------|-------------------------|-------------------------|
E|-------------------------|-------------------------|-------------------------|-------------------------|


E|-3-----3---3------3--3--3--|-3------|-3-----3---3------3--3--3--|-3-----3---3----------|
B|-3-----3---3------3--3--3--|-3------|-3-----3---3------3--3--3--|-3-----3------3--3----|
G|-3-----3---3------3--3--3--|-3------|-3-----3---3------3--3--3--|-3-----3--------------|
D|-3-----3-------------------|-3------|-3-----3-------------------|----------------------|
A|-3-----3-------------------|-3------|-3-----3-------------------|----------------------|
E|---------------------------|--------|---------------------------|----------------------|


E|-3-----3---3------3--3--3--|-3------|-3-----3---3------3--3--3--|-3-----3---3----------|
B|-3-----3---3------3--3--3--|-3------|-3-----3---3------3--3--3--|-3-----3------3--3----|
G|-3-----3---3------3--3--3--|-3------|-3-----3---3------3--3--3--|-3-----3--------------|
D|-3-----3-------------------|-3------|-3-----3-------------------|----------------------|
A|-3-----3-------------------|-3------|-3-----3-------------------|----------------------|
E|---------------------------|--------|---------------------------|----------------------|


E|------------------------------------|---------------------------------------|------------------------------------|
B|------------------------------------|---------------------------------------|------------------------------------|
G|-------------------------------3----|---------------------------------------|-------------------------------3----|
D|-5------3-----5------5--3-----------|-5------3-----5------5--3--------------|-5------3-----5------5--3-----------|
A|-----5------------5--------5--------|-----5------------5--------5---3--1----|-----5------------5--------5--------|
E|------------------------------------|---------------------------------------|------------------------------------|


E|---------------------------------------------|-----7------7---5--5-----|-----7------7---5--5-----|
B|---------------------------------------------|-----7------7---5--5-----|-----7------7---5--5-----|
G|------------------5--6--5--3--5--3-----------|-----7------7---5--5-----|-----7------7---5--5-----|
D|-5------3-----5---------------------5--3--5--|-------------------------|-------------------------|
A|-----5---------------------------------------|-------------------------|-------------------------|
E|---------------------------------------------|-------------------------|-------------------------|


E|-----7------7---5--5-----|-----7------7---5--5-----|-----7------7---5--5-----|-----7------7---5--5-----|
B|-----7------7---5--5-----|-----7------7---5--5-----|-----7------7---5--5-----|-----7------7---5--5-----|
G|-----7------7---5--5-----|-----7------7---5--5-----|-----7------7---5--5-----|-----7------7---5--5-----|
D|-------------------------|-------------------------|-------------------------|-------------------------|
A|-------------------------|-------------------------|-------------------------|-------------------------|
E|-------------------------|-------------------------|-------------------------|-------------------------|


E|-----7------7---5--5-----|-----7------7---5--5-----|-3------|------------------3-----|
B|-----7------7---5--5-----|-----7------7---5--5-----|-3------|-3------------3---------|
G|-----7------7---5--5-----|-----7------7---5--5-----|-3------|-3--------3-------------|
D|-------------------------|-------------------------|-3------|-3----3-----------------|
A|-------------------------|-------------------------|-3------|-3----------------------|
E|-------------------------|-------------------------|--------|-3----------------------|


E|-3------|
B|--------|
G|--------|
D|--------|
A|--------|
E|--------|





Track 2: Untitled

E|--------|--------|--------|--------|--------|--------|--------|--------|--------|
B|--------|--------|--------|--------|--------|--------|--------|--------|--------|
G|--------|--------|--------|--------|--------|--------|--------|--------|--------|
D|--------|--------|--------|--------|--------|--------|--------|--------|--------|
A|--------|--------|--------|--------|--------|--------|--------|--------|--------|
E|--------|--------|--------|--------|--------|--------|--------|--------|--------|


E|--------|--------|--------|--------|--------|--------|--------|--------|--------|
B|--------|--------|--------|--------|--------|--------|--------|--------|--------|
G|--------|--------|--------|--------|--------|--------|--------|--------|--------|
D|--------|--------|--------|--------|--------|--------|--------|--------|--------|
A|--------|--------|--------|--------|--------|--------|--------|--------|--------|
E|--------|--------|--------|--------|--------|--------|--------|--------|--------|


E|--------|--------|--------|------------------------------------|---------------------------------------|
B|--------|--------|--------|------------------------------------|---------------------------------------|
G|--------|--------|--------|------------------------------------|---------------------------------------|
D|--------|--------|--------|------------------------------------|---------------------------------------|
A|--------|--------|--------|-------------------------------1----|---------------------------3---3--1----|
E|--------|--------|--------|-1--3---1--3---1--3-----1--3--------|-1--3---1--3---1--3-----1--------------|


E|------------------------------------|------------------------------------|--------|
B|------------------------------------|------------------------------------|--------|
G|------------------------------------|------------------------------------|--------|
D|------------------------------------|------------------------------------|--------|
A|-------------------------------1----|---------------1-----3----3--1--1---|--------|
E|-1--3---1--3---1--3-----1--3--------|-1--3---1--3------3-----------------|--------|


E|--------|--------|--------|--------|--------|--------|--------|--------|--------|
B|--------|--------|--------|--------|--------|--------|--------|--------|--------|
G|--------|--------|--------|--------|--------|--------|--------|--------|--------|
D|--------|--------|--------|--------|--------|--------|--------|--------|--------|
A|--------|--------|--------|--------|--------|--------|--------|--------|--------|
E|--------|--------|--------|--------|--------|--------|--------|--------|--------|


E|--------|--------|--------|--------|--------|--------|--------|--------|--------|
B|--------|--------|--------|--------|--------|--------|--------|--------|--------|
G|--------|--------|--------|--------|--------|--------|--------|--------|--------|
D|--------|--------|--------|--------|--------|--------|--------|--------|--------|
A|--------|--------|--------|--------|--------|--------|--------|--------|--------|
E|--------|--------|--------|--------|--------|--------|--------|--------|--------|


E|--------|--------|--------|--------|--------|--------|--------|--------|--------|
B|--------|--------|--------|--------|--------|--------|--------|--------|--------|
G|--------|--------|--------|--------|--------|--------|--------|--------|--------|
D|--------|--------|--------|--------|--------|--------|--------|--------|--------|
A|--------|--------|--------|--------|--------|--------|--------|--------|--------|
E|--------|--------|--------|--------|--------|--------|--------|--------|--------|


E|--------|--------|--------|
B|--------|--------|--------|
G|--------|--------|--------|
D|--------|--------|--------|
A|--------|--------|--------|
E|--------|--------|--------|





Track 3: solo

E|--------|--------|--------|--------|--------|--------|--------|--------|--------|
B|--------|--------|--------|--------|--------|--------|--------|--------|--------|
G|--------|--------|--------|--------|--------|--------|--------|--------|--------|
D|--------|--------|--------|--------|--------|--------|--------|--------|--------|
A|--------|--------|--------|--------|--------|--------|--------|--------|--------|
E|--------|--------|--------|--------|--------|--------|--------|--------|--------|


E|--------|--------|--------|--------|--------|--------|--------|--------|--------|
B|--------|--------|--------|--------|--------|--------|--------|--------|--------|
G|--------|--------|--------|--------|--------|--------|--------|--------|--------|
D|--------|--------|--------|--------|--------|--------|--------|--------|--------|
A|--------|--------|--------|--------|--------|--------|--------|--------|--------|
E|--------|--------|--------|--------|--------|--------|--------|--------|--------|


E|--------|--------|--------|--------|--------|--------|--------|--------|--------|
B|--------|--------|--------|--------|--------|--------|--------|--------|--------|
G|--------|--------|--------|--------|--------|--------|--------|--------|--------|
D|--------|--------|--------|--------|--------|--------|--------|--------|--------|
A|--------|--------|--------|--------|--------|--------|--------|--------|--------|
E|--------|--------|--------|--------|--------|--------|--------|--------|--------|


E|--------|--------|--------|--------|--------|--------|--------|--------|--------|
B|--------|--------|--------|--------|--------|--------|--------|--------|--------|
G|--------|--------|--------|--------|--------|--------|--------|--------|--------|
D|--------|--------|--------|--------|--------|--------|--------|--------|--------|
A|--------|--------|--------|--------|--------|--------|--------|--------|--------|
E|--------|--------|--------|--------|--------|--------|--------|--------|--------|


E|--------|--------|--------|--------|--------|--------|--------|--------|--------|
B|--------|--------|--------|--------|--------|--------|--------|--------|--------|
G|--------|--------|--------|--------|--------|--------|--------|--------|--------|
D|--------|--------|--------|--------|--------|--------|--------|--------|--------|
A|--------|--------|--------|--------|--------|--------|--------|--------|--------|
E|--------|--------|--------|--------|--------|--------|--------|--------|--------|


E|-------------------------------------|-------------------------------------10-------|
B|-----12-13-12-10-------------10-10---|-----12-13-12-10-----------10--12-13----13-12-|
G|-----------------12--12-12-----------|-----------------12--12-----------------------|
D|-------------------------------------|----------------------------------------------|
A|-------------------------------------|----------------------------------------------|
E|-------------------------------------|----------------------------------------------|


E|----------10---------------------------------|-----------------------------|----15-15--15-15--15----15-15--15-15--15-|
B|-10-12-13----13-12-13-12-12-10--10-10--12-10-|-10-10-13-12-10-----10-10----|----13-13--13-13--13----13-13--13-13--13-|
G|---------------------------------------------|----------------12-----------|-----------------------------------------|
D|---------------------------------------------|-----------------------------|-----------------------------------------|
A|---------------------------------------------|-----------------------------|-----------------------------------------|
E|---------------------------------------------|-----------------------------|-----------------------------------------|


E|----15-15--15-15--15-----------17------|------------------------------------|---------15--15-15-15---15--15--15--|
B|----13-13--13-13--13----15-----15------|-----13--15-15-----------13-13-13---|-13---------------------------------|
G|-----------------------------------14--|-14------------14-14-14-------------|------------------------------------|
D|---------------------------------------|------------------------------------|------------------------------------|
A|---------------------------------------|------------------------------------|------------------------------------|
E|---------------------------------------|------------------------------------|------------------------------------|


E|-15-----|-15-----|-15-----|
B|--------|--------|--------|
G|--------|--------|--------|
D|--------|--------|--------|
A|--------|--------|--------|
E|--------|--------|--------|





Track 4: Untitled

G|--------|--------|--------|--------|--------|--------|--------|--------|--------|
D|--------|--------|--------|--------|--------|--------|--------|--------|--------|
A|--------|--------|--------|--------|--------|--------|--------|--------|--------|
E|--------|--------|--------|--------|--------|--------|--------|--------|--------|
B|--------|--------|--------|--------|--------|--------|--------|--------|--------|


G|--------|--------|--------|--------|--------|--------|--------|--------|--------|
D|--------|--------|--------|--------|--------|--------|--------|--------|--------|
A|--------|--------|--------|--------|--------|--------|--------|--------|--------|
E|--------|--------|--------|--------|--------|--------|--------|--------|--------|
B|--------|--------|--------|--------|--------|--------|--------|--------|--------|


G|--------|--------|--------|--------|--------|--------|--------|--------|--------|
D|--------|--------|--------|--------|--------|--------|--------|--------|--------|
A|--------|--------|--------|--------|--------|--------|--------|--------|--------|
E|--------|--------|--------|--------|--------|--------|--------|--------|--------|
B|--------|--------|--------|--------|--------|--------|--------|--------|--------|


G|--------|--------|--------|--------|--------|--------|--------|--------|--------|
D|--------|--------|--------|--------|--------|--------|--------|--------|--------|
A|--------|--------|--------|--------|--------|--------|--------|--------|--------|
E|--------|--------|--------|--------|--------|--------|--------|--------|--------|
B|--------|--------|--------|--------|--------|--------|--------|--------|--------|


G|--------|--------|--------|--------|--------|--------|--------|--------|--------|
D|--------|--------|--------|--------|--------|--------|--------|--------|--------|
A|--------|--------|--------|--------|--------|--------|--------|--------|--------|
E|--------|--------|--------|--------|--------|--------|--------|--------|--------|
B|--------|--------|--------|--------|--------|--------|--------|--------|--------|


G|--------|--------|--------|--------|--------|--------|--------|--------|--------|
D|--------|--------|--------|--------|--------|--------|--------|--------|--------|
A|--------|--------|--------|--------|--------|--------|--------|--------|--------|
E|--------|--------|--------|--------|--------|--------|--------|--------|--------|
B|--------|--------|--------|--------|--------|--------|--------|--------|--------|


G|--------|--------|
D|--------|--------|
A|--------|--------|
E|--------|--------|
B|--------|--------|