Site menu:

    

Browse: 0-9 A B C D E F G H I J K L N O P Q R S T U V W X Y Z

311 - lucky:



Title: Lucky
Artist: 
Album: Grassroots
Author: Chad Sexton


Track 1: Dist. Guitar

E|---------------------|---------------------|---------------------|-------------------------------------|
B|---------------------|---------------------|---------------------|-------------------------------------|
G|------4---------4----|------4---------4----|------4---------4----|-----6------4------------------------|
D|------2---------2----|------2---------2----|------2---------2----|-----4------4----6--------4------6---|
A|------2---------2----|------2---------2----|------2---------2----|-----4------2----6--------4------6---|
E|------0---------0----|------0---------0----|------0---------0----|-----------------4--------2------4---|


E|-----------------------------------------------|-----------------------------------------------|
B|-----------------------------------------------|-----------------------------------------------|
G|-----------------------------------------------|-----------------------------------------------|
D|-4--4--4---------------------------------------|-4--4--4---------------------------------------|
A|-4--4--4------4-----6--7--6--7--6--4--4-----4--|-4--4--4------4-----6--7--6--7--6--4--4-----4--|
E|-2--2--2------------------------------------2--|-2--2--2------------------------------------2--|


E|-----------------------------------------------|-----------------------------------------------|
B|-----------------------------------------------|-----------------------------------------------|
G|-----------------------------------------------|-----------------------------------------------|
D|-4--4--4---------------------------------------|-4--4--4---------------------------------------|
A|-4--4--4------4-----6--7--6--7--6--4--4-----4--|-4--4--4------4-----6--7--6--7--6--4--4-----4--|
E|-2--2--2------------------------------------2--|-2--2--2------------------------------------2--|


E|-----------------------------------------------|-----------------------------------------------|
B|-----------------------------------------------|-----------------------------------------------|
G|-----------------------------------------------|-----------------------------------------------|
D|-4--4--4---------------------------------------|-4--4--4---------------------------------------|
A|-4--4--4------4-----6--7--6--7--6--4--4-----4--|-4--4--4------4-----6--7--6--7--6--4--4-----4--|
E|-2--2--2------------------------------------2--|-2--2--2------------------------------------2--|


E|-----------------------------------------------|---------------------------------------------|
B|-----------------------------------------------|---------------------------------------------|
G|-----------------------------------------------|---------------------------------------------|
D|-4--4--4---------------------------------------|-4--4--4-------------------------------------|
A|-4--4--4------4-----6--7--6--7--6--4--4-----4--|-4--4--4------4-----6--7--6--7--6--4--4------|
E|-2--2--2------------------------------------2--|-2--2--2-------------------------------------|


E|---------------------------------------------|---------------------------------------------|
B|---------------------------------------------|---------------------------------------------|
G|---------------------------------------------|---------------------------------------------|
D|-----------4--4-----4------------------------|-----------4--4-----4------------------------|
A|----4--4---5--5-----5-----2--2---2--2-----4--|----4--4---5--5-----5-----2--2---2--2-----4--|
E|----5--5------------------3--3---3--3-----5--|----5--5------------------3--3---3--3-----5--|


E|---------------------------------------------|---------------------------------------------|
B|---------------------------------------------|---------------------------------------------|
G|---------------------------------------------|---------------------------------------------|
D|-----------4--4-----4------------------------|-----------4--4-----4------------------------|
A|----4--4---5--5-----5-----2--2---2--2-----4--|----4--4---5--5-----5-----2--2---2--2-----4--|
E|----5--5------------------3--3---3--3-----5--|----5--5------------------3--3---3--3-----5--|


E|-------------------------------------------------|-------------------------------------------------|
B|-------------------------------------------------|-------------------------------------------------|
G|-------------------------------------------------|-------------------------------------------------|
D|----------------4-----4--------------------------|----------------4-----4--------------------------|
A|----4-----4-----5-----5-----2-----2-----2-----2--|----4-----4-----5-----5-----2-----2-----2-----2--|
E|----5-----5-----------------3-----3-----3-----3--|----5-----5-----------------3-----3-----3-----3--|


E|-------------------------------------------------|-------------------------------------------------|
B|-------------------------------------------------|-------------------------------------------------|
G|-------------------------------------------------|-------------------------------------------------|
D|----------------4-----4--------------------------|----------------4-----4--------------------------|
A|----4-----4-----5-----5-----2-----2-----2-----2--|----4-----4-----5-----5-----2-----2-----2-----2--|
E|----5-----5-----------------3-----3-----3-----3--|----5-----5-----------------3-----3-----3-----3--|


E|-------------------------------------------------|-------------------------------------------------|
B|-------------------------------------------------|-------------------------------------------------|
G|-------------------------------------------------|-------------------------------------------------|
D|-2--2-----2-----2--2--2-----2-----2--2--2-----2--|-2--2-----2-----2--2--2-----------2-----2--2--4--|
A|-2--2-----2-----2--2--2-----2-----2--2--2-----2--|-2--2-----2-----2--2--2-----5-----0-----0--0--2--|
E|-0--0-----0-----0--0--0-----0-----0--0--0-----0--|-0--0-----0-----0--0--0-----3--------------------|


E|-------------------------------------------------|-------------------------------------------------|
B|-------------------------------------------------|-------------------------------------------------|
G|-------------------------------------------------|-------------------------------------------------|
D|-2--2-----2-----2--2--2-----2-----2--------------|-2--2-----2-----2--2--2-----------2-----2--2--4--|
A|-2--2-----2-----2--2--2-----2-----2--4--5--4--5--|-2--2-----2-----2--2--2-----5-----0-----0--0--2--|
E|-0--0-----0-----0--0--0-----0-----0--2--3--2--3--|-0--0-----0-----0--0--0-----3--------------------|


E|-------------------------------------------------|-------------------------------------------------|
B|-------------------------------------------------|-------------------------------------------------|
G|-------------------------------------------------|-------------------------------------------------|
D|-2--2-----2-----2--2--2-----2-----2--2--2-----2--|-2--2-----2-----2--2--2-----------2-----2--2--4--|
A|-2--2-----2-----2--2--2-----2-----2--2--2-----2--|-2--2-----2-----2--2--2-----5-----0-----0--0--2--|
E|-0--0-----0-----0--0--0-----0-----0--0--0-----0--|-0--0-----0-----0--0--0-----3--------------------|


E|-------------------------------------------------|-------------------------------------------------|
B|-------------------------------------------------|-------------------------------------------------|
G|-------------------------------------------------|-------------------------------------------------|
D|-2--2-----2-----2--2--2-----2-----2--------------|-2--2-----2-----2--2--2-----------2-----2--2--4--|
A|-2--2-----2-----2--2--2-----2-----2--4--5--4--5--|-2--2-----2-----2--2--2-----5-----0-----0--0--2--|
E|-0--0-----0-----0--0--0-----0-----0--2--3--2--3--|-0--0-----0-----0--0--0-----3--------------------|


E|-------------------------------------------|-----------------------------------------------|
B|------------9------11-9-----9-----11-9-----|-------7------7--------9--7-----10----10-9-----|
G|-----9------9------9--------9-----9--------|-------8------8--------8--------8-----8--------|
D|-------------------------------------------|----9------------9-----------------------------|
A|-9-------9------9--------9-----7--------7--|--------------------------------------------7--|
E|-9-----------------------------------------|-7---------7--------7--------7-----7--------7--|


E|-------------------------------------------|-----------------------------------------------|
B|-----11-----11-9-----11-9-----9-----9------|-------7------7--------9--7-----7-----10-9-----|
G|-----9------9--------9--------9-----9------|-------8------8--8-----8--------8-----8--------|
D|-------------------------------------------|----9---------------9--------------------------|
A|-9-------9--------9--------9-----9-----7---|--------------------------------------------7--|
E|-9-----------------------------------------|-7---------7-----------------7-----7--------7--|


E|-------------------------------------------|-----------------------------------------------|
B|------------9-----11-9-----9-----11-9------|-------7------7--------9--7-----10----10-9-----|
G|-----9------9-----9--------9-----9---------|-------8------8--------8--------8-----8--------|
D|-------------------------------------------|----9------------9-----------------------------|
A|-9-------9-----9--------9-----7--------7---|--------------------------------------------7--|
E|-9-----------------------------------------|-7---------7--------7--------7-----7--------7--|


E|-------------------------------------------|-----------------------------------------------|
B|-----11-----11-9-----11-9-----9-----9------|-------7------7--------9--7-----7-----10-9-----|
G|-----9------9--------9--------9-----9------|-------8------8--8-----8--------8-----8--------|
D|-------------------------------------------|----9---------------9--------------------------|
A|-9-------9--------9--------9-----9-----7---|--------------------------------------------7--|
E|-9-----------------------------------------|-7---------7-----------------7-----7--------7--|


E|-----------------------------------------------|-----------------------------------------------|
B|-----------------------------------------------|-----------------------------------------------|
G|-----------------------------------------------|-----------------------------------------------|
D|-4--4--4---------------------------------------|-4--4--4---------------------------------------|
A|-4--4--4------4-----6--7--6--7--6--4--4-----4--|-4--4--4------4-----6--7--6--7--6--4--4-----4--|
E|-2--2--2------------------------------------2--|-2--2--2------------------------------------2--|


E|-----------------------------------------------|-----------------------------------------------|
B|-----------------------------------------------|-----------------------------------------------|
G|-----------------------------------------------|-----------------------------------------------|
D|-4--4--4---------------------------------------|-4--4--4---------------------------------------|
A|-4--4--4------4-----6--7--6--7--6--4--4-----4--|-4--4--4------4-----6--7--6--7--6--4--4-----4--|
E|-2--2--2------------------------------------2--|-2--2--2------------------------------------2--|


E|-----------------------------------------------|-----------------------------------------------|
B|-----------------------------------------------|-----------------------------------------------|
G|-----------------------------------------------|-----------------------------------------------|
D|-4--4--4---------------------------------------|-4--4--4---------------------------------------|
A|-4--4--4------4-----6--7--6--7--6--4--4-----4--|-4--4--4------4-----6--7--6--7--6--4--4-----4--|
E|-2--2--2------------------------------------2--|-2--2--2------------------------------------2--|


E|-----------------------------------------------|---------------------------------------------|
B|-----------------------------------------------|---------------------------------------------|
G|-----------------------------------------------|---------------------------------------------|
D|-4--4--4---------------------------------------|-4--4--4-------------------------------------|
A|-4--4--4------4-----6--7--6--7--6--4--4-----4--|-4--4--4------4-----6--7--6--7--6--4--4------|
E|-2--2--2------------------------------------2--|-2--2--2-------------------------------------|


E|---------------------------------------------|---------------------------------------------|
B|---------------------------------------------|---------------------------------------------|
G|---------------------------------------------|---------------------------------------------|
D|-----------4--4-----4------------------------|-----------4--4-----4------------------------|
A|----4--4---5--5-----5-----2--2---2--2-----4--|----4--4---5--5-----5-----2--2---2--2-----4--|
E|----5--5------------------3--3---3--3-----5--|----5--5------------------3--3---3--3-----5--|


E|-------------------------------------------------|-------------------------------------------------|
B|-------------------------------------------------|-------------------------------------------------|
G|-------------------------------------------------|-------------------------------------------------|
D|----------------4-----4--------------------------|----------------4-----4--------------------------|
A|----4-----4-----5-----5-----2-----2-----2-----2--|----4-----4-----5-----5-----2-----2-----2-----2--|
E|----5-----5-----------------3-----3-----3-----3--|----5-----5-----------------3-----3-----3-----3--|


E|-------------------------------------------------|-------------------------------------------------|
B|-------------------------------------------------|-------------------------------------------------|
G|-------------------------------------------------|-------------------------------------------------|
D|-2--2-----2-----2--2--2-----2-----2--2--2-----2--|-2--2-----2-----2--2--2-----------2-----2--2--4--|
A|-2--2-----2-----2--2--2-----2-----2--2--2-----2--|-2--2-----2-----2--2--2-----5-----0-----0--0--2--|
E|-0--0-----0-----0--0--0-----0-----0--0--0-----0--|-0--0-----0-----0--0--0-----3--------------------|


E|-------------------------------------------------|-------------------------------------------------|
B|-------------------------------------------------|-------------------------------------------------|
G|-------------------------------------------------|-------------------------------------------------|
D|-2--2-----2-----2--2--2-----2-----2--------------|-2--2-----2-----2--2--2-----------2-----2--2--4--|
A|-2--2-----2-----2--2--2-----2-----2--4--5--4--5--|-2--2-----2-----2--2--2-----5-----0-----0--0--2--|
E|-0--0-----0-----0--0--0-----0-----0--2--3--2--3--|-0--0-----0-----0--0--0-----3--------------------|


E|-------------------------------------------------|-------------------------------------------------|
B|-------------------------------------------------|-------------------------------------------------|
G|-------------------------------------------------|-------------------------------------------------|
D|-2--2-----2-----2--2--2-----2-----2--2--2-----2--|-2--2-----2-----2--2--2-----------2-----2--2--4--|
A|-2--2-----2-----2--2--2-----2-----2--2--2-----2--|-2--2-----2-----2--2--2-----5-----0-----0--0--2--|
E|-0--0-----0-----0--0--0-----0-----0--0--0-----0--|-0--0-----0-----0--0--0-----3--------------------|


E|-------------------------------------------------|-------------------------------------------------|
B|-------------------------------------------------|-------------------------------------------------|
G|-------------------------------------------------|-------------------------------------------------|
D|-2--2-----2-----2--2--2-----2-----2--------------|-2--2-----2-----2--2--2-----------2-----2--2--4--|
A|-2--2-----2-----2--2--2-----2-----2--4--5--4--5--|-2--2-----2-----2--2--2-----5-----0-----0--0--2--|
E|-0--0-----0-----0--0--0-----0-----0--2--3--2--3--|-0--0-----0-----0--0--0-----3--------------------|


E|-------------------------------------------|-----------------------------------------------|
B|------------9------11-9-----9-----11-9-----|-------7------7--------9--7-----10----10-9-----|
G|-----9------9------9--------9-----9--------|-------8------8--------8--------8-----8--------|
D|-------------------------------------------|----9------------9-----------------------------|
A|-9-------9------9--------9-----7--------7--|--------------------------------------------7--|
E|-9-----------------------------------------|-7---------7--------7--------7-----7--------7--|


E|-------------------------------------------|-----------------------------------------------|
B|-----11-----11-9-----11-9-----9-----9------|-------7------7--------9--7-----7-----10-9-----|
G|-----9------9--------9--------9-----9------|-------8------8--8-----8--------8-----8--------|
D|-------------------------------------------|----9---------------9--------------------------|
A|-9-------9--------9--------9-----9-----7---|--------------------------------------------7--|
E|-9-----------------------------------------|-7---------7-----------------7-----7--------7--|


E|-------------------------------------------|-----------------------------------------------|
B|------------9-----11-9-----9-----11-9------|-------7------7--------9--7-----10----10-9-----|
G|-----9------9-----9--------9-----9---------|-------8------8--------8--------8-----8--------|
D|-------------------------------------------|----9------------9-----------------------------|
A|-9-------9-----9--------9-----7--------7---|--------------------------------------------7--|
E|-9-----------------------------------------|-7---------7--------7--------7-----7--------7--|


E|-------------------------------------------|---------------------------------------------|
B|-----11-----11-9-----11-9-----9-----9------|--------7-----7------9--7-----------10-9-----|
G|-----9------9--------9--------9-----9------|--------8-----8------8-----8--------8-----11-|
D|-------------------------------------------|-----9------------------------------------11-|
A|-9-------9--------9--------9-----9-----7---|------------------9-----------9--9-----------|
E|-9-----------------------------------------|-7---------7---------------------------------|





Track 2: Untitled

G|--------|--------|--------|--------|--------|--------|--------|--------|--------|
D|--------|--------|--------|--------|--------|--------|--------|--------|--------|
A|--------|--------|--------|--------|--------|--------|--------|--------|--------|
E|--------|--------|--------|--------|--------|--------|--------|--------|--------|


G|--------|--------|--------|--------|--------|--------|--------|--------|--------|
D|--------|--------|--------|--------|--------|--------|--------|--------|--------|
A|--------|--------|--------|--------|--------|--------|--------|--------|--------|
E|--------|--------|--------|--------|--------|--------|--------|--------|--------|


G|--------|--------|--------|--------|--------|--------|--------|--------|--------|
D|--------|--------|--------|--------|--------|--------|--------|--------|--------|
A|--------|--------|--------|--------|--------|--------|--------|--------|--------|
E|--------|--------|--------|--------|--------|--------|--------|--------|--------|


G|--------|--------|--------|--------|--------|--------|--------|--------|--------|
D|--------|--------|--------|--------|--------|--------|--------|--------|--------|
A|--------|--------|--------|--------|--------|--------|--------|--------|--------|
E|--------|--------|--------|--------|--------|--------|--------|--------|--------|


G|--------|--------|--------|--------|--------|--------|--------|--------|--------|
D|--------|--------|--------|--------|--------|--------|--------|--------|--------|
A|--------|--------|--------|--------|--------|--------|--------|--------|--------|
E|--------|--------|--------|--------|--------|--------|--------|--------|--------|


G|--------|--------|--------|--------|--------|--------|--------|--------|--------|
D|--------|--------|--------|--------|--------|--------|--------|--------|--------|
A|--------|--------|--------|--------|--------|--------|--------|--------|--------|
E|--------|--------|--------|--------|--------|--------|--------|--------|--------|


G|--------|--------|--------|--------|--------|--------|--------|--------|--------|
D|--------|--------|--------|--------|--------|--------|--------|--------|--------|
A|--------|--------|--------|--------|--------|--------|--------|--------|--------|
E|--------|--------|--------|--------|--------|--------|--------|--------|--------|


G|--------|
D|--------|
A|--------|
E|--------|