Site menu:

    

Browse: 0-9 A B C D E F G H I J K L N O P Q R S T U V W X Y Z

311 - grassroots:



Title: Grassroots
Artist: 
Album: Grassroots
Author: Nicholas Hexum and Chad Sexton


Track 1: Dist. Guitar

E|--------|--------|------------------------------------|---------------------------------------------|
B|--------|--------|------------------------------------|---------------------------------------------|
G|--------|--------|------------------------------------|-3----5--------------------------------------|
D|--------|--------|------------------------------------|-3----5--------------------------------------|
A|--------|--------|--------------------------0---------|-1----3-----3-----3--------------0-----------|
E|--------|--------|-----------1-----1--0--1-----1------|------------1-----1-----1--0--1-----1--0--1--|


E|-------------------------------------------|-------------------------------------|
B|-------------------------------------------|-------------------------------------|
G|-3----5------------------------------------|-3----5--------------5---4---3---2---|
D|-3----5------------------------------------|-3----5--------------5---4---3---2---|
A|-1----3--------------------------0---------|-1----3-----3-----3--3---2---1---0---|
E|------------1-----1-----1--0--1-----1------|------------1-----1------------------|


E|-------------------------------------------|---------------------------------------------|
B|-------------------------------------------|---------------------------------------------|
G|-3----5------------------------------------|-3----5--------------------------------------|
D|-3----5------------------------------------|-3----5--------------------------------------|
A|-1----3-----3-----3--------------0---------|-1----3-----3-----3-----3--------0-----------|
E|------------1-----1-----1--0--1-----1------|------------1-----1-----1--0--1-----1--0--1--|


E|-------------------------------------------|-------------------------------------|
B|-------------------------------------------|-------------------------------------|
G|-3----5------------------------------------|-3----5--------------5---4---3---2---|
D|-3----5------------------------------------|-3----5--------------5---4---3---2---|
A|-1----3-----3-----3--------------0---------|-1----3-----3-----3--3---2---1---0---|
E|------------1-----1-----1--0--1-----1------|------------1-----1------------------|


E|-------------------------------------------|---------------------------------------------|
B|-------------------------------------------|---------------------------------------------|
G|-3----5------------------------------------|-3----5--------------------------------------|
D|-3----5------------------------------------|-3----5--------------------------------------|
A|-1----3-----3-----3--------------0---------|-1----3-----3-----3-----3--------0-----------|
E|------------1-----1-----1--0--1-----1------|------------1-----1-----1--0--1-----1--0--1--|


E|-------------------------------------------|-------------------------------------|
B|-------------------------------------------|-------------------------------------|
G|-3----5------------------------------------|-3----5--------------5---4---3---2---|
D|-3----5------------------------------------|-3----5--------------5---4---3---2---|
A|-1----3-----3-----3--------------0---------|-1----3-----3-----3--3---2---1---0---|
E|------------1-----1-----1--0--1-----1------|------------1-----1------------------|


E|--------|--------|--------|--------|--------|--------|--------|--------|--------|
B|--------|--------|--------|--------|--------|--------|--------|--------|--------|
G|--------|--------|--------|--------|--------|--------|--------|--------|--------|
D|--------|--------|--------|--------|--------|--------|--------|--------|--------|
A|--------|--------|--------|--------|--------|--------|--------|--------|--------|
E|--------|--------|--------|--------|--------|--------|--------|--------|--------|


E|-------------------------------------------|---------------------------------------------|
B|-------------------------------------------|---------------------------------------------|
G|-3----5------------------------------------|-3----5--------------------------------------|
D|-3----5------------------------------------|-3----5--------------------------------------|
A|-1----3-----3-----3--------------0---------|-1----3-----3-----3-----3--------0-----------|
E|------------1-----1-----1--0--1-----1------|------------1-----1-----1--0--1-----1--0--1--|


E|-------------------------------------------|----------------------------------|--------|
B|-------------------------------------------|----------------------------------|--------|
G|-3----5------------------------------------|-3----5--------------5------------|--------|
D|-3----5------------------------------------|-3----5--------------5------------|--------|
A|-1----3-----3-----3--------------0---------|-1----3-----3-----3--3------------|--------|
E|------------1-----1-----1--0--1-----1------|------------1-----1---------------|--------|


E|--------|--------|--------|--------|--------|--------|--------|--------|--------|
B|--------|--------|--------|--------|--------|--------|--------|--------|--------|
G|--------|--------|--------|--------|--------|--------|--------|--------|--------|
D|--------|--------|--------|--------|--------|--------|--------|--------|--------|
A|--------|--------|--------|--------|--------|--------|--------|--------|--------|
E|--------|--------|--------|--------|--------|--------|--------|--------|--------|


E|--------|--------|--------|--------|--------|---------------------------|--------|
B|--------|--------|--------|--------|--------|---------------------------|--------|
G|--------|--------|--------|--------|--------|---------------------------|--------|
D|--------|--------|--------|--------|--------|---------------------------|--------|
A|--------|--------|--------|--------|--------|---------------------------|--------|
E|--------|--------|--------|--------|--------|-------3---2---3---0---1---|--------|


E|--------|--------|--------|--------|--------|--------|--------|--------|--------|
B|--------|--------|--------|--------|--------|--------|--------|--------|--------|
G|--------|--------|--------|--------|--------|--------|--------|--------|--------|
D|--------|--------|--------|--------|--------|--------|--------|--------|--------|
A|--------|--------|--------|--------|--------|--------|--------|--------|--------|
E|--------|--------|--------|--------|--------|--------|--------|--------|--------|


E|--------|--------|--------|--------|--------|--------|--------|--------|--------|
B|--------|--------|--------|--------|--------|--------|--------|--------|--------|
G|--------|--------|--------|--------|--------|--------|--------|--------|--------|
D|--------|--------|--------|--------|--------|--------|--------|--------|--------|
A|--------|--------|--------|--------|--------|--------|--------|--------|--------|
E|--------|--------|--------|--------|--------|--------|--------|--------|--------|


E|--------|--------|-------------------------------------------|---------------------------------------------|
B|--------|--------|-------------------------------------------|---------------------------------------------|
G|--------|--------|-3----5------------------------------------|-3----5--------------------------------------|
D|--------|--------|-3----5------------------------------------|-3----5--------------------------------------|
A|--------|--------|-1----3-----3-----3--------------0---------|-1----3-----3-----3-----3--------0-----------|
E|--------|--------|------------1-----1-----1--0--1-----1------|------------1-----1-----1--0--1-----1--0--1--|


E|-------------------------------------------|----------------------------------|--------|
B|-------------------------------------------|----------------------------------|--------|
G|-3----5------------------------------------|-3----5--------------5------------|--------|
D|-3----5------------------------------------|-3----5--------------5------------|--------|
A|-1----3-----3-----3--------------0---------|-1----3-----3-----3--3------------|--------|
E|------------1-----1-----1--0--1-----1------|------------1-----1---------------|--------|


E|--------|--------|--------|--------|--------|--------|--------|--------|--------|
B|--------|--------|--------|--------|--------|--------|--------|--------|--------|
G|--------|--------|--------|--------|--------|--------|--------|--------|--------|
D|--------|--------|--------|--------|--------|--------|--------|--------|--------|
A|--------|--------|--------|--------|--------|--------|--------|--------|--------|
E|--------|--------|--------|--------|--------|--------|--------|--------|--------|


E|--------|--------|--------|--------|--------|--------|--------|--------|--------|
B|--------|--------|--------|--------|--------|--------|--------|--------|--------|
G|--------|--------|--------|--------|--------|--------|--------|--------|--------|
D|--------|--------|--------|--------|--------|--------|--------|--------|--------|
A|--------|--------|--------|--------|--------|--------|--------|--------|--------|
E|--------|--------|--------|--------|--------|--------|--------|--------|--------|


E|--------|--------|--------|--------|--------|
B|--------|--------|--------|--------|--------|
G|--------|--------|--------|--------|--------|
D|--------|--------|--------|--------|--------|
A|--------|--------|--------|--------|--------|
E|--------|--------|--------|--------|--------|





Track 2: Clean Elec.

E|--------|--------|--------|--------|--------|--------|--------|--------|--------|
B|--------|--------|--------|--------|--------|--------|--------|--------|--------|
G|--------|--------|--------|--------|--------|--------|--------|--------|--------|
D|--------|--------|--------|--------|--------|--------|--------|--------|--------|
A|--------|--------|--------|--------|--------|--------|--------|--------|--------|
E|--------|--------|--------|--------|--------|--------|--------|--------|--------|


E|--------|--------|--------|--------|--------|-------------3-----------------------------|
B|--------|--------|--------|--------|--------|-------3-----3-----------------------------|
G|--------|--------|--------|--------|--------|-------3-----3----------7------8--7--------|
D|--------|--------|--------|--------|--------|-------5----------------8------8--8--------|
A|--------|--------|--------|--------|--------|----5-------------------8------------------|
E|--------|--------|--------|--------|--------|-3--------3-------5--6------6-----------2--|


E|-------------3-----------------------------|-------------3---------------------------|
B|-------3-----3-----------------------------|-------3-----3---------------------------|
G|-------3-----3----------7------8--7--------|-------3-----3----------7------8--7------|
D|-------5----------------8------8--8--------|-------5----------------8------8--8------|
A|----5-------------------8------------------|----5-------------------8----------------|
E|-3--------3-------5--6------6-----------2--|-3--------3-------5--6------6------------|


E|------------------------------|-------------3-----------------------------|-------------3-----------------------------|
B|-4---4---4---4---5----5-------|-------3-----3-----------------------------|-------3-----3-----------------------------|
G|-5---5---5---5---5----5-------|-------3-----3----------7------8--7--------|-------3-----3----------7------8--7--------|
D|-6---6---6---6---5----5-------|-------5----------------8------8--8--------|-------5----------------8------8--8--------|
A|-6---6---6---6---3----3-------|----5-------------------8------------------|----5-------------------8------------------|
E|-4---4---4---4-------------2--|-3--------3-------5--6------6-----------2--|-3--------3-------5--6------6-----------2--|


E|-------------3-----------------------------|-----------------------|-4---------------------|
B|-------3-----3-----------------------------|-4---4---4---4---5-----|-4---4---4---4---5-----|
G|-------3-----3----------7------8--7--------|-5---5---5---5---5-----|-5---5---5---5---5-----|
D|-------5----------------8------8--8--------|-6---6---6---6---5-----|-6---6---6---6---5-----|
A|----5-------------------8------------------|-6---6---6---6---3-----|-----6---6---6---3-----|
E|-3--------3-------5--6------6-----------2--|-4---4---4---4---------|---------4---4---------|


E|--------|--------|--------|--------|-5----3-------3-----3--3--3--3--3--3---|-5---5--5-----5--5--5-----5--5--5--5--5--5---|
B|--------|--------|--------|--------|-3----3-------3-----3--3--3--3--3--3---|-3---3--3-----3--3--3-----3--3--3--3--3--3---|
G|--------|--------|--------|--------|-3----3-------3-----3--3--3--3--3--3---|-3---3--3-----3--3--3-----3--3--3--3--3--3---|
D|--------|--------|--------|--------|-5------------5-----5--5--5--5--5--5---|-5---5-----------------------------5---------|
A|--------|--------|--------|--------|-4-------------------------------------|---------------------------------------------|
E|--------|--------|--------|--------|-3-------------------------------------|---------------------------------------------|


E|-5------3-----3--3--3-----3--------3--3------|-6------3-----3-----3-----3--------3--3--------|
B|-3---3--3-----3--3--3-----3-----3--3--3------|-3------3-----3--3--3-----3-----3--3--3--------|
G|-3---3--3-----3--3--3-----3-----3--3--3--3---|-3---3--3-----5--3--3-----3-----3--3--3--3--3--|
D|-5---5-----------5--------------5--5-----5---|-5---5-----------5--------------5--------5--5--|
A|---------------------------------------------|-----------------------------------------------|
E|---------------------------------------------|-----------------------------------------------|


E|--------1--------1--1-----1--------1--1------|--------1--1--1-----1-----1-----1--1--1--1--1--|
B|-----1--1-----1--1--1-----1-----1--1--1------|--------1--1--1-----1-----1-----1--1--1--1--1--|
G|-----1--1-----1--1--------------1------------|-----1--------------------------------------1--|
D|-3---3--------1--1--------------3--------3---|-3---3-----------3-----------------------------|
A|-3---3-----------------------------------3---|-1---1-----------1-----------------------------|
E|-1-------------------------------------------|-----------------------------------------------|


E|-3------3-----------3-----3-----3--3--3--------|-5-------6----6-----|-----5--5--5--5-----------5--5--5--5---4---|
B|-3------3-----3-----3-----3-----3--3--3--------|-3-------4----4-----|-----5--5--5--5--5-----5--5--5--5--5---4---|
G|-3------3-----3--3--3--3--3--3--3--3--3--3--3--|-3-------4----4-----|-----5--5--5--5--5-----5--5--5--5--5---4---|
D|-5---5--------5--5-----5-----5-----5-----3--3--|-5-------6----6-----|-----------------------3-------------------|
A|-5---5--------5--5-----5-----5-----------5--5--|-3-------4----4-----|-5------------------5----------------------|
E|-----------------------------------------------|--------------------|-------------------------------------------|


E|-----3--3--3--3--3--------3--------3-------|-----5--5--5--5--5--5-----5-----5--5---4---|
B|-----5--5--5--5--5-----5--5--5--5--5-------|-----5--5--5--5--5--5--5--5--5--5--5---4---|
G|-----4--4--4--4--4-----4--4--4--4--4-------|-----5--5--5--5--5--5--5--5--5--5--5---4---|
D|-----------5--5--5-----5--5--5--5--5-------|--------------------4--3-----4-------------|
A|-3------------------3------------------4---|-5-----------------------------------------|
E|-------------------------------------------|-------------------------------------------|


E|-----3--3--3-------------------------------|-----5--5--5--5-----------5--5--5--5---4---|
B|-----5--5--5--5--5--5----------------------|-----5--5--5--5--5-----5--5--5--5--5---4---|
G|-----4--4--4--4--4--4----------------------|-----5--5--5--5--5-----5--5--5--5--5---4---|
D|--------------5--5--5----------------------|-----------------------3-------------------|
A|-3-----------------------------------------|-5------------------5----------------------|
E|-----------------------3---2---3---0---2---|-------------------------------------------|


E|-----3--3--3--3--3--------3--------3-------|-----5--5--5--5--5--5-----5-----5--5---4---|
B|-----5--5--5--5--5-----5--5--5--5--5-------|-----5--5--5--5--5--5--5--5--5--5--5---4---|
G|-----4--4--4--4--4-----4--4--4--4--4-------|-----5--5--5--5--5--5--5--5--5--5--5---4---|
D|-----------5--5--5-----5--5--5--5--5-------|--------------------4--3-----4-------------|
A|-3------------------3------------------4---|-5-----------------------------------------|
E|-------------------------------------------|-------------------------------------------|


E|---------------------3------------|-------------------------------------------|---------------------------------------------|
B|-5---5--5--5---5--5--5------------|-------------------------------------------|---------------------------------------------|
G|-5---5--5--5---5--5--4------------|-3----5------------------------------------|-3----5--------------------------------------|
D|-5---5--5--5---5--5--5------------|-3----5------------------------------------|-3----5--------------------------------------|
A|-3---3--3--3---3--3---------------|-1----3-----3-----3--------------0---------|-1----3-----3-----3-----3--------0-----------|
E|----------------------------------|------------1-----1-----1--0--1-----1------|------------1-----1-----1--0--1-----1--0--1--|


E|-------------------------------------------|-------------------------------------|
B|-------------------------------------------|-------------------------------------|
G|-3----5------------------------------------|-3----5--------------5---4---3---2---|
D|-3----5------------------------------------|-3----5--------------5---4---3---2---|
A|-1----3-----3-----3--------------0---------|-1----3-----3-----3--3---2---1---0---|
E|------------1-----1-----1--0--1-----1------|------------1-----1------------------|


E|-------------------------------------------|---------------------------------------------|
B|-------------------------------------------|---------------------------------------------|
G|-3----5------------------------------------|-3----5--------------------------------------|
D|-3----5------------------------------------|-3----5--------------------------------------|
A|-1----3-----3-----3--------------0---------|-1----3-----3-----3-----3--------0-----------|
E|------------1-----1-----1--0--1-----1------|------------1-----1-----1--0--1-----1--0--1--|


E|-------------------------------------------|-------------------------------------|
B|-------------------------------------------|-------------------------------------|
G|-3----5------------------------------------|-3----5--------------5---4---3---2---|
D|-3----5------------------------------------|-3----5--------------5---4---3---2---|
A|-1----3-----3-----3--------------0---------|-1----3-----3-----3--3---2---1---0---|
E|------------1-----1-----1--0--1-----1------|------------1-----1------------------|


E|---------------------------------------------|---------------------------------------------|
B|---------------------------------------------|---------------------------------------------|
G|-3----5--------------------------------------|-3----5--------------------------------------|
D|-3----5--------------------------------------|-3----5--------------------------------------|
A|-1----3-----3--3--3--3--3--3--3--3--3--3-----|-1----3-----3--3--3--3--3--3--3--3--3--3-----|
E|------------1--1--1--1--1--1--1--1--1--1--0--|------------1--1--1--1--1--1--1--1--1--1--0--|


E|---------------------------------------------|-------------------------------------|
B|---------------------------------------------|-------------------------------------|
G|-3----5--------------------------------------|-3----5--------------5---4---3-------|
D|-3----5--------------------------------------|-3----5--------------5---4---3---2---|
A|-1----3-----3--3--3--3--3--3--3--3--3--3-----|-1----3-----3-----3--3---2---1---0---|
E|------------1--1--1--1--1--1--1--1--1--1--0--|------------1-----1------------------|


E|-------------3-----------------------------|-------------3-----------------------------|
B|-------3-----3-----------------------------|-------3-----3-----------------------------|
G|-------3-----3----------7------8--7--------|-------3-----3----------7------8--7--------|
D|-------5----------------8------8--8--------|-------5----------------8------8--8--------|
A|----5-------------------8------------------|----5-------------------8------------------|
E|-3--------3-------5--6------6-----------2--|-3--------3-------5--6------6-----------2--|


E|-------------3---------------------------|------------------------------|-------------3-----------------------------|
B|-------3-----3---------------------------|-4---4---4---4---5----5-------|-------3-----3-----------------------------|
G|-------3-----3----------7------8--7------|-5---5---5---5---5----5-------|-------3-----3----------7------8--7--------|
D|-------5----------------8------8--8------|-6---6---6---6---5----5-------|-------5----------------8------8--8--------|
A|----5-------------------8----------------|-6---6---6---6---3----3-------|----5-------------------8------------------|
E|-3--------3-------5--6------6------------|-4---4---4---4-------------2--|-3--------3-------5--6------6-----------2--|


E|-------------3-----------------------------|-------------3-----------------------------|
B|-------3-----3-----------------------------|-------3-----3-----------------------------|
G|-------3-----3----------7------8--7--------|-------3-----3----------7------8--7--------|
D|-------5----------------8------8--8--------|-------5----------------8------8--8--------|
A|----5-------------------8------------------|----5-------------------8------------------|
E|-3--------3-------5--6------6-----------2--|-3--------3-------5--6------6-----------2--|


E|-----------------------|-4---------------------|--------|--------|--------|--------|
B|-4---4---4---4---5-----|-4---4---4---4---5-----|--------|--------|--------|--------|
G|-5---5---5---5---5-----|-5---5---5---5---5-----|--------|--------|--------|--------|
D|-6---6---6---6---5-----|-6---6---6---6---5-----|--------|--------|--------|--------|
A|-6---6---6---6---3-----|-----6---6---6---3-----|--------|--------|--------|--------|
E|-4---4---4---4---------|---------4---4---------|--------|--------|--------|--------|


E|-5----3-------3-----3--3--3--3--3--3---|-5---5--5-----5--5--5-----5--5--5--5--5--5---|
B|-3----3-------3-----3--3--3--3--3--3---|-3---3--3-----3--3--3-----3--3--3--3--3--3---|
G|-3----3-------3-----3--3--3--3--3--3---|-3---3--3-----3--3--3-----3--3--3--3--3--3---|
D|-5------------5-----5--5--5--5--5--5---|-5---5-----------------------------5---------|
A|-4-------------------------------------|---------------------------------------------|
E|-3-------------------------------------|---------------------------------------------|


E|-5------3-----3--3--3-----3--------3--3------|-6------3-----3-----3-----3--------3--3--------|
B|-3---3--3-----3--3--3-----3-----3--3--3------|-3------3-----3--3--3-----3-----3--3--3--------|
G|-3---3--3-----3--3--3-----3-----3--3--3--3---|-3---3--3-----5--3--3-----3-----3--3--3--3--3--|
D|-5---5-----------5--------------5--5-----5---|-5---5-----------5--------------5--------5--5--|
A|---------------------------------------------|-----------------------------------------------|
E|---------------------------------------------|-----------------------------------------------|


E|--------1--------1--1-----1--------1--1------|--------1--1--1-----1-----1-----1--1--1--1--1--|
B|-----1--1-----1--1--1-----1-----1--1--1------|--------1--1--1-----1-----1-----1--1--1--1--1--|
G|-----1--1-----1--1--------------1------------|-----1--------------------------------------1--|
D|-3---3--------1--1--------------3--------3---|-3---3-----------3-----------------------------|
A|-3---3-----------------------------------3---|-1---1-----------1-----------------------------|
E|-1-------------------------------------------|-----------------------------------------------|


E|-3------3-----------3-----3-----3--3--3--------|-5-------6----6-----|-----5--5--5--5-----------5--5--5--5---4---|
B|-3------3-----3-----3-----3-----3--3--3--------|-3-------4----4-----|-----5--5--5--5--5-----5--5--5--5--5---4---|
G|-3------3-----3--3--3--3--3--3--3--3--3--3--3--|-3-------4----4-----|-----5--5--5--5--5-----5--5--5--5--5---4---|
D|-5---5--------5--5-----5-----5-----5-----3--3--|-5-------6----6-----|-----------------------3-------------------|
A|-5---5--------5--5-----5-----5-----------5--5--|-3-------4----4-----|-5------------------5----------------------|
E|-----------------------------------------------|--------------------|-------------------------------------------|


E|-----3--3--3--3--3--------3--------3-------|-----5--5--5--5--5--5-----5-----5--5---4---|
B|-----5--5--5--5--5-----5--5--5--5--5-------|-----5--5--5--5--5--5--5--5--5--5--5---4---|
G|-----4--4--4--4--4-----4--4--4--4--4-------|-----5--5--5--5--5--5--5--5--5--5--5---4---|
D|-----------5--5--5-----5--5--5--5--5-------|--------------------4--3-----4-------------|
A|-3------------------3------------------4---|-5-----------------------------------------|
E|-------------------------------------------|-------------------------------------------|


E|-----3--3--3-------------------------------|-----5--5--5--5-----------5--5--5--5---4---|
B|-----5--5--5--5--5--5----------------------|-----5--5--5--5--5-----5--5--5--5--5---4---|
G|-----4--4--4--4--4--4----------------------|-----5--5--5--5--5-----5--5--5--5--5---4---|
D|--------------5--5--5----------------------|-----------------------3-------------------|
A|-3-----------------------------------------|-5------------------5----------------------|
E|-----------------------3---2---3---0---2---|-------------------------------------------|


E|-----3--3--3--3--3--------3--------3-------|-----5--5--5--5--5--5-----5-----5--5---4---|
B|-----5--5--5--5--5-----5--5--5--5--5-------|-----5--5--5--5--5--5--5--5--5--5--5---4---|
G|-----4--4--4--4--4-----4--4--4--4--4-------|-----5--5--5--5--5--5--5--5--5--5--5---4---|
D|-----------5--5--5-----5--5--5--5--5-------|--------------------4--3-----4-------------|
A|-3------------------3------------------4---|-5-----------------------------------------|
E|-------------------------------------------|-------------------------------------------|


E|-----3--3--3-------------------------------|-----5--5--5--5-----------5--5--5--5---4---|
B|-----5--5--5--5--5--5----------------------|-----5--5--5--5--5-----5--5--5--5--5---4---|
G|-----4--4--4--4--4--4----------------------|-----5--5--5--5--5-----5--5--5--5--5---4---|
D|--------------5--5--5----------------------|-----------------------3-------------------|
A|-3-----------------------------------------|-5------------------5----------------------|
E|-----------------------3---2---3---0---2---|-------------------------------------------|


E|-----3--3--3--3--3--------3--------3-------|-----5--5--5--5--5--5-----5-----5--5---4---|
B|-----5--5--5--5--5-----5--5--5--5--5-------|-----5--5--5--5--5--5--5--5--5--5--5---4---|
G|-----4--4--4--4--4-----4--4--4--4--4-------|-----5--5--5--5--5--5--5--5--5--5--5---4---|
D|-----------5--5--5-----5--5--5--5--5-------|--------------------4--3-----4-------------|
A|-3------------------3------------------4---|-5-----------------------------------------|
E|-------------------------------------------|-------------------------------------------|


E|-----3--3--3-------------------------------|-----5--5--5--5-----------5--5--5--5---4---|
B|-----5--5--5--5--5--5----------------------|-----5--5--5--5--5-----5--5--5--5--5---4---|
G|-----4--4--4--4--4--4----------------------|-----5--5--5--5--5-----5--5--5--5--5---4---|
D|--------------5--5--5----------------------|-----------------------3-------------------|
A|-3-----------------------------------------|-5------------------5----------------------|
E|-----------------------3---2---3---0---2---|-------------------------------------------|


E|--------|--------|--------|
B|--------|--------|--------|
G|--------|--------|--------|
D|--------|--------|--------|
A|--------|--------|--------|
E|--------|--------|--------|





Track 3: Dist. Guitar 2

E|--------|--------|--------|--------|--------|--------|--------|--------|--------|
B|--------|--------|--------|--------|--------|--------|--------|--------|--------|
G|--------|--------|--------|--------|--------|--------|--------|--------|--------|
D|--------|--------|--------|--------|--------|--------|--------|--------|--------|
A|--------|--------|--------|--------|--------|--------|--------|--------|--------|
E|--------|--------|--------|--------|--------|--------|--------|--------|--------|


E|--------|--------|--------|--------|--------|--------|--------|--------|--------|
B|--------|--------|--------|--------|--------|--------|--------|--------|--------|
G|--------|--------|--------|--------|--------|--------|--------|--------|--------|
D|--------|--------|--------|--------|--------|--------|--------|--------|--------|
A|--------|--------|--------|--------|--------|--------|--------|--------|--------|
E|--------|--------|--------|--------|--------|--------|--------|--------|--------|


E|--------|--------|--------|--------|--------|--------|--------|--------|--------|
B|--------|--------|--------|--------|--------|--------|--------|--------|--------|
G|--------|--------|--------|--------|--------|--------|--------|--------|--------|
D|--------|--------|--------|--------|--------|--------|--------|--------|--------|
A|--------|--------|--------|--------|--------|--------|--------|--------|--------|
E|--------|--------|--------|--------|--------|--------|--------|--------|--------|


E|--------|--------|--------|--------|--------|--------|--------|--------|--------|
B|--------|--------|--------|--------|--------|--------|--------|--------|--------|
G|--------|--------|--------|--------|--------|--------|--------|--------|--------|
D|--------|--------|--------|--------|--------|--------|--------|--------|--------|
A|--------|--------|--------|--------|--------|--------|--------|--------|--------|
E|--------|--------|--------|--------|--------|--------|--------|--------|--------|


E|--------|--------|--------|--------|--------|--------|--------|--------|--------|
B|--------|--------|--------|--------|--------|--------|--------|--------|--------|
G|--------|--------|--------|--------|--------|--------|--------|--------|--------|
D|--------|--------|--------|--------|--------|--------|--------|--------|--------|
A|--------|--------|--------|--------|--------|--------|--------|--------|--------|
E|--------|--------|--------|--------|--------|--------|--------|--------|--------|


E|--------|--------|--------|--------|--------|--------|--------|--------|--------|
B|--------|--------|--------|--------|--------|--------|--------|--------|--------|
G|--------|--------|--------|--------|--------|--------|--------|--------|--------|
D|--------|--------|--------|--------|--------|--------|--------|--------|--------|
A|--------|--------|--------|--------|--------|--------|--------|--------|--------|
E|--------|--------|--------|--------|--------|--------|--------|--------|--------|


E|--------|--------|--------|--------|--------|--------|--------|--------|--------|
B|--------|--------|--------|--------|--------|--------|--------|--------|--------|
G|--------|--------|--------|--------|--------|--------|--------|--------|--------|
D|--------|--------|--------|--------|--------|--------|--------|--------|--------|
A|--------|--------|--------|--------|--------|--------|--------|--------|--------|
E|--------|--------|--------|--------|--------|--------|--------|--------|--------|


E|--------|--------|--------|--------|--------|--------|--------|--------|--------|
B|--------|--------|--------|--------|--------|--------|--------|--------|--------|
G|--------|--------|--------|--------|--------|--------|--------|--------|--------|
D|--------|--------|--------|--------|--------|--------|--------|--------|--------|
A|--------|--------|--------|--------|--------|--------|--------|--------|--------|
E|--------|--------|--------|--------|--------|--------|--------|--------|--------|


E|--------|--------|--------|--------|--------|--------|--------|--------|----15--15-15-14---------------------------|
B|--------|--------|--------|--------|--------|--------|--------|--------|------------------15-17--15-15-15-12----13-|
G|--------|--------|--------|--------|--------|--------|--------|--------|-------------------------------------------|
D|--------|--------|--------|--------|--------|--------|--------|--------|-------------------------------------------|
A|--------|--------|--------|--------|--------|--------|--------|--------|-------------------------------------------|
E|--------|--------|--------|--------|--------|--------|--------|--------|-------------------------------------------|


E|-------------------------------|-----------------------------------------------------|
B|-12----------------------------|-----------------------------------------------------|
G|------12-12-12----12-12---12---|-----------14-14--------14-14--------14-14--------14-|
D|-------------------------------|----141617-------141617-------141617-------141617----|
A|-------------------------------|-----------------------------------------------------|
E|-------------------------------|-----------------------------------------------------|


E|-------------------------17--------|-20-19--17----19-17----------------------------|
B|-------------17--19--20------------|-----------20-------20-19-17----19-19-19-19-17-|
G|-16--17--19-------------------19---|-----------------------------------------------|
D|-----------------------------------|-----------------------------------------------|
A|-----------------------------------|-----------------------------------------------|
E|-----------------------------------|-----------------------------------------------|


E|---------------------------------------17-20-19-17--|-2017----20172017----20172017----20172017----20172017----20--|
B|-20-19-17----17----------------1719-20--------------|-----2017--------2017--------2017--------2017--------2017----|
G|----------19----19-17----161719---------------------|-------------------------------------------------------------|
D|----------------------------------------------------|-------------------------------------------------------------|
A|----------------------------------------------------|-------------------------------------------------------------|
E|----------------------------------------------------|-------------------------------------------------------------|


E|-20--20-17-20-20--20-20---17---|-17----17--------|--------|-------------|-------------|
B|-------------------------------|-----------------|--------|-------------|-------------|
G|-------------------------------|-----------------|--------|-------------|-0-----------|
D|-------------------------------|-----------------|-0------|-1-----3-----|-3-----------|
A|-------------------------------|-----------------|-0------|-2-----4-----|-4-----------|
E|-------------------------------|-----------------|-1------|-2-----4-----|-4-----------|





Track 4: Untitled

G|--------|--------|--------|--------|--------|--------|--------|--------|--------|
D|--------|--------|--------|--------|--------|--------|--------|--------|--------|
A|--------|--------|--------|--------|--------|--------|--------|--------|--------|
E|--------|--------|--------|--------|--------|--------|--------|--------|--------|


G|--------|--------|--------|--------|--------|--------|--------|--------|--------|
D|--------|--------|--------|--------|--------|--------|--------|--------|--------|
A|--------|--------|--------|--------|--------|--------|--------|--------|--------|
E|--------|--------|--------|--------|--------|--------|--------|--------|--------|


G|--------|--------|--------|--------|--------|--------|--------|--------|--------|
D|--------|--------|--------|--------|--------|--------|--------|--------|--------|
A|--------|--------|--------|--------|--------|--------|--------|--------|--------|
E|--------|--------|--------|--------|--------|--------|--------|--------|--------|


G|--------|--------|--------|--------|--------|--------|--------|--------|--------|
D|--------|--------|--------|--------|--------|--------|--------|--------|--------|
A|--------|--------|--------|--------|--------|--------|--------|--------|--------|
E|--------|--------|--------|--------|--------|--------|--------|--------|--------|


G|--------|--------|--------|--------|--------|--------|--------|--------|--------|
D|--------|--------|--------|--------|--------|--------|--------|--------|--------|
A|--------|--------|--------|--------|--------|--------|--------|--------|--------|
E|--------|--------|--------|--------|--------|--------|--------|--------|--------|


G|--------|--------|--------|--------|--------|--------|--------|--------|--------|
D|--------|--------|--------|--------|--------|--------|--------|--------|--------|
A|--------|--------|--------|--------|--------|--------|--------|--------|--------|
E|--------|--------|--------|--------|--------|--------|--------|--------|--------|


G|--------|--------|--------|--------|--------|--------|--------|--------|--------|
D|--------|--------|--------|--------|--------|--------|--------|--------|--------|
A|--------|--------|--------|--------|--------|--------|--------|--------|--------|
E|--------|--------|--------|--------|--------|--------|--------|--------|--------|


G|--------|--------|--------|--------|--------|--------|--------|--------|--------|
D|--------|--------|--------|--------|--------|--------|--------|--------|--------|
A|--------|--------|--------|--------|--------|--------|--------|--------|--------|
E|--------|--------|--------|--------|--------|--------|--------|--------|--------|


G|--------|--------|--------|--------|--------|--------|--------|--------|--------|
D|--------|--------|--------|--------|--------|--------|--------|--------|--------|
A|--------|--------|--------|--------|--------|--------|--------|--------|--------|
E|--------|--------|--------|--------|--------|--------|--------|--------|--------|


G|--------|--------|--------|--------|--------|--------|--------|--------|--------|
D|--------|--------|--------|--------|--------|--------|--------|--------|--------|
A|--------|--------|--------|--------|--------|--------|--------|--------|--------|
E|--------|--------|--------|--------|--------|--------|--------|--------|--------|


G|--------|--------|
D|--------|--------|
A|--------|--------|
E|--------|--------|