Site menu:

    

Browse: 0-9 A B C D E F G H I J K L N O P Q R S T U V W X Y Z

311 - fuck the bullshit:



Title: Fuck the Bullshit
Artist: 
Album: Music
Author: 


Track 1: Dist. Guitar 1

E|--------|--------|--------|--------|------------------------------|---------------------------------|
B|--------|--------|--------|--------|------------------------------|---------------------------------|
G|--------|--------|--------|--------|------------------------------|---------------------------------|
D|-2------|-2------|-2------|-2------|----------0-------0------4----|---------------------------------|
A|-2------|-2------|-2------|-2------|-4----4---0---4---0---0--2----|-2---2---6-------7---6---6--4----|
E|-0------|-0------|-0------|-0------|-2----2-------2---------------|-0---0---4---0---5---4---4--2----|


E|------------------------------|---------------------------------|------------------------------|
B|------------------------------|---------------------------------|------------------------------|
G|------------------------------|---------------------------------|------------------------------|
D|----------0-------0------4----|---------------------------------|----------0-------0------4----|
A|-4----4---0---4---0---0--2----|-2---2---6-------7---6---6--4----|-4----4---0---4---0---0--2----|
E|-2----2-------2---------------|-0---0---4---0---5---4---4--2----|-2----2-------2---------------|


E|---------------------------------|------------------------------|--------------------|
B|---------------------------------|------------------------------|--------------------|
G|---------------------------------|------------------------------|--------------------|
D|---------------------------------|----------0-------------------|--------------------|
A|-2---2---6-------7---6---6--4----|-4----4---0---4---6---6---6---|-2------------------|
E|-0---0---4---0---5---4---4--2----|-2----2-------2---4---4---4---|-0------------------|


E|--------|--------|--------|--------|--------|--------|--------|--------|--------|
B|--------|--------|--------|--------|--------|--------|--------|--------|--------|
G|--------|--------|--------|--------|--------|--------|--------|--------|--------|
D|--------|--------|--------|--------|--------|--------|--------|--------|--------|
A|--------|--------|--------|--------|--------|--------|--------|--------|--------|
E|--------|--------|--------|--------|--------|--------|--------|--------|--------|


E|--------|--------|--------|------------------------------|---------------------------------|
B|--------|--------|--------|------------------------------|---------------------------------|
G|--------|--------|--------|------------------------------|---------------------------------|
D|--------|--------|--------|----------0-------0------4----|---------------------------------|
A|--------|--------|--------|-4----4---0---4---0---0--2----|-2---2---6-------7---6---6--4----|
E|--------|--------|--------|-2----2-------2---------------|-0---0---4---0---5---4---4--2----|


E|------------------------------|---------------------------------|------------------------------|
B|------------------------------|---------------------------------|------------------------------|
G|------------------------------|---------------------------------|------------------------------|
D|----------0-------0------4----|---------------------------------|----------0-------0------4----|
A|-4----4---0---4---0---0--2----|-2---2---6-------7---6---6--4----|-4----4---0---4---0---0--2----|
E|-2----2-------2---------------|-0---0---4---0---5---4---4--2----|-2----2-------2---------------|


E|---------------------------------|------------------------------|--------------------|
B|---------------------------------|------------------------------|--------------------|
G|---------------------------------|------------------------------|--------------------|
D|---------------------------------|----------0-------------------|--------------------|
A|-2---2---6-------7---6---6--4----|-4----4---0---4---6---6---6---|-2------------------|
E|-0---0---4---0---5---4---4--2----|-2----2-------2---4---4---4---|-0------------------|


E|-17-14-----------------------------------|-17-14-----------------------------------|
B|-----------17-14-------------------------|-----------17-14-------------------------|
G|---------------------16--16-16-16-14-----|---------------------16--16-16-16-14-----|
D|-----------------------------------------|-----------------------------------------|
A|-----------------------------------------|-----------------------------------------|
E|-----------------------------------------|-----------------------------------------|


E|-17-14-----------------------------------|-17-14-----------------------------------|
B|-----------17-14-------------------------|-----------17-14-------------------------|
G|---------------------16--16-16-16-14-----|---------------------16--16-16-16-14-----|
D|-----------------------------------------|-----------------------------------------|
A|-----------------------------------------|-----------------------------------------|
E|-----------------------------------------|-----------------------------------------|


E|-----------------------------------------|-----------------------------------------|
B|-----------------------------------------|-----------------------------------------|
G|-------14--14-----16--14----14-------14--|-------14--14-----16--14----14-------14--|
D|-14-16-------------------------14-16-----|-14-16-------------------------14-16-----|
A|-----------------------------------------|-----------------------------------------|
E|-----------------------------------------|-----------------------------------------|


E|-----------------------------------------|-----------------------------------------|
B|-----------------------------------------|-----------------------------------------|
G|-------14--14-----16--14----14-------14--|-------14--14-----16--14----14-------14--|
D|-14-16-------------------------14-16-----|-14-16-------------------------14-16-----|
A|-----------------------------------------|-----------------------------------------|
E|-----------------------------------------|-----------------------------------------|


E|---------------------------------------------|---------------------------------------------|
B|---------------------------------------------|---------------------------------------------|
G|-16-14----14-----16-14----14-14-16-14----14--|-16-14----14-----16-14----14-14-16-14----14--|
D|-------16--------------16-------------16-----|-------16--------------16-------------16-----|
A|---------------------------------------------|---------------------------------------------|
E|---------------------------------------------|---------------------------------------------|


E|---------------------------------------------|--------|------------------------------|
B|---------------------------------------------|--------|------------------------------|
G|-16-14----14-----16-14----14-14-16-14----14--|--------|------------------------------|
D|-------16--------------16-------------16-----|--------|----------0-------0------4----|
A|---------------------------------------------|--------|-4----4---0---4---0---0--2----|
E|---------------------------------------------|--------|-2----2-------2---------------|


E|---------------------------------|------------------------------|---------------------------------|
B|---------------------------------|------------------------------|---------------------------------|
G|---------------------------------|------------------------------|---------------------------------|
D|---------------------------------|----------0-------0------4----|---------------------------------|
A|-2---2---6-------7---6---6--4----|-4----4---0---4---0---0--2----|-2---2---6-------7---6---6--4----|
E|-0---0---4---0---5---4---4--2----|-2----2-------2---------------|-0---0---4---0---5---4---4--2----|


E|------------------------------|---------------------------------|------------------------------|
B|------------------------------|---------------------------------|------------------------------|
G|------------------------------|---------------------------------|------------------------------|
D|----------0-------0------4----|---------------------------------|----------0-------------------|
A|-4----4---0---4---0---0--2----|-2---2---6-------7---6---6--4----|-4----4---0---4---6---6---6---|
E|-2----2-------2---------------|-0---0---4---0---5---4---4--2----|-2----2-------2---4---4---4---|


E|--------------------|----------------------------|-------------------------------|
B|--------------------|----------------------------|-------------------------------|
G|--------------------|----------------------------|-------------------------------|
D|--------------------|----------------------------|-------------------------------|
A|-2------------------|-4--------4------4------4---|-4-----------4------4------4---|
E|-0------------------|-2--------2------2------2---|-2-----------2------2------2---|


E|-----------------------------|--------|--------|--------|--------|--------|-----------------------------|
B|-----------------------------|--------|--------|--------|--------|--------|-----------------------------|
G|-----------------------------|--------|--------|--------|--------|--------|-----------------------------|
D|-----------------------------|--------|--------|--------|--------|--------|-----------------------------|
A|-4-----------6---6---6---2---|--------|--------|--------|--------|--------|-2----4----2----4----2---4---|
E|-2-----------4---4---4---0---|--------|--------|--------|--------|--------|-0----2----0----2----0---2---|


E|-----------------------------|-----------------------------|-----------------------------|
B|-----------------------------|-----------------------------|-----------------------------|
G|-----------------------------|-----------------------------|-----------------------------|
D|-----------------------------|-----------------------------|-----------------------------|
A|-2----4----2----4----2---4---|-2----4----2----4----2---4---|-2----4----2----4----2---4---|
E|-0----2----0----2----0---2---|-0----2----0----2----0---2---|-0----2----0----2----0---2---|


E|-----------------------------|-----------------------------|-----------------------------|
B|-----------------------------|-----------------------------|-----------------------------|
G|-----------------------------|-----------------------------|-----------------------------|
D|-----------------------------|-----------------------------|-----------------------------|
A|-2----4----2----4----2---4---|-2----4----2----4----2---4---|-2----4----2----4----2---4---|
E|-0----2----0----2----0---2---|-0----2----0----2----0---2---|-0----2----0----2----0---2---|


E|-----------------------------|---------------------------------|---------------------------------|
B|-----------------------------|---------------------------------|---------------------------------|
G|-----------------------------|---------------------------------|---------------------------------|
D|-----------------------------|-2---------------2---------------|-2---------------2---------------|
A|-2----4----2----4----2---4---|-2---2---2---2---2---2---2---2---|-2---2---2---2---2---2---2---2---|
E|-0----2----0----2----0---2---|-0---0---0---0---0---0---0---0---|-0---0---0---0---0---0---0---0---|


E|---------------------------------|---------------------------------|---------------------------------|
B|---------------------------------|---------------------------------|---------------------------------|
G|---------------------------------|---------------------------------|---------------------------------|
D|-2---------------2---------------|-2---------------2---------------|-4---------------4---------------|
A|-2---2---2---2---2---2---2---2---|-2---2---2---2---2---2---2---2---|-4---4---4---4---4---4---4---4---|
E|-0---0---0---0---0---0---0---0---|-0---0---0---0---0---0---0---0---|-2---2---2---2---2---2---2---2---|


E|---------------------------------|---------------------------------|---------------------------------|
B|---------------------------------|---------------------------------|---------------------------------|
G|---------------------------------|---------------------------------|---------------------------------|
D|-4---------------4---------------|-4---------------4---------------|-4---------------4---------------|
A|-4---4---4---4---4---4---4---4---|-4---4---4---4---4---4---4---4---|-4---4---4---4---4---4---4---4---|
E|-2---2---2---2---2---2---2---2---|-2---2---2---2---2---2---2---2---|-2---2---2---2---2---2---2---2---|


E|---------------------------------------|---------------------------------------|
B|---------------------------------------|---------------------------------------|
G|---------------------------------------|---------------------------------------|
D|-----16-----14-----16-14-----------16--|-----16-----14-----16-14-----------16--|
A|----------------------------14---------|----------------------------14---------|
E|---------------------------------------|---------------------------------------|


E|---------------------------------------|-------------|-----------------|--------|
B|---------------------------------------|-14----14----|-----------------|--------|
G|---------------------------------------|-16----16----|-3-----6-----8---|-8------|
D|-----16-----14-----16-14-----------16--|-------------|-4-----7-----9---|-9------|
A|----------------------------14---------|-------------|-4-----7-----9---|-9------|
E|---------------------------------------|-------------|-2-----5-----7---|-7------|


E|-----------------|--------|-----------------|--------|-----------------|--------|
B|-----------------|--------|-----------------|--------|-----------------|--------|
G|-3-----6-----8---|-8------|-3-----6-----8---|-8------|-3-----6-----8---|-8------|
D|-4-----7-----9---|-9------|-4-----7-----9---|-9------|-4-----7-----9---|-9------|
A|-4-----7-----9---|-9------|-4-----7-----9---|-9------|-4-----7-----9---|-9------|
E|-2-----5-----7---|-7------|-2-----5-----7---|-7------|-2-----5-----7---|-7------|


E|--------|--------|--------|--------|------------------------------|---------------------------------|
B|--------|--------|--------|--------|------------------------------|---------------------------------|
G|--------|--------|--------|--------|------------------------------|---------------------------------|
D|--------|--------|--------|--------|----------0-------0------4----|---------------------------------|
A|--------|--------|--------|--------|-4----4---0---4---0---0--2----|-2---2---6-------7---6---6--4----|
E|--------|--------|--------|--------|-2----2-------2---------------|-0---0---4---0---5---4---4--2----|


E|------------------------------|---------------------------------|------------------------------|
B|------------------------------|---------------------------------|------------------------------|
G|------------------------------|---------------------------------|------------------------------|
D|----------0-------0------4----|---------------------------------|----------0-------0------4----|
A|-4----4---0---4---0---0--2----|-2---2---6-------7---6---6--4----|-4----4---0---4---0---0--2----|
E|-2----2-------2---------------|-0---0---4---0---5---4---4--2----|-2----2-------2---------------|


E|---------------------------------|------------------------|--------------------|
B|---------------------------------|------------------------|--------------------|
G|---------------------------------|------------------------|--------------------|
D|---------------------------------|----------0-------0-----|--------------------|
A|-2---2---6-------7---6---6--4----|-4----4---0---4---0-----|-2------------------|
E|-0---0---4---0---5---4---4--2----|-2----2-------2---------|-0------------------|


E|--------|--------|--------|-----------------|
B|--------|--------|--------|-----------------|
G|--------|--------|--------|-------3---------|
D|--------|--------|--------|-------4---------|
A|-2------|-2------|-2------|-2-----4---------|
E|-0------|-0------|-0------|-0-----2---------|





Track 2: Guitar w/Light Distortion

E|--------|--------|--------|--------|--------|--------|--------|--------|--------|
B|--------|--------|--------|--------|--------|--------|--------|--------|--------|
G|--------|--------|--------|--------|--------|--------|--------|--------|--------|
D|--------|--------|--------|--------|--------|--------|--------|--------|--------|
A|--------|--------|--------|--------|--------|--------|--------|--------|--------|
E|--------|--------|--------|--------|--------|--------|--------|--------|--------|


E|--------|--------|--------|-17-14-----------------------------------|-17-14-----------------------------------|
B|--------|--------|--------|-----------17-14-------------------------|-----------17-14-------------------------|
G|--------|--------|--------|---------------------16--16-16-16-14-----|---------------------16--16-16-16-14-----|
D|--------|--------|--------|-----------------------------------------|-----------------------------------------|
A|--------|--------|--------|-----------------------------------------|-----------------------------------------|
E|--------|--------|--------|-----------------------------------------|-----------------------------------------|


E|-17-14-----------------------------------|-17-14-----------------------------------|
B|-----------17-14-------------------------|-----------17-14-------------------------|
G|---------------------16--16-16-16-14-----|---------------------16--16-16-16-14-----|
D|-----------------------------------------|-----------------------------------------|
A|-----------------------------------------|-----------------------------------------|
E|-----------------------------------------|-----------------------------------------|


E|-----------------------------------------|-----------------------------------------|
B|-----------------------------------------|-----------------------------------------|
G|-------14--14-----16--14----14-------14--|-------14--14-----16--14----14-------14--|
D|-14-16-------------------------14-16-----|-14-16-------------------------14-16-----|
A|-----------------------------------------|-----------------------------------------|
E|-----------------------------------------|-----------------------------------------|


E|-----------------------------------------|-----------------------------------------|
B|-----------------------------------------|-----------------------------------------|
G|-------14--14-----16--14----14-------14--|-------14--14-----16--14----14-------14--|
D|-14-16-------------------------14-16-----|-14-16-------------------------14-16-----|
A|-----------------------------------------|-----------------------------------------|
E|-----------------------------------------|-----------------------------------------|


E|---------------------------------------------|---------------------------------------------|
B|---------------------------------------------|---------------------------------------------|
G|-16-14----14-----16-14----14-14-16-14----14--|-16-14----14-----16-14----14-14-16-14----14--|
D|-------16--------------16-------------16-----|-------16--------------16-------------16-----|
A|---------------------------------------------|---------------------------------------------|
E|---------------------------------------------|---------------------------------------------|


E|---------------------------------------------|--------|--------|--------|--------|
B|---------------------------------------------|--------|--------|--------|--------|
G|-16-14----14-----16-14----14-14-16-14----14--|--------|--------|--------|--------|
D|-------16--------------16-------------16-----|--------|--------|--------|--------|
A|---------------------------------------------|--------|--------|--------|--------|
E|---------------------------------------------|--------|--------|--------|--------|


E|--------|--------|--------|--------|--------|--------|--------|--------|--------|
B|--------|--------|--------|--------|--------|--------|--------|--------|--------|
G|--------|--------|--------|--------|--------|--------|--------|--------|--------|
D|--------|--------|--------|--------|--------|--------|--------|--------|--------|
A|--------|--------|--------|--------|--------|--------|--------|--------|--------|
E|--------|--------|--------|--------|--------|--------|--------|--------|--------|


E|--------|--------|--------|--------|--------|--------|--------|--------|--------|
B|--------|--------|--------|--------|--------|--------|--------|--------|--------|
G|--------|--------|--------|--------|--------|--------|--------|--------|--------|
D|--------|--------|--------|--------|--------|--------|--------|--------|--------|
A|--------|--------|--------|--------|--------|--------|--------|--------|--------|
E|--------|--------|--------|--------|--------|--------|--------|--------|--------|


E|--------|--------|--------|--------|--------|--------|--------|--------|--------|
B|--------|--------|--------|--------|--------|--------|--------|--------|--------|
G|--------|--------|--------|--------|--------|--------|--------|--------|--------|
D|--------|--------|--------|--------|--------|--------|--------|--------|--------|
A|--------|--------|--------|--------|--------|--------|--------|--------|--------|
E|--------|--------|--------|--------|--------|--------|--------|--------|--------|


E|--------|--------|--------|--------|--------|--------|--------|--------|--------|
B|--------|--------|--------|--------|--------|--------|--------|--------|--------|
G|--------|--------|--------|--------|--------|--------|--------|--------|--------|
D|--------|--------|--------|--------|--------|--------|--------|--------|--------|
A|--------|--------|--------|--------|--------|--------|--------|--------|--------|
E|--------|--------|--------|--------|--------|--------|--------|--------|--------|


E|--------|--------|--------|--------|--------|--------|--------|--------|--------|
B|--------|--------|--------|--------|--------|--------|--------|--------|--------|
G|--------|--------|--------|--------|--------|--------|--------|--------|--------|
D|--------|--------|--------|--------|--------|--------|--------|--------|--------|
A|--------|--------|--------|--------|--------|--------|--------|--------|--------|
E|--------|--------|--------|--------|--------|--------|--------|--------|--------|


E|--------|--------|--------|--------|--------|--------|--------|--------|--------|
B|--------|--------|--------|--------|--------|--------|--------|--------|--------|
G|--------|--------|--------|--------|--------|--------|--------|--------|--------|
D|--------|--------|--------|--------|--------|--------|--------|--------|--------|
A|--------|--------|--------|--------|--------|--------|--------|--------|--------|
E|--------|--------|--------|--------|--------|--------|--------|--------|--------|


E|--------|--------|--------|--------|--------|--------|--------|---------------------------------------------|
B|--------|--------|--------|--------|--------|--------|--------|---------------------------------------------|
G|--------|--------|--------|--------|--------|--------|--------|-16-14----14-----16-14----14-14-16-14----14--|
D|--------|--------|--------|--------|--------|--------|--------|-------16--------------16-------------16-----|
A|--------|--------|--------|--------|--------|--------|--------|---------------------------------------------|
E|--------|--------|--------|--------|--------|--------|--------|---------------------------------------------|


E|---------------------------------------------|---------------------------------------------|
B|---------------------------------------------|---------------------------------------------|
G|-16-14----14-----16-14----14-14-16-14----14--|-16-14----14-----16-14----14-14-16-14----14--|
D|-------16--------------16-------------16-----|-------16--------------16-------------16-----|
A|---------------------------------------------|---------------------------------------------|
E|---------------------------------------------|---------------------------------------------|


E|--------|--------|--------|--------|--------|--------|--------|--------|--------|
B|--------|--------|--------|--------|--------|--------|--------|--------|--------|
G|-16-----|--------|--------|--------|--------|--------|--------|--------|--------|
D|-16-----|--------|--------|--------|--------|--------|--------|--------|--------|
A|--------|--------|--------|--------|--------|--------|--------|--------|--------|
E|--------|--------|--------|--------|--------|--------|--------|--------|--------|


E|--------|--------|--------|--------|
B|--------|--------|--------|--------|
G|--------|--------|--------|--------|
D|--------|--------|--------|--------|
A|--------|--------|--------|--------|
E|--------|--------|--------|--------|





Track 3: Palm Muted Guitar

E|--------|--------|--------|--------|--------|--------|--------|--------|--------|
B|--------|--------|--------|--------|--------|--------|--------|--------|--------|
G|--------|--------|--------|--------|--------|--------|--------|--------|--------|
D|--------|--------|--------|--------|--------|--------|--------|--------|--------|
A|--------|--------|--------|--------|--------|--------|--------|--------|--------|
E|--------|--------|--------|--------|--------|--------|--------|--------|--------|


E|--------|--------|--------|--------|--------|--------|--------|--------|--------|
B|--------|--------|--------|--------|--------|--------|--------|--------|--------|
G|--------|--------|--------|--------|--------|--------|--------|--------|--------|
D|--------|--------|--------|--------|--------|--------|--------|--------|--------|
A|--------|--------|--------|--------|--------|--------|--------|--------|--------|
E|--------|--------|--------|--------|--------|--------|--------|--------|--------|


E|--------|--------|--------|--------|--------|--------|--------|--------|--------|
B|--------|--------|--------|--------|--------|--------|--------|--------|--------|
G|--------|--------|--------|--------|--------|--------|--------|--------|--------|
D|--------|--------|--------|--------|--------|--------|--------|--------|--------|
A|--------|--------|--------|--------|--------|--------|--------|--------|--------|
E|--------|--------|--------|--------|--------|--------|--------|--------|--------|


E|--------|--------|--------|--------|--------|--------|--------|--------|--------|
B|--------|--------|--------|--------|--------|--------|--------|--------|--------|
G|--------|--------|--------|--------|--------|--------|--------|--------|--------|
D|--------|--------|--------|--------|--------|--------|--------|--------|--------|
A|--------|--------|--------|--------|--------|--------|--------|--------|--------|
E|--------|--------|--------|--------|--------|--------|--------|--------|--------|


E|--------|--------|--------|--------|--------|--------|--------|--------|--------|
B|--------|--------|--------|--------|--------|--------|--------|--------|--------|
G|--------|--------|--------|--------|--------|--------|--------|--------|--------|
D|--------|--------|--------|--------|--------|--------|--------|--------|--------|
A|--------|--------|--------|--------|--------|--------|--------|--------|--------|
E|--------|--------|--------|--------|--------|--------|--------|--------|--------|


E|--------|--------|--------|--------|--------|--------|--------|--------|--------|
B|--------|--------|--------|--------|--------|--------|--------|--------|--------|
G|--------|--------|--------|--------|--------|--------|--------|--------|--------|
D|--------|--------|--------|--------|--------|--------|--------|--------|--------|
A|--------|--------|--------|--------|--------|--------|--------|--------|--------|
E|--------|--------|--------|--------|--------|--------|--------|--------|--------|


E|--------|--------|-----------------------------------------|-----------------------------------------|
B|--------|--------|-----------------------------------------|-----------------------------------------|
G|--------|--------|-----------------------------------------|-----------------------------------------|
D|--------|--------|-----------------------------------------|-----------------------------------------|
A|--------|--------|-2---2------2--2--2-----2---2---2--5--7--|-2---2------2--2--2-----2---2---2--5--7--|
E|--------|--------|-0---0------0--0--0-----0---0---0--------|-0---0------0--0--0-----0---0---0--------|


E|-----------------------------------------|-----------------------------------------|
B|-----------------------------------------|-----------------------------------------|
G|-----------------------------------------|-----------------------------------------|
D|-----------------------------------------|-----------------------------------------|
A|-2---2------2--2--2-----2---2---2--5--7--|-2---2------2--2--2-----2---2---2--5--7--|
E|-0---0------0--0--0-----0---0---0--------|-0---0------0--0--0-----0---0---0--------|


E|--------|--------|--------|--------|--------|--------|--------|--------|--------|
B|--------|--------|--------|--------|--------|--------|--------|--------|--------|
G|--------|--------|--------|--------|--------|--------|--------|--------|--------|
D|--------|--------|--------|--------|--------|--------|--------|--------|--------|
A|--------|--------|--------|--------|--------|--------|--------|--------|--------|
E|--------|--------|--------|--------|--------|--------|--------|--------|--------|


E|--------|--------|--------|--------|--------|--------|--------|--------|--------|
B|--------|--------|--------|--------|--------|--------|--------|--------|--------|
G|--------|--------|--------|--------|--------|--------|--------|--------|--------|
D|--------|--------|--------|--------|--------|--------|--------|--------|--------|
A|--------|--------|--------|--------|--------|--------|--------|--------|--------|
E|--------|--------|--------|--------|--------|--------|--------|--------|--------|


E|--------|--------|--------|--------|--------|--------|--------|--------|--------|
B|--------|--------|--------|--------|--------|--------|--------|--------|--------|
G|--------|--------|--------|--------|--------|--------|--------|--------|--------|
D|--------|--------|--------|--------|--------|--------|--------|--------|--------|
A|--------|--------|--------|--------|--------|--------|--------|--------|--------|
E|--------|--------|--------|--------|--------|--------|--------|--------|--------|


E|--------|--------|--------|--------|--------|--------|--------|--------|--------|
B|--------|--------|--------|--------|--------|--------|--------|--------|--------|
G|--------|--------|--------|--------|--------|--------|--------|--------|--------|
D|--------|--------|--------|--------|--------|--------|--------|--------|--------|
A|--------|--------|--------|--------|--------|--------|--------|--------|--------|
E|--------|--------|--------|--------|--------|--------|--------|--------|--------|


E|--------|--------|--------|--------|--------|--------|--------|--------|
B|--------|--------|--------|--------|--------|--------|--------|--------|
G|--------|--------|--------|--------|--------|--------|--------|--------|
D|--------|--------|--------|--------|--------|--------|--------|--------|
A|--------|--------|--------|--------|--------|--------|--------|--------|
E|--------|--------|--------|--------|--------|--------|--------|--------|





Track 4: Untitled

G|--------|--------|--------|--------|--------|--------|--------|--------|--------|
D|--------|--------|--------|--------|--------|--------|--------|--------|--------|
A|--------|--------|--------|--------|--------|--------|--------|--------|--------|
E|--------|--------|--------|--------|--------|--------|--------|--------|--------|


G|--------|--------|--------|--------|--------|--------|--------|--------|--------|
D|--------|--------|--------|--------|--------|--------|--------|--------|--------|
A|--------|--------|--------|--------|--------|--------|--------|--------|--------|
E|--------|--------|--------|--------|--------|--------|--------|--------|--------|


G|--------|--------|--------|--------|--------|--------|--------|--------|--------|
D|--------|--------|--------|--------|--------|--------|--------|--------|--------|
A|--------|--------|--------|--------|--------|--------|--------|--------|--------|
E|--------|--------|--------|--------|--------|--------|--------|--------|--------|


G|--------|--------|--------|--------|--------|--------|--------|--------|--------|
D|--------|--------|--------|--------|--------|--------|--------|--------|--------|
A|--------|--------|--------|--------|--------|--------|--------|--------|--------|
E|--------|--------|--------|--------|--------|--------|--------|--------|--------|


G|--------|--------|--------|--------|--------|--------|--------|--------|--------|
D|--------|--------|--------|--------|--------|--------|--------|--------|--------|
A|--------|--------|--------|--------|--------|--------|--------|--------|--------|
E|--------|--------|--------|--------|--------|--------|--------|--------|--------|


G|--------|--------|--------|--------|--------|--------|--------|--------|--------|
D|--------|--------|--------|--------|--------|--------|--------|--------|--------|
A|--------|--------|--------|--------|--------|--------|--------|--------|--------|
E|--------|--------|--------|--------|--------|--------|--------|--------|--------|


G|--------|--------|--------|--------|--------|--------|--------|--------|--------|
D|--------|--------|--------|--------|--------|--------|--------|--------|--------|
A|--------|--------|--------|--------|--------|--------|--------|--------|--------|
E|--------|--------|--------|--------|--------|--------|--------|--------|--------|


G|--------|--------|--------|--------|--------|--------|--------|--------|--------|
D|--------|--------|--------|--------|--------|--------|--------|--------|--------|
A|--------|--------|--------|--------|--------|--------|--------|--------|--------|
E|--------|--------|--------|--------|--------|--------|--------|--------|--------|


G|--------|--------|--------|--------|--------|--------|--------|--------|--------|
D|--------|--------|--------|--------|--------|--------|--------|--------|--------|
A|--------|--------|--------|--------|--------|--------|--------|--------|--------|
E|--------|--------|--------|--------|--------|--------|--------|--------|--------|


G|--------|--------|--------|--------|--------|--------|--------|--------|--------|
D|--------|--------|--------|--------|--------|--------|--------|--------|--------|
A|--------|--------|--------|--------|--------|--------|--------|--------|--------|
E|--------|--------|--------|--------|--------|--------|--------|--------|--------|


G|--------|--------|--------|--------|--------|--------|--------|--------|--------|
D|--------|--------|--------|--------|--------|--------|--------|--------|--------|
A|--------|--------|--------|--------|--------|--------|--------|--------|--------|
E|--------|--------|--------|--------|--------|--------|--------|--------|--------|


G|--------|--------|--------|--------|--------|
D|--------|--------|--------|--------|--------|
A|--------|--------|--------|--------|--------|
E|--------|--------|--------|--------|--------|