Site menu:

    

Browse: 0-9 A B C D E F G H I J K L N O P Q R S T U V W X Y Z

311 - electricity:



Title: Electricity
Artist: 
Album: Transistor
Author: Nicholas Hexum


Track 1: Muted Dist. Guitar

E|---------------------------------|---------------------------------|---------------------------------|
B|---------------------------------|---------------------------------|---------------------------------|
G|---------------------------------|---------------------------------|---------------------------------|
D|-7---7---7---4---4---4---4---4---|-5---5---5---4---4---4---4---4---|-7---7---7---4---4---4---4---4---|
A|-5---5---5---4---4---4---4---4---|-3---3---3---2---2---2---2---2---|-5---5---5---4---4---4---4---4---|
E|-5---5---5---2---2---2---2---2---|-3---3---3---2---2---2---2---2---|-5---5---5---2---2---2---2---2---|


E|---------------------------------|--------|--------|--------|--------|--------|--------|
B|---------------------------------|--------|--------|--------|--------|--------|--------|
G|---------------------------------|--------|--------|--------|--------|--------|--------|
D|-5---5---5---4---4---4---4---4---|--------|--------|--------|--------|--------|--------|
A|-3---3---3---2---2---2---2---2---|--------|--------|--------|--------|--------|--------|
E|-3---3---3---2---2---2---2---2---|--------|--------|--------|--------|--------|--------|


E|--------|--------|--------|--------|--------|--------|--------|--------|--------|
B|--------|--------|--------|--------|--------|--------|--------|--------|--------|
G|--------|--------|--------|--------|--------|--------|--------|--------|--------|
D|--------|--------|--------|--------|--------|--------|--------|--------|--------|
A|--------|--------|--------|--------|--------|--------|--------|--------|--------|
E|--------|--------|--------|--------|--------|--------|--------|--------|--------|


E|--------|--------|--------|--------|--------|--------|--------|--------|--------|
B|--------|--------|--------|--------|--------|--------|--------|--------|--------|
G|--------|--------|--------|--------|--------|--------|--------|--------|--------|
D|--------|--------|--------|--------|--------|--------|--------|--------|--------|
A|--------|--------|--------|--------|--------|--------|--------|--------|--------|
E|--------|--------|--------|--------|--------|--------|--------|--------|--------|


E|--------|--------|--------|--------|--------|--------|--------|--------|--------|
B|--------|--------|--------|--------|--------|--------|--------|--------|--------|
G|--------|--------|--------|--------|--------|--------|--------|--------|--------|
D|--------|--------|--------|--------|--------|--------|--------|--------|--------|
A|--------|--------|--------|--------|--------|--------|--------|--------|--------|
E|--------|--------|--------|--------|--------|--------|--------|--------|--------|


E|--------|--------|--------|--------|--------|--------|--------|--------|--------|
B|--------|--------|--------|--------|--------|--------|--------|--------|--------|
G|--------|--------|--------|--------|--------|--------|--------|--------|--------|
D|--------|--------|--------|--------|--------|--------|--------|--------|--------|
A|--------|--------|--------|--------|--------|--------|--------|--------|--------|
E|--------|--------|--------|--------|--------|--------|--------|--------|--------|


E|--------|--------|--------|--------|--------|--------|--------|--------|--------|
B|--------|--------|--------|--------|--------|--------|--------|--------|--------|
G|--------|--------|--------|--------|--------|--------|--------|--------|--------|
D|--------|--------|--------|--------|--------|--------|--------|--------|--------|
A|--------|--------|--------|--------|--------|--------|--------|--------|--------|
E|--------|--------|--------|--------|--------|--------|--------|--------|--------|


E|--------|--------|--------|--------|--------|--------|--------|--------|--------|
B|--------|--------|--------|--------|--------|--------|--------|--------|--------|
G|--------|--------|--------|--------|--------|--------|--------|--------|--------|
D|--------|--------|--------|--------|--------|--------|--------|--------|--------|
A|--------|--------|--------|--------|--------|--------|--------|--------|--------|
E|--------|--------|--------|--------|--------|--------|--------|--------|--------|


E|--------|--------|--------|--------|--------|--------|--------|--------|--------|
B|--------|--------|--------|--------|--------|--------|--------|--------|--------|
G|--------|--------|--------|--------|--------|--------|--------|--------|--------|
D|--------|--------|--------|--------|--------|--------|--------|--------|--------|
A|--------|--------|--------|--------|--------|--------|--------|--------|--------|
E|--------|--------|--------|--------|--------|--------|--------|--------|--------|


E|--------|--------|--------|--------|--------|--------|--------|--------|--------|
B|--------|--------|--------|--------|--------|--------|--------|--------|--------|
G|--------|--------|--------|--------|--------|--------|--------|--------|--------|
D|--------|--------|--------|--------|--------|--------|--------|--------|--------|
A|--------|--------|--------|--------|--------|--------|--------|--------|--------|
E|--------|--------|--------|--------|--------|--------|--------|--------|--------|


E|--------|--------|
B|--------|--------|
G|--------|--------|
D|--------|--------|
A|--------|--------|
E|--------|--------|





Track 2: Dist. 1

E|--------|--------|--------|--------|---------------------------------|---------------------------------|
B|--------|--------|--------|--------|---------------------------------|---------------------------------|
G|--------|--------|--------|--------|---------------------------------|---------------------------------|
D|--------|--------|--------|--------|-7---7---7---4---4---4---4---4---|-5---5---5---4---4---4---4---4---|
A|--------|--------|--------|--------|-5---5---5---4---4---4---4---4---|-3---3---3---2---2---2---2---2---|
E|--------|--------|--------|--------|-5---5---5---2---2---2---2---2---|-3---3---3---2---2---2---2---2---|


E|---------------------------------|---------------------------------|---------------------------------|
B|---------------------------------|---------------------------------|---------------------------------|
G|---------------------------------|---------------------------------|---------------------------------|
D|-7---7---7---4---4---4---4---4---|-5---5---5---4---4---4---4---4---|-7---7---7---4---4---4---4---4---|
A|-5---5---5---4---4---4---4---4---|-3---3---3---2---2---2---2---2---|-5---5---5---4---4---4---4---4---|
E|-5---5---5---2---2---2---2---2---|-3---3---3---2---2---2---2---2---|-5---5---5---2---2---2---2---2---|


E|---------------------------------|---------------------------------|---------------------------------|
B|---------------------------------|---------------------------------|---------------------------------|
G|---------------------------------|---------------------------------|---------------------------------|
D|-5---5---5---4---4---4---4---4---|-7---7---7---4---4---4---4---4---|-5---5---5---4---4---4---4---4---|
A|-3---3---3---2---2---2---2---2---|-5---5---5---4---4---4---4---4---|-3---3---3---2---2---2---2---2---|
E|-3---3---3---2---2---2---2---2---|-5---5---5---2---2---2---2---2---|-3---3---3---2---2---2---2---2---|


E|---------------------------------|---------------------------------|---------------------------------|
B|---------------------------------|---------------------------------|---------------------------------|
G|---------------------------------|---------------------------------|---------------------------------|
D|-7---7---7---4---4---4---4---4---|-5---5---5---4---4---4---4---4---|-7---7---7---4---4---4---4---4---|
A|-5---5---5---4---4---4---4---4---|-3---3---3---2---2---2---2---2---|-5---5---5---4---4---4---4---4---|
E|-5---5---5---2---2---2---2---2---|-3---3---3---2---2---2---2---2---|-5---5---5---2---2---2---2---2---|


E|---------------------------------|---------------------------------|---------------------------------|
B|---------------------------------|---------------------------------|---------------------------------|
G|---------------------------------|---------------------------------|---------------------------------|
D|-5---5---5---4---4---4---4---4---|-7---7---7---4---4---4---4---4---|-5---5---5---4---4---4---4---4---|
A|-3---3---3---2---2---2---2---2---|-5---5---5---4---4---4---4---4---|-3---3---3---2---2---2---2---2---|
E|-3---3---3---2---2---2---2---2---|-5---5---5---2---2---2---2---2---|-3---3---3---2---2---2---2---2---|


E|---------------------------------|---------------------------------|---------------------------------|
B|---------------------------------|---------------------------------|---------------------------------|
G|---------------------------------|---------------------------------|-9---9---9---9---9---------------|
D|-7---7---7---4---4---4---4---4---|-5---5---5---4---4---4---4---4---|-9---9---9---9---9---------------|
A|-5---5---5---4---4---4---4---4---|-3---3---3---2---2---2---2---2---|-7---7---7---7---7---------------|
E|-5---5---5---2---2---2---2---2---|-3---3---3---2---2---2---2---2---|-7---7---7---7---7---0-------0---|


E|---------------------------------|---------------------------------|---------------------------------|
B|---------------------------------|---------------------------------|---------------------------------|
G|---------------------------------|---------------------------------|---------------------------------|
D|---------------------------------|---------------------------------|---------------------------------|
A|-4---4---4---5---5---5---4---4---|---------2-----------------------|-4---4---4---5---5---5---4---4---|
E|-2---2---2---3---3---3---2---2---|-0---3-------0-------0-------0---|-2---2---2---3---3---3---2---2---|


E|---------------------------------|---------------------------------|---------------------------------|
B|---------------------------------|---------------------------------|---------------------------------|
G|-9---9---9---9---9---------------|---------------------------------|---------------------------------|
D|-9---9---9---9---9---------------|---------------------------------|---------------------------------|
A|-7---7---7---7---7---------------|-4---4---4---5---5---5---4---4---|---------2-----------------------|
E|-0---0---0---0---0---0-------0---|-2---2---2---3---3---3---2---2---|-0---3-------0-------0-------0---|


E|---------------------------------|---------------------------------|---------------------------------|
B|---------------------------------|---------------------------------|---------------------------------|
G|---------------------------------|---------------------------------|---------------------------------|
D|---------------------------------|---------------------------------|---------------------------------|
A|-4---4---4---5---5---5---4---4---|-7-------5---4---5-------7---5---|-----4---5---7---5-------4---4---|
E|-2---2---2---3---3---3---2---2---|-5-------3---2---3-------5---3---|-----2---3---5---3-------2---2---|


E|---------------------------------|---------------------------------|---------------------------------|
B|---------------------------------|---------------------------------|---------------------------------|
G|---------------------------------|---------------------------------|---------------------------------|
D|---------------------------------|---------------------------------|---------------------------------|
A|-7-------5---4---5-------7---5---|-----4---5---7---5-------4---4---|-7-------5---4---5-------7---5---|
E|-5-------3---2---3-------5---3---|-----2---3---5---3-------2---2---|-5-------3---2---3-------5---3---|


E|---------------------------------|---------------------------------|---------------------------------|
B|---------------------------------|---------------------------------|---------------------------------|
G|---------------------------------|---------------------------------|---------------------------------|
D|---------------------------------|---------------------------------|---------------------------------|
A|-----4---5---7---5-------4---4---|-7-------5---4---5-------7---5---|-----4---5---7---5-------4---4---|
E|-----2---3---5---3-------2---2---|-5-------3---2---3-------5---3---|-----2---3---5---3-------2---2---|


E|---------------------------------|---------------------------------|---------------------------------|
B|---------------------------------|---------------------------------|---------------------------------|
G|---------------------------------|---------------------------------|---------------------------------|
D|---------------------------------|---------------------------------|---------------------------------|
A|-7-------5---4---5-------7---5---|-----4---5---7---5-------4---4---|-7-------5---4---5-------7---5---|
E|-5-------3---2---3-------5---3---|-----2---3---5---3-------2---2---|-5-------3---2---3-------5---3---|


E|---------------------------------|---------------------|------------------------|
B|---------------------------------|---------------------|------------------------|
G|---------------------------------|---------------------|------------------------|
D|---------------------------------|---------------------|------------------------|
A|-----4---5---7---5-------4---4---|-7-----5---5----3----|-2----------------------|
E|-----2---3---5---3-------2---2---|-0-----0---0----0----|-0-----5---5----3---0---|


E|---------------------------------|---------------------------------|---------------------------------|
B|---------------------------------|---------------------------------|---------------------------------|
G|---------------------------------|---------------------------------|---------------------------------|
D|-7---7---7---4---4---4---4---4---|-5---5---5---4---4---4---4---4---|-7---7---7---4---4---4---4---4---|
A|-5---5---5---4---4---4---4---4---|-3---3---3---2---2---2---2---2---|-5---5---5---4---4---4---4---4---|
E|-5---5---5---2---2---2---2---2---|-3---3---3---2---2---2---2---2---|-5---5---5---2---2---2---2---2---|


E|---------------------------------|---------------------------------|---------------------------------|
B|---------------------------------|---------------------------------|---------------------------------|
G|---------------------------------|---------------------------------|---------------------------------|
D|-5---5---5---4---4---4---4---4---|-7---7---7---4---4---4---4---4---|-5---5---5---4---4---4---4---4---|
A|-3---3---3---2---2---2---2---2---|-5---5---5---4---4---4---4---4---|-3---3---3---2---2---2---2---2---|
E|-3---3---3---2---2---2---2---2---|-5---5---5---2---2---2---2---2---|-3---3---3---2---2---2---2---2---|


E|---------------------------------|---------------------------------|---------------------------------|
B|---------------------------------|---------------------------------|---------------------------------|
G|---------------------------------|---------------------------------|---------------------------------|
D|-7---7---7---4---4---4---4---4---|-5---5---5---4---4---4---4---4---|-7---7---7---4---4---4---4---4---|
A|-5---5---5---4---4---4---4---4---|-3---3---3---2---2---2---2---2---|-5---5---5---4---4---4---4---4---|
E|-5---5---5---2---2---2---2---2---|-3---3---3---2---2---2---2---2---|-5---5---5---2---2---2---2---2---|


E|---------------------------------|---------------------------------|---------------------------------|
B|---------------------------------|---------------------------------|---------------------------------|
G|---------------------------------|---------------------------------|---------------------------------|
D|-5---5---5---4---4---4---4---4---|-7---7---7---4---4---4---4---4---|-5---5---5---4---4---4---4---4---|
A|-3---3---3---2---2---2---2---2---|-5---5---5---4---4---4---4---4---|-3---3---3---2---2---2---2---2---|
E|-3---3---3---2---2---2---2---2---|-5---5---5---2---2---2---2---2---|-3---3---3---2---2---2---2---2---|


E|---------------------------------|---------------------------------|---------------------------------|
B|---------------------------------|---------------------------------|---------------------------------|
G|---------------------------------|---------------------------------|---------------------------------|
D|-7---7---7---4---4---4---4---4---|-5---5---5---4---4---4---4---4---|-7---7---7---4---4---4---4---4---|
A|-5---5---5---4---4---4---4---4---|-3---3---3---2---2---2---2---2---|-5---5---5---4---4---4---4---4---|
E|-5---5---5---2---2---2---2---2---|-3---3---3---2---2---2---2---2---|-5---5---5---2---2---2---2---2---|


E|---------------------------------|---------------------------------|---------------------------------|
B|---------------------------------|---------------------------------|---------------------------------|
G|---------------------------------|-9---9---9---9---9---------------|---------------------------------|
D|-5---5---5---4---4---4---4---4---|-9---9---9---9---9---------------|---------------------------------|
A|-3---3---3---2---2---2---2---2---|-7---7---7---7---7---------------|-4---4---4---5---5---5---4---4---|
E|-3---3---3---2---2---2---2---2---|-7---7---7---7---7---0-------0---|-2---2---2---3---3---3---2---2---|


E|---------------------------------|---------------------------------|---------------------------------|
B|---------------------------------|---------------------------------|---------------------------------|
G|---------------------------------|---------------------------------|-9---9---9---9---9---------------|
D|---------------------------------|---------------------------------|-9---9---9---9---9---------------|
A|---------2-----------------------|-4---4---4---5---5---5---4---4---|-7---7---7---7---7---------------|
E|-0---3-------0-------0-------0---|-2---2---2---3---3---3---2---2---|-0---0---0---0---0---0-------0---|


E|---------------------------------|---------------------------------|--------------------|
B|---------------------------------|---------------------------------|--------------------|
G|---------------------------------|---------------------------------|--------------------|
D|---------------------------------|---------------------------------|--------------------|
A|-4---4---4---5---5---5---4---4---|---------2-----------------------|-4------------------|
E|-2---2---2---3---3---3---2---2---|-0---3-------0-------0-------0---|-2------------------|


E|---------------------------------|---------------------------------|---------------------------------|
B|---------------------------------|---------------------------------|---------------------------------|
G|---------------------------------|---------------------------------|---------------------------------|
D|---------------------------------|---------------------------------|---------------------------------|
A|-7-------5---4---5-------7---5---|-----4---5---7---5-------4---4---|-7-------5---4---5-------7---5---|
E|-5-------3---2---3-------5---3---|-----2---3---5---3-------2---2---|-5-------3---2---3-------5---3---|


E|---------------------------------|---------------------------------|---------------------------------|
B|---------------------------------|---------------------------------|---------------------------------|
G|---------------------------------|---------------------------------|---------------------------------|
D|---------------------------------|---------------------------------|---------------------------------|
A|-----4---5---7---5-------4---4---|-7-------5---4---5-------7---5---|-----4---5---7---5-------4---4---|
E|-----2---3---5---3-------2---2---|-5-------3---2---3-------5---3---|-----2---3---5---3-------2---2---|


E|---------------------------------|---------------------------------|---------------------------------|
B|---------------------------------|---------------------------------|---------------------------------|
G|---------------------------------|---------------------------------|---------------------------------|
D|---------------------------------|---------------------------------|---------------------------------|
A|-7-------5---4---5-------7---5---|-----4---5---7---5-------4---4---|-7---7---5---4---5---5---7---5---|
E|-5-------3---2---3-------5---3---|-----2---3---5---3-------2---2---|-5---5---3---2---3---3---5---3---|


E|---------------------------------|---------------------------------|---------------------------------|
B|---------------------------------|---------------------------------|---------------------------------|
G|---------------------------------|---------------------------------|---------------------------------|
D|---------------------------------|---------------------------------|---------------------------------|
A|-5---4---5---7---5---5---4---4---|-7---7---5---4---5---5---7---5---|-5---4---5---7---5---5---4---4---|
E|-3---2---3---5---3---3---2---2---|-5---5---3---2---3---3---5---3---|-3---2---3---5---3---3---2---2---|


E|---------------------------------|---------------------------------|---------------------------------|
B|---------------------------------|---------------------------------|---------------------------------|
G|---------------------------------|---------------------------------|---------------------------------|
D|---------------------------------|---------------------------------|---------------------------------|
A|-7---7---5---4---5---5---7---5---|-5---4---5---7---5---5---4---4---|-7---7---5---4---5---5---7---5---|
E|-5---5---3---2---3---3---5---3---|-3---2---3---5---3---3---2---2---|-5---5---3---2---3---3---5---3---|


E|---------------------------------|-----------------|-----------------|
B|---------------------------------|-----------------|-----------------|
G|---------------------------------|-----------------|-----------------|
D|---------------------------------|-2-----2-----2---|-2---------------|
A|-5---4---5---7---5---5---4---4---|-2-----2-----2---|-2---------------|
E|-3---2---3---5---3---3---2---2---|-0-----0-----0---|-0---------------|





Track 3: Untitled

G|--------|--------|--------|--------|--------|--------|--------|--------|--------|
D|--------|--------|--------|--------|--------|--------|--------|--------|--------|
A|--------|--------|--------|--------|--------|--------|--------|--------|--------|
E|--------|--------|--------|--------|--------|--------|--------|--------|--------|


G|--------|--------|--------|--------|--------|--------|--------|--------|--------|
D|--------|--------|--------|--------|--------|--------|--------|--------|--------|
A|--------|--------|--------|--------|--------|--------|--------|--------|--------|
E|--------|--------|--------|--------|--------|--------|--------|--------|--------|


G|--------|--------|--------|--------|--------|--------|--------|--------|--------|
D|--------|--------|--------|--------|--------|--------|--------|--------|--------|
A|--------|--------|--------|--------|--------|--------|--------|--------|--------|
E|--------|--------|--------|--------|--------|--------|--------|--------|--------|


G|--------|--------|--------|--------|--------|--------|--------|--------|--------|
D|--------|--------|--------|--------|--------|--------|--------|--------|--------|
A|--------|--------|--------|--------|--------|--------|--------|--------|--------|
E|--------|--------|--------|--------|--------|--------|--------|--------|--------|


G|--------|--------|--------|--------|--------|--------|--------|--------|--------|
D|--------|--------|--------|--------|--------|--------|--------|--------|--------|
A|--------|--------|--------|--------|--------|--------|--------|--------|--------|
E|--------|--------|--------|--------|--------|--------|--------|--------|--------|


G|--------|--------|--------|--------|--------|--------|--------|--------|--------|
D|--------|--------|--------|--------|--------|--------|--------|--------|--------|
A|--------|--------|--------|--------|--------|--------|--------|--------|--------|
E|--------|--------|--------|--------|--------|--------|--------|--------|--------|


G|--------|--------|--------|--------|--------|--------|--------|--------|--------|
D|--------|--------|--------|--------|--------|--------|--------|--------|--------|
A|--------|--------|--------|--------|--------|--------|--------|--------|--------|
E|--------|--------|--------|--------|--------|--------|--------|--------|--------|


G|--------|--------|--------|--------|--------|--------|--------|--------|--------|
D|--------|--------|--------|--------|--------|--------|--------|--------|--------|
A|--------|--------|--------|--------|--------|--------|--------|--------|--------|
E|--------|--------|--------|--------|--------|--------|--------|--------|--------|


G|--------|--------|--------|--------|--------|--------|--------|--------|--------|
D|--------|--------|--------|--------|--------|--------|--------|--------|--------|
A|--------|--------|--------|--------|--------|--------|--------|--------|--------|
E|--------|--------|--------|--------|--------|--------|--------|--------|--------|


G|--------|--------|--------|
D|--------|--------|--------|
A|--------|--------|--------|
E|--------|--------|--------|