Site menu:

    

Browse: 0-9 A B C D E F G H I J K L N O P Q R S T U V W X Y Z

30 seconds to mars - buddha for mary:



Title: Buddha For Mary
Artist: 
Album: 30 Seconds to Mars
Author: Jared Leto


Track 1: Guitar I (Distortion I)

D|-------------------------------|-------------------------------|-------------------------------|
A|-------------------------------|-------------------------------|-------------------------------|
F|-------------------------------|-------------------------------|-------------------------------|
C|-0----8----5----10---8--8--7---|-0----8----5----10---8--8--7---|-0----8----5----10---8--8--7---|
G|-0----8----5----10---8--8--7---|-0----8----5----10---8--8--7---|-0----8----5----10---8--8--7---|
C|-0----8----5----10---8--8--7---|-0----8----5----10---8--8--7---|-0----8----5----10---8--8--7---|


D|-------------------------------------|--------|--------|--------|--------|--------|
A|-------------------------------------|--------|--------|--------|--------|--------|
F|----------------9--9--9--10-10-12-12-|--------|--------|--------|--------|--------|
C|-0----8----5-------------------------|--------|--------|--------|--------|--------|
G|-0----8----5----7--7--7--8--8--10-10-|--------|--------|--------|--------|--------|
C|-0----8----5-------------------------|--------|--------|--------|--------|--------|


D|--------|--------|--------|--------|--------|--------|--------|-------------------------------|
A|--------|--------|--------|--------|--------|--------|--------|-------------------------------|
F|--------|--------|--------|--------|--------|--------|--------|-------------------------------|
C|--------|--------|--------|--------|--------|--------|--------|-0----8----5----10---8--8--7---|
G|--------|--------|--------|--------|--------|--------|--------|-0----8----5----10---8--8--7---|
C|--------|--------|--------|--------|--------|--------|--------|-0----8----5----10---8--8--7---|


D|-------------------------------|-------------------------------|-------------------------------------|
A|-------------------------------|-------------------------------|-------------------------------------|
F|-------------------------------|-------------------------------|----------------9--9--9--10-10-12-12-|
C|-0----8----5----10---8--8--7---|-0----8----5----10---8--8--7---|-0----8----5-------------------------|
G|-0----8----5----10---8--8--7---|-0----8----5----10---8--8--7---|-0----8----5----7--7--7--8--8--10-10-|
C|-0----8----5----10---8--8--7---|-0----8----5----10---8--8--7---|-0----8----5-------------------------|


D|------------------|---------------------|----------------------------------|---------------------------------|
A|------------------|---------------------|----------------------------------|---------------------------------|
F|------------------|---------------------|-------------10---10-10-10--10-10-|-5----5--------------------------|
C|-8-----8-----10---|-5-----5-----5--3----|-0----0--0---10---10-10-10--10-10-|-5----5----5----5--5---5---5--5--|
G|-8-----8-----10---|-5-----5-----5--3----|-0----0--0---8----8--8--8---8--8--|-3----3----5----5--5---5---5--5--|
C|-8-----8-----10---|-5-----5-----5--3----|-0----0--0------------------------|-----------5----5--5---5---5--5--|


D|-------------|--------|--------|--------|--------|--------|--------|--------|---------------------|
A|-------------|--------|--------|--------|--------|--------|--------|--------|---------------------|
F|-------------|--------|--------|--------|--------|--------|--------|--------|---------------------|
C|-------------|--------|--------|--------|--------|--------|--------|--------|-------0----8----5---|
G|-------------|--------|--------|--------|--------|--------|--------|--------|-------0----8----5---|
C|-------------|--------|--------|--------|--------|--------|--------|--------|-------0----8----5---|


D|---------------------------------|---------------------------------|---------------------------------|
A|---------------------------------|---------------------------------|---------------------------------|
F|---------------------------------|---------------------------------|---------------------------------|
C|----10---8--8--7---0----8----5---|----10---8--8--7---0----8----5---|----10---8--8--7---0----8----5---|
G|----10---8--8--7---0----8----5---|----10---8--8--7---0----8----5---|----10---8--8--7---0----8----5---|
C|----10---8--8--7---0----8----5---|----10---8--8--7---0----8----5---|----10---8--8--7---0----8----5---|


D|-----------------------------------|---------------------|--------------------------------|
A|-----------------------------------|---------------------|--------------------------------|
F|----9--9--9--10-10-12-12-----------|---------------------|----------------------------10--|
C|-------------------------8-----8---|------10---5-----5---|------5--3----0---0--0--0---10--|
G|----7--7--7--8--8--10-10-8-----8---|------10---5-----5---|------5--3----0---0--0--0---8---|
C|-------------------------8-----8---|------10---5-----5---|------5--3----0---0--0--0-------|


D|-----------------------------------------|-------------------------------|---------------------|
A|-----------------------------------------|-------------------------------|---------------------|
F|-----10-10-10-10-10-10-5----5--5--5------|-------------------------------|---------------------|
C|-----10-10-10-10-10-10-5----5--5--5--5---|-5--5--5---5---5--5--8-----8---|------10---5-----5---|
G|-----8--8--8--8--8--8--3----3--3--3--5---|-5--5--5---5---5--5--8-----8---|------10---5-----5---|
C|-------------------------------------5---|-5--5--5---5---5--5--8-----8---|------10---5-----5---|


D|--------------------------------|-------------------------------------------|-------------------------|
A|--------------------------------|-------------------------------------------|-------------------------|
F|----------------------------10--|-----10-10-10-10-10-10-5---5--5--5--5------|-------------------------|
C|------5--3----0---0--0--0---10--|-----10-10-10-10-10-10-5---5--5--5--5--5---|----3----8--8--10--8-----|
G|------5--3----0---0--0--0---8---|-----8--8--8--8--8--8--3---3--3--3--3--5---|----3----8--8--10--8-----|
C|------5--3----0---0--0--0-------|---------------------------------------5---|----3----8--8--10--8-----|


D|-------------|-------------|-------------|-------------|-------------|-------------|
A|-------------|-------------|-------------|-------------|-------------|-------------|
F|-------------|-------------|-------------|-------------|-------------|-------------|
C|-------7-----|-5-----12----|-12----0-----|-------12----|-12----0-----|-------12----|
G|-------7-----|-5-----12----|-12----0-----|-------12----|-12----0-----|-------12----|
C|-------7-----|-5-----12----|-12----0-----|-------12----|-12----0-----|-------12----|


D|-------------|-------------|-------------|-------------|-------------|-------------|
A|-------------|-------------|-------------|-------------|-------------|-------------|
F|-------------|-------------|-------------|-------------|-------------|-------------|
C|-12----0-----|-------12----|-12----0-----|-------12----|-12----0-----|-------12----|
G|-12----0-----|-------12----|-12----0-----|-------12----|-12----0-----|-------12----|
C|-12----0-----|-------12----|-12----0-----|-------12----|-12----0-----|-------12----|


D|-------------|-------------|-------------|-------------|-------------|-------------|
A|-------------|-------------|-------------|-------------|-------------|-------------|
F|-------------|-------------|-------------|-------------|-------------|-------------|
C|-12----0-----|-------12----|-12----0-----|-------12----|-12----0-----|-------12----|
G|-12----0-----|-------12----|-12----0-----|-------12----|-12----0-----|-------12----|
C|-12----0-----|-------12----|-12----0-----|-------12----|-12----0-----|-------12----|


D|-------------|-------------|-------------|-------------|-------------|-------------|
A|-------------|-------------|-------------|-------------|-------------|-------------|
F|-------------|-------------|-------------|-------------|-------------|-------------|
C|-12----0-----|-------12----|-12----0-----|-------12----|-12----0-----|-------12----|
G|-12----0-----|-------12----|-12----0-----|-------12----|-12----0-----|-------12----|
C|-12----0-----|-------12----|-12----0-----|-------12----|-12----0-----|-------12----|


D|-------------|--------|--------|--------|--------|--------|--------|--------|--------|
A|-------------|--------|--------|--------|--------|--------|--------|--------|--------|
F|-------------|--------|--------|--------|--------|--------|--------|--------|--------|
C|-12----0-----|--------|--------|--------|--------|--------|--------|--------|--------|
G|-12----0-----|--------|--------|--------|--------|--------|--------|--------|--------|
C|-12----0-----|--------|--------|--------|--------|--------|--------|--------|--------|


D|---------------------|-------------------------------------|-------------------------------------|
A|---------------------|-------------------------------------|-------------------------------------|
F|---------------------|-------------------------------------|-------------------------------------|
C|-------0----8----5---|-5--10--10-10-10-10-10-0----8----5---|-5--10--10-10-10-10-10-0----8----5---|
G|-------0----8----5---|-5--10--10-10-10-10-10-0----8----5---|-5--10--10-10-10-10-10-0----8----5---|
C|-------0----8----5---|-5--10--10-10-10-10-10-0----8----5---|-5--10--10-10-10-10-10-0----8----5---|


D|-------------------------------------|---------------------------------------|---------------------------------------|
A|-------------------------------------|---------------------------------------|---------------------------------------|
F|-------------------------------------|----8--8--8--8--8--8--8----------------|----10-10-10-10-10-9--9----------------|
C|-5--10--10-10-10-10-10-0----8----5---|-------------------------0----8----5---|-------------------------0----8----5---|
G|-5--10--10-10-10-10-10-0----8----5---|----6--6--6--6--6--6--6--0----8----5---|----8--8--8--8--8--7--7--0----8----5---|
C|-5--10--10-10-10-10-10-0----8----5---|-------------------------0----8----5---|-------------------------0----8----5---|


D|---------------------------------------|---------------------------------------|
A|---------------------------------------|---------------------------------------|
F|----10-10-10-10-10-9--9----------------|----10-10-10-10-10-9--9----------------|
C|-------------------------0----8----5---|-------------------------0----8----5---|
G|----8--8--8--8--8--7--7--0----8----5---|----8--8--8--8--8--7--7--0----8----5---|
C|-------------------------0----8----5---|-------------------------0----8----5---|


D|---------------------------|---------------------|------------------------|---------------------|
A|---------------------------|---------------------|------------------------|---------------------|
F|---------------------------|---------------------|------------------------|---------------------|
C|----3----10--7---8-----8---|------10---5-----5---|------5--3----8-----8---|------10---5-----5---|
G|----3----10--7---8-----8---|------10---5-----5---|------5--3----8-----8---|------10---5-----5---|
C|----3----10--7---8-----8---|------10---5-----5---|------5--3----8-----8---|------10---5-----5---|


D|-------------------------------|--------------------------------------|-------------------------------------------|
A|-------------------------------|--------------------------------------|-------------------------------------------|
F|-------------------------------|--------------------------------------|---------------------------------------10--|
C|-----5---13-13-13-13-8-----8---|------8---8---10-10-10-10-10-10-10-10-|-10-10-10-10-10-10-10-10-0---0--0--0---10--|
G|-----5---13-13-13-13-8-----8---|------8---8---10-10-10-10-10-10-10-10-|-10-10-10-10-10-10-10-10-0---0--0--0---8---|
C|-----5---13-13-13-13-8-----8---|------8---8---10-10-10-10-10-10-10-10-|-10-10-10-10-10-10-10-10-0---0--0--0-------|


D|-----------------------------------------|---------------------------------------|
A|-----------------------------------------|---------------------------------------|
F|-----10-10-10-10-10-10-5----5--5--5------|-----------------------------------10--|
C|-----10-10-10-10-10-10-5----5--5--5--5---|-5--5--5---5---5--5--0---0--0--0---10--|
G|-----8--8--8--8--8--8--3----3--3--3--5---|-5--5--5---5---5--5--0---0--0--0---8---|
C|-------------------------------------5---|-5--5--5---5---5--5--0---0--0--0-------|


D|-------------------------------------|-------------|-------------|
A|-------------------------------------|-------------|-------------|
F|-----10-10-10-10-10-10-5----5--------|-------------|-------------|
C|-----10-10-10-10-10-10-5----5----1---|-1-----1-----|-------1-----|
G|-----8--8--8--8--8--8--3----3----1---|-1-----1-----|-------1-----|
C|---------------------------------1---|-1-----1-----|-------1-----|





Track 2: Muted Verse

D|--------|--------|--------|--------|--------|--------|--------|--------|-------------------------------------------------|
A|--------|--------|--------|--------|--------|--------|--------|--------|-------------------------------------------------|
F|--------|--------|--------|--------|--------|--------|--------|--------|-------------------3--3--3--2--2--2--2--2--2--2--|
C|--------|--------|--------|--------|--------|--------|--------|--------|-3--3--3--5--5--5--------------------------------|
G|--------|--------|--------|--------|--------|--------|--------|--------|-------------------------------------------------|
C|--------|--------|--------|--------|--------|--------|--------|--------|-------------------------------------------------|


D|-------------------------------------------------|-------------------------------------------------|
A|-------------------------------------------------|-------------------------------------------------|
F|-------------------3--3--3--2--2--2--------------|-------------------3--3--3--2--2--2--2--2--2--2--|
C|-3--3--3--5--5--5--------------------------------|-3--3--3--5--5--5--------------------------------|
G|-------------------------------------0--0--0--0--|-------------------------------------------------|
C|-------------------------------------------------|-------------------------------------------------|


D|-------------------------------------------------|--------|--------|--------|--------|
A|-------------------------------------------------|--------|--------|--------|--------|
F|-------------------------------------------------|--------|--------|--------|--------|
C|-3--3--3--5--5--5--0--0--0--0--0--0--0--0--0--0--|--------|--------|--------|--------|
G|-------------------------------------------------|--------|--------|--------|--------|
C|-------------------------------------------------|--------|--------|--------|--------|


D|--------|--------|--------|--------|--------|--------|--------|--------|-------------------------------|
A|--------|--------|--------|--------|--------|--------|--------|--------|-------------------------------|
F|--------|--------|--------|--------|--------|--------|--------|--------|-------------------------3--3--|
C|--------|--------|--------|--------|--------|--------|--------|--------|-------3--3--3--5--5--5--------|
G|--------|--------|--------|--------|--------|--------|--------|--------|-------------------------------|
C|--------|--------|--------|--------|--------|--------|--------|--------|-------------------------------|


D|-------------------------------------------------|-------------------------------------------------|
A|-------------------------------------------------|-------------------------------------------------|
F|-3--2--2--2--2--2--2--2--------------------3--3--|-3--2--2--2--------------------------------3--3--|
C|-------------------------3--3--3--5--5--5--------|-------------------------3--3--3--5--5--5--------|
G|-------------------------------------------------|-------------0--0--0--0--------------------------|
C|-------------------------------------------------|-------------------------------------------------|


D|-------------------------------------------------|-------------------------------------------------|
A|-------------------------------------------------|-------------------------------------------------|
F|-3--2--2--2--2--2--2--2--------------------------|-------------------------------------------3--3--|
C|-------------------------3--3--3--5--5--5--0--0--|-0--0--0--0--0--0--0--0--3--3--3--5--5--5--------|
G|-------------------------------------------------|-------------------------------------------------|
C|-------------------------------------------------|-------------------------------------------------|


D|-------------------------------------------------|-------------------------------------------------|
A|-------------------------------------------------|-------------------------------------------------|
F|-3--2--2--2--2--2--2--2--------------------3--3--|-3--2--2--2--------------------------------3--3--|
C|-------------------------3--3--3--5--5--5--------|-------------------------3--3--3--5--5--5--------|
G|-------------------------------------------------|-------------0--0--0--0--------------------------|
C|-------------------------------------------------|-------------------------------------------------|


D|-------------------------------------------------|-------------------------------|
A|-------------------------------------------------|-------------------------------|
F|-3--2--2--2--2--2--2--2--------------------------|-------------------------------|
C|-------------------------3--3--3--5--5--5--0--0--|-0--0--0--0--0--0--0--0--------|
G|-------------------------------------------------|-------------------------------|
C|-------------------------------------------------|-------------------------------|


D|--------|--------|--------|--------|--------|--------|--------|--------|--------|
A|--------|--------|--------|--------|--------|--------|--------|--------|--------|
F|--------|--------|--------|--------|--------|--------|--------|--------|--------|
C|--------|--------|--------|--------|--------|--------|--------|--------|--------|
G|--------|--------|--------|--------|--------|--------|--------|--------|--------|
C|--------|--------|--------|--------|--------|--------|--------|--------|--------|


D|--------|--------|--------|--------|--------|--------|--------|--------|--------|
A|--------|--------|--------|--------|--------|--------|--------|--------|--------|
F|--------|--------|--------|--------|--------|--------|--------|--------|--------|
C|--------|--------|--------|--------|--------|--------|--------|--------|--------|
G|--------|--------|--------|--------|--------|--------|--------|--------|--------|
C|--------|--------|--------|--------|--------|--------|--------|--------|--------|


D|--------|--------|--------|--------|--------|--------|--------|--------|--------|
A|--------|--------|--------|--------|--------|--------|--------|--------|--------|
F|--------|--------|--------|--------|--------|--------|--------|--------|--------|
C|--------|--------|--------|--------|--------|--------|--------|--------|--------|
G|--------|--------|--------|--------|--------|--------|--------|--------|--------|
C|--------|--------|--------|--------|--------|--------|--------|--------|--------|


D|--------|--------|--------|--------|--------|--------|--------|--------|--------|
A|--------|--------|--------|--------|--------|--------|--------|--------|--------|
F|--------|--------|--------|--------|--------|--------|--------|--------|--------|
C|--------|--------|--------|--------|--------|--------|--------|--------|--------|
G|--------|--------|--------|--------|--------|--------|--------|--------|--------|
C|--------|--------|--------|--------|--------|--------|--------|--------|--------|


D|--------|--------|--------|--------|--------|--------|--------|--------|--------|
A|--------|--------|--------|--------|--------|--------|--------|--------|--------|
F|--------|--------|--------|--------|--------|--------|--------|--------|--------|
C|--------|--------|--------|--------|--------|--------|--------|--------|--------|
G|--------|--------|--------|--------|--------|--------|--------|--------|--------|
C|--------|--------|--------|--------|--------|--------|--------|--------|--------|


D|--------|--------|--------|--------|--------|--------|--------|--------|--------|
A|--------|--------|--------|--------|--------|--------|--------|--------|--------|
F|--------|--------|--------|--------|--------|--------|--------|--------|--------|
C|--------|--------|--------|--------|--------|--------|--------|--------|--------|
G|--------|--------|--------|--------|--------|--------|--------|--------|--------|
C|--------|--------|--------|--------|--------|--------|--------|--------|--------|


D|--------|--------|--------|--------|--------|--------|--------|--------|--------|
A|--------|--------|--------|--------|--------|--------|--------|--------|--------|
F|--------|--------|--------|--------|--------|--------|--------|--------|--------|
C|--------|--------|--------|--------|--------|--------|--------|--------|--------|
G|--------|--------|--------|--------|--------|--------|--------|--------|--------|
C|--------|--------|--------|--------|--------|--------|--------|--------|--------|


D|--------|--------|
A|--------|--------|
F|--------|--------|
C|--------|--------|
G|--------|--------|
C|--------|--------|





Track 3: Guitar II (Clean I)

D|--------|--------|--------|--------|--------|--------|--------|--------|--------|
A|--------|--------|--------|--------|--------|--------|--------|--------|--------|
F|--------|--------|--------|--------|--------|--------|--------|--------|--------|
C|--------|--------|--------|--------|--------|--------|--------|--------|--------|
G|--------|--------|--------|--------|--------|--------|--------|--------|--------|
C|--------|--------|--------|--------|--------|--------|--------|--------|--------|


D|--------|--------|--------|-------------------------------------------------|-------------------------------------------------|
A|--------|--------|--------|-------------------------------------------------|-------------------------------------------------|
F|--------|--------|--------|-------------------3--3--3--2--2--2--2--2--2--2--|-------------------3--3--3--2--2--2--------------|
C|--------|--------|--------|-3--3--3--5--5--5--------------------------------|-3--3--3--5--5--5--------------------------------|
G|--------|--------|--------|-------------------------------------------------|-------------------------------------0--0--0--0--|
C|--------|--------|--------|-------------------------------------------------|-------------------------------------------------|


D|-------------------------------------------------|-------------------------------------------------|
A|-------------------------------------------------|-------------------------------------------------|
F|-------------------3--3--3--2--2--2--2--2--2--2--|-------------------------------------------------|
C|-3--3--3--5--5--5--------------------------------|-3--3--3--5--5--5--0--0--0--0--0--0--0--0--0--0--|
G|-------------------------------------------------|-------------------------------------------------|
C|-------------------------------------------------|-------------------------------------------------|


D|--------|--------|--------|--------|--------|--------|--------|--------|--------|
A|--------|--------|--------|--------|--------|--------|--------|--------|--------|
F|--------|--------|--------|--------|--------|--------|--------|--------|--------|
C|--------|--------|--------|--------|--------|--------|--------|--------|--------|
G|--------|--------|--------|--------|--------|--------|--------|--------|--------|
C|--------|--------|--------|--------|--------|--------|--------|--------|--------|


D|--------|--------|--------|--------|--------|--------|--------|--------|--------|
A|--------|--------|--------|--------|--------|--------|--------|--------|--------|
F|--------|--------|--------|--------|--------|--------|--------|--------|--------|
C|--------|--------|--------|--------|--------|--------|--------|--------|--------|
G|--------|--------|--------|--------|--------|--------|--------|--------|--------|
C|--------|--------|--------|--------|--------|--------|--------|--------|--------|


D|--------|--------|--------|--------|--------|--------|--------|--------|--------|
A|--------|--------|--------|--------|--------|--------|--------|--------|--------|
F|--------|--------|--------|--------|--------|--------|--------|--------|--------|
C|--------|--------|--------|--------|--------|--------|--------|--------|--------|
G|--------|--------|--------|--------|--------|--------|--------|--------|--------|
C|--------|--------|--------|--------|--------|--------|--------|--------|--------|


D|--------|--------|--------|--------|--------|--------|--------|--------|--------|
A|--------|--------|--------|--------|--------|--------|--------|--------|--------|
F|--------|--------|--------|--------|--------|--------|--------|--------|--------|
C|--------|--------|--------|--------|--------|--------|--------|--------|--------|
G|--------|--------|--------|--------|--------|--------|--------|--------|--------|
C|--------|--------|--------|--------|--------|--------|--------|--------|--------|


D|--------|--------|--------|--------|--------|--------|--------|--------|--------|
A|--------|--------|--------|--------|--------|--------|--------|--------|--------|
F|--------|--------|--------|--------|--------|--------|--------|--------|--------|
C|--------|--------|--------|--------|--------|--------|--------|--------|--------|
G|--------|--------|--------|--------|--------|--------|--------|--------|--------|
C|--------|--------|--------|--------|--------|--------|--------|--------|--------|


D|--------|--------|--------|--------|--------|--------|--------|--------|--------|
A|--------|--------|--------|--------|--------|--------|--------|--------|--------|
F|--------|--------|--------|--------|--------|--------|--------|--------|--------|
C|--------|--------|--------|--------|--------|--------|--------|--------|--------|
G|--------|--------|--------|--------|--------|--------|--------|--------|--------|
C|--------|--------|--------|--------|--------|--------|--------|--------|--------|


D|--------|--------|--------|--------|--------|--------|--------|--------|--------|
A|--------|--------|--------|--------|--------|--------|--------|--------|--------|
F|--------|--------|--------|--------|--------|--------|--------|--------|--------|
C|--------|--------|--------|--------|--------|--------|--------|--------|--------|
G|--------|--------|--------|--------|--------|--------|--------|--------|--------|
C|--------|--------|--------|--------|--------|--------|--------|--------|--------|


D|--------|--------|--------|--------|--------|--------|--------|--------|--------|
A|--------|--------|--------|--------|--------|--------|--------|--------|--------|
F|--------|--------|--------|--------|--------|--------|--------|--------|--------|
C|--------|--------|--------|--------|--------|--------|--------|--------|--------|
G|--------|--------|--------|--------|--------|--------|--------|--------|--------|
C|--------|--------|--------|--------|--------|--------|--------|--------|--------|


D|--------|--------|--------|--------|--------|--------|--------|--------|--------|
A|--------|--------|--------|--------|--------|--------|--------|--------|--------|
F|--------|--------|--------|--------|--------|--------|--------|--------|--------|
C|--------|--------|--------|--------|--------|--------|--------|--------|--------|
G|--------|--------|--------|--------|--------|--------|--------|--------|--------|
C|--------|--------|--------|--------|--------|--------|--------|--------|--------|


D|--------|
A|--------|
F|--------|
C|--------|
G|--------|
C|--------|





Track 4: Guitar III (Distortion II)

D|--------|--------|--------|--------|--------|--------|--------|--------|--------|
A|--------|--------|--------|--------|--------|--------|--------|--------|--------|
F|--------|--------|--------|--------|--------|--------|--------|--------|--------|
C|--------|--------|--------|--------|--------|--------|--------|--------|--------|
G|--------|--------|--------|--------|--------|--------|--------|--------|--------|
C|--------|--------|--------|--------|--------|--------|--------|--------|--------|


D|--------|--------|--------|--------|--------|--------|--------|---------------------------------------------|
A|--------|--------|--------|--------|--------|--------|--------|-15-15-15-17-17-15-17-18--17-15--17-15-18-15-|
F|--------|--------|--------|--------|--------|--------|--------|---------------------------------------------|
C|--------|--------|--------|--------|--------|--------|--------|---------------------------------------------|
G|--------|--------|--------|--------|--------|--------|--------|---------------------------------------------|
C|--------|--------|--------|--------|--------|--------|--------|---------------------------------------------|


D|---------------------------------------------|---------------------------------------------|
A|-15-15-15-17-17-15-17-18--17-15--17-15-18-15-|-15-15-15-17-17-15-17-18--17-15--17-15-18-15-|
F|---------------------------------------------|---------------------------------------------|
C|---------------------------------------------|---------------------------------------------|
G|---------------------------------------------|---------------------------------------------|
C|---------------------------------------------|---------------------------------------------|


D|-------------------------------------------------|------------------------------------|
A|-15-15-15-15-17-17-17-17-18-18-18-18-20-20-20-20-|------------------------------------|
F|-------------------------------------------------|-10--10-10-12--10-10-9---10-10-7----|
C|-12-12-12-12-14-14-14-14-15-15-15-15-17-17-17-17-|------------------------------------|
G|-------------------------------------------------|------------------------------------|
C|-------------------------------------------------|------------------------------------|


D|------------------------------------|---------10------12--12------13--|---------10------12--12------10--|
A|-------------------------------11---|-10--10------10----------10------|-10--10------10----------10------|
F|-10--10-10-12-12-9---10-10-7--------|---------------------------------|---------------------------------|
C|------------------------------------|---------------------------------|---------------------------------|
G|------------------------------------|---------------------------------|---------------------------------|
C|------------------------------------|---------------------------------|---------------------------------|


D|--------|--------|--------|--------|--------|--------|--------|--------|-------------------------------|
A|--------|--------|--------|--------|--------|--------|--------|--------|-------15-15-15-17-17-15-17-18-|
F|--------|--------|--------|--------|--------|--------|--------|--------|-------------------------------|
C|--------|--------|--------|--------|--------|--------|--------|--------|-------------------------------|
G|--------|--------|--------|--------|--------|--------|--------|--------|-------------------------------|
C|--------|--------|--------|--------|--------|--------|--------|--------|-------------------------------|


D|-----------------------------------------------|-----------------------------------------------|
A|----17-15--17-15-18-15-15-15-15-17-17-15-17-18-|----17-15--17-15-18-15-15-15-15-17-17-15-17-18-|
F|-----------------------------------------------|-----------------------------------------------|
C|-----------------------------------------------|-----------------------------------------------|
G|-----------------------------------------------|-----------------------------------------------|
C|-----------------------------------------------|-----------------------------------------------|


D|-----------------------------------------------|---------------------------------------------|
A|----17-15--17-15-18-15-15-15-15-15-17-17-17-17-|-18-18-18-18-20-20-20-20---------------------|
F|-----------------------------------------------|-------------------------10--10-10-12--10-10-|
C|-----------------------12-12-12-12-14-14-14-14-|-15-15-15-15-17-17-17-17---------------------|
G|-----------------------------------------------|---------------------------------------------|
C|-----------------------------------------------|---------------------------------------------|


D|------------------------------------|------------------------10------|-12--12------13----------10------|
A|------------------------------------|-----------11---10--10------10--|---------10------10--10------10--|
F|-9---10-10-7----10--10-10-12-12-9---|-10-10-7------------------------|---------------------------------|
C|------------------------------------|--------------------------------|---------------------------------|
G|------------------------------------|--------------------------------|---------------------------------|
C|------------------------------------|--------------------------------|---------------------------------|


D|-12--12------10----------------------|------------------------------------|------------------------10------|
A|---------10--------------------------|------------------------------------|-----------11---10--10------10--|
F|-----------------10--10-10-12--10-10-|-9---10-10-7----10--10-10-12-12-9---|-10-10-7------------------------|
C|-------------------------------------|------------------------------------|--------------------------------|
G|-------------------------------------|------------------------------------|--------------------------------|
C|-------------------------------------|------------------------------------|--------------------------------|


D|-12--12------13----------10------|-12--12------13--------|-------------|-------------|
A|---------10------10--10------10--|---------10------------|-------------|-------------|
F|---------------------------------|-----------------------|-------------|-------------|
C|---------------------------------|-----------------12----|-------10----|-8-----------|
G|---------------------------------|-----------------13----|-------12----|-10----------|
C|---------------------------------|-----------------------|-------------|-------------|


D|--------|--------|--------|--------|--------|--------|--------|--------|--------|
A|--------|--------|--------|--------|--------|--------|--------|--------|--------|
F|--------|--------|--------|--------|--------|--------|--------|--------|--------|
C|--------|--------|--------|--------|--------|--------|--------|--------|--------|
G|--------|--------|--------|--------|--------|--------|--------|--------|--------|
C|--------|--------|--------|--------|--------|--------|--------|--------|--------|


D|--------|--------|--------|--------|--------|--------|--------|--------|--------|
A|--------|--------|--------|--------|--------|--------|--------|--------|--------|
F|--------|--------|--------|--------|--------|--------|--------|--------|--------|
C|--------|--------|--------|--------|--------|--------|--------|--------|--------|
G|--------|--------|--------|--------|--------|--------|--------|--------|--------|
C|--------|--------|--------|--------|--------|--------|--------|--------|--------|


D|--------|--------|--------|--------|--------|--------|--------|--------|--------|
A|--------|--------|--------|--------|--------|--------|--------|--------|--------|
F|--------|--------|--------|--------|--------|--------|--------|--------|--------|
C|--------|--------|--------|--------|--------|--------|--------|--------|--------|
G|--------|--------|--------|--------|--------|--------|--------|--------|--------|
C|--------|--------|--------|--------|--------|--------|--------|--------|--------|


D|--------|--------|--------|--------|--------|--------|--------|--------|--------|
A|--------|--------|--------|--------|--------|--------|--------|--------|--------|
F|--------|--------|--------|--------|--------|--------|--------|--------|--------|
C|--------|--------|--------|--------|--------|--------|--------|--------|--------|
G|--------|--------|--------|--------|--------|--------|--------|--------|--------|
C|--------|--------|--------|--------|--------|--------|--------|--------|--------|


D|--------|--------|--------|-------------------------------|-----------------------------------------------|
A|--------|--------|--------|-------15-15-15-17-17-15-17-18-|----17-15--17-15-18-15-15-15-15-17-17-15-17-18-|
F|--------|--------|--------|-------------------------------|-----------------------------------------------|
C|--------|--------|--------|-------------------------------|-----------------------------------------------|
G|--------|--------|--------|-------------------------------|-----------------------------------------------|
C|--------|--------|--------|-------------------------------|-----------------------------------------------|


D|-----------------15----------------------------|-----------------------------------------------|
A|----17-15--17-15----15-15-15-15-17-17-15-17-18-|----17-15--17-15-18-15-15-15-15-17-17-15-17-18-|
F|-----------------------------------------------|-----------------------------------------------|
C|-----------------------------------------------|-----------------------------------------------|
G|-----------------------------------------------|-----------------------------------------------|
C|-----------------------------------------------|-----------------------------------------------|


D|-----------15----15----------------------------|-----------------------------------------------|
A|----17-15-----15----15-15-15-15-17-17-15-17-18-|----17-15--17-15-18-15-15-15-15-15-17-17-17-17-|
F|-----------------------------------------------|-----------------------------------------------|
C|-----------------------------------------------|-----------------------12-12-12-12-14-14-14-14-|
G|-----------------------------------------------|-----------------------------------------------|
C|-----------------------------------------------|-----------------------------------------------|


D|---------------------------------------------|------------------------------------|
A|-18-18-18-18-20-20-20-20---------------------|------------------------------------|
F|-------------------------10--10-10-12--10-10-|-9---10-10-7----10--10-10-12-12-9---|
C|-15-15-15-15-17-17-17-17---------------------|------------------------------------|
G|---------------------------------------------|------------------------------------|
C|---------------------------------------------|------------------------------------|


D|------------------------10------|-12--12------13----------10------|-------------|
A|-----------11---10--10------10--|---------10------10--10----------|-------------|
F|-10-10-7------------------------|---------------------------------|-------------|
C|--------------------------------|---------------------------------|-------------|
G|--------------------------------|---------------------------------|-------------|
C|--------------------------------|---------------------------------|-------------|


D|--------|
A|--------|
F|--------|
C|--------|
G|--------|
C|--------|





Track 5: Bass

F|--------|--------|--------|--------|--------|--------|--------|--------|--------|
C|--------|--------|--------|--------|--------|--------|--------|--------|--------|
G|--------|--------|--------|--------|--------|--------|--------|--------|--------|
C|--------|--------|--------|--------|--------|--------|--------|--------|--------|


F|--------|--------|--------|--------|--------|--------|--------|--------|--------|
C|--------|--------|--------|--------|--------|--------|--------|--------|--------|
G|--------|--------|--------|--------|--------|--------|--------|--------|--------|
C|--------|--------|--------|--------|--------|--------|--------|--------|--------|


F|--------|--------|--------|--------|--------|--------|--------|--------|--------|
C|--------|--------|--------|--------|--------|--------|--------|--------|--------|
G|--------|--------|--------|--------|--------|--------|--------|--------|--------|
C|--------|--------|--------|--------|--------|--------|--------|--------|--------|


F|--------|--------|--------|--------|--------|--------|--------|--------|--------|
C|--------|--------|--------|--------|--------|--------|--------|--------|--------|
G|--------|--------|--------|--------|--------|--------|--------|--------|--------|
C|--------|--------|--------|--------|--------|--------|--------|--------|--------|


F|--------|--------|--------|--------|--------|--------|--------|--------|--------|
C|--------|--------|--------|--------|--------|--------|--------|--------|--------|
G|--------|--------|--------|--------|--------|--------|--------|--------|--------|
C|--------|--------|--------|--------|--------|--------|--------|--------|--------|


F|--------|--------|--------|--------|--------|--------|--------|--------|--------|
C|--------|--------|--------|--------|--------|--------|--------|--------|--------|
G|--------|--------|--------|--------|--------|--------|--------|--------|--------|
C|--------|--------|--------|--------|--------|--------|--------|--------|--------|


F|--------|--------|--------|--------|--------|--------|--------|--------|--------|
C|--------|--------|--------|--------|--------|--------|--------|--------|--------|
G|--------|--------|--------|--------|--------|--------|--------|--------|--------|
C|--------|--------|--------|--------|--------|--------|--------|--------|--------|


F|--------|--------|--------|--------|--------|--------|--------|--------|--------|
C|--------|--------|--------|--------|--------|--------|--------|--------|--------|
G|--------|--------|--------|--------|--------|--------|--------|--------|--------|
C|--------|--------|--------|--------|--------|--------|--------|--------|--------|


F|--------|--------|--------|--------|--------|--------|--------|--------|--------|
C|--------|--------|--------|--------|--------|--------|--------|--------|--------|
G|--------|--------|--------|--------|--------|--------|--------|--------|--------|
C|--------|--------|--------|--------|--------|--------|--------|--------|--------|


F|--------|--------|--------|--------|--------|--------|--------|--------|--------|
C|--------|--------|--------|--------|--------|--------|--------|--------|--------|
G|--------|--------|--------|--------|--------|--------|--------|--------|--------|
C|--------|--------|--------|--------|--------|--------|--------|--------|--------|


F|--------|--------|--------|--------|--------|--------|--------|--------|
C|--------|--------|--------|--------|--------|--------|--------|--------|
G|--------|--------|--------|--------|--------|--------|--------|--------|
C|--------|--------|--------|--------|--------|--------|--------|--------|