Site menu:

    

Browse: 0-9 A B C D E F G H I J K L N O P Q R S T U V W X Y Z

30 seconds to mars - attack:



Title: Attack
Artist: 
Album: A Beautiful Lie
Author: Jared Leto


Track 1: Jared Leto

E|--------|--------|--------|--------|-------------------------------------------------|
B|--------|--------|--------|--------|-------------------------------------------------|
G|--------|--------|--------|--------|-13-13-13-13-13-13-13-13-13-13-13-13-13-13-13-13-|
D|--------|--------|--------|--------|-13-13-13-13-13-13-13-13-13-13-13-13-13-13-13-13-|
A|--------|--------|--------|--------|-11-11-11-11-11-11-11-11-11-11-11-11-11-11-11-11-|
E|--------|--------|--------|--------|-------------------------------------------------|


E|-------------------------------------------------|-------------------------------------------------|
B|-------------------------------------------------|-------------------------------------------------|
G|-12-12-12-12-12-12-12-12-12-12-12-12-12-12-12-12-|-17-17-17-17-17-17-17-17-17-17-17-17-17-17-17-17-|
D|-12-12-12-12-12-12-12-12-12-12-12-12-12-12-12-12-|-17-17-17-17-17-17-17-17-17-17-17-17-17-17-17-17-|
A|-10-10-10-10-10-10-10-10-10-10-10-10-10-10-10-10-|-15-15-15-15-15-15-15-15-15-15-15-15-15-15-15-15-|
E|-------------------------------------------------|-------------------------------------------------|


E|-------------------------------------------------|-------------------------------------------------|
B|-------------------------------------------------|-------------------------------------------------|
G|-17-17-17-17-17-17-17-17-17-17-17-17-17-17-17-17-|-13-13-13-13-13-13-13-13-13-13-13-13-13-13-13-13-|
D|-17-17-17-17-17-17-17-17-17-17-17-17-17-17-17-17-|-13-13-13-13-13-13-13-13-13-13-13-13-13-13-13-13-|
A|-15-15-15-15-15-15-15-15-15-15-15-15-15-15-15-15-|-11-11-11-11-11-11-11-11-11-11-11-11-11-11-11-11-|
E|-------------------------------------------------|-------------------------------------------------|


E|-------------------------------------------------|-------------------------------------------------|
B|-------------------------------------------------|-------------------------------------------------|
G|-12-12-12-12-12-12-12-12-12-12-12-12-12-12-12-12-|-17-17-17-17-17-17-17-17-17-17-17-17-17-17-17-17-|
D|-12-12-12-12-12-12-12-12-12-12-12-12-12-12-12-12-|-17-17-17-17-17-17-17-17-17-17-17-17-17-17-17-17-|
A|-10-10-10-10-10-10-10-10-10-10-10-10-10-10-10-10-|-15-15-15-15-15-15-15-15-15-15-15-15-15-15-15-15-|
E|-------------------------------------------------|-------------------------------------------------|


E|--------------|-------------------------------------------------|-------------------------------------------------|
B|--------------|-------------------------------------------------|-------------------------------------------------|
G|-17-----------|-6--6--6--6--6--6--6--6--6--6--6--6--6--6--6--6--|-8--8--8--8--8--8--8--8--8--8--8--8--8--8--8--8--|
D|-17-----------|-6--6--6--6--6--6--6--6--6--6--6--6--6--6--6--6--|-8--8--8--8--8--8--8--8--8--8--8--8--8--8--8--8--|
A|-15-----------|-4--4--4--4--4--4--4--4--4--4--4--4--4--4--4--4--|-6--6--6--6--6--6--6--6--6--6--6--6--6--6--6--6--|
E|--------------|-------------------------------------------------|-------------------------------------------------|


E|-------------------------------------------------|-------------------------------------------------|
B|-------------------------------------------------|-------------------------------------------------|
G|-10-10-10-10-10-10-10-10-10-10-10-10-10-10-10-10-|----------------------------13-13-13-13-12-12-12-|
D|-10-10-10-10-10-10-10-10-10-10-10-10-10-10-10-10-|-10-10-10-10-10-10-10-10-10-13-13-13-13-12-12-12-|
A|-8--8--8--8--8--8--8--8--8--8--8--8--8--8--8--8--|-10-10-10-10-10-10-10-10-10-11-11-11-11-10-10-10-|
E|-------------------------------------------------|-8--8--8--8--8--8--8--8--8-----------------------|


E|-------------------------------------------------|-------------------------------------------------|
B|-------------------------------------------------|-------------------------------------------------|
G|-6--6--6--6--6--6--6--6--6--6--6--6--6--6--6--6--|-8--8--8--8--8--8--8--8--8--8--8--8--8--8--8--8--|
D|-6--6--6--6--6--6--6--6--6--6--6--6--6--6--6--6--|-8--8--8--8--8--8--8--8--8--8--8--8--8--8--8--8--|
A|-4--4--4--4--4--4--4--4--4--4--4--4--4--4--4--4--|-6--6--6--6--6--6--6--6--6--6--6--6--6--6--6--6--|
E|-------------------------------------------------|-------------------------------------------------|


E|-------------------------------------------------|-------------------------------------------------|
B|-------------------------------------------------|-------------------------------------------------|
G|-10-10-10-10-10-10-10-10-10-10-10-10-10-10-10-10-|-17-17-17-17-17-17-17-17-17-17-17-17-17-17-17-17-|
D|-10-10-10-10-10-10-10-10-10-10-10-10-10-10-10-10-|-17-17-17-17-17-17-17-17-17-17-17-17-17-17-17-17-|
A|-8--8--8--8--8--8--8--8--8--8--8--8--8--8--8--8--|-15-15-15-15-15-15-15-15-15-15-15-15-15-15-15-15-|
E|-------------------------------------------------|-------------------------------------------------|


E|--------------|-------------------------------------------------|-------------------------------------------------|
B|--------------|-------------------------------------------------|-------------------------------------------------|
G|-17-----------|-13-13-13-13-13-13-13-13-13-13-13-13-13-13-13-13-|-12-12-12-12-12-12-12-12-12-12-12-12-12-12-12-12-|
D|-17-----------|-13-13-13-13-13-13-13-13-13-13-13-13-13-13-13-13-|-12-12-12-12-12-12-12-12-12-12-12-12-12-12-12-12-|
A|-15-----------|-11-11-11-11-11-11-11-11-11-11-11-11-11-11-11-11-|-10-10-10-10-10-10-10-10-10-10-10-10-10-10-10-10-|
E|--------------|-------------------------------------------------|-------------------------------------------------|


E|-------------------------------------------------|--------------|-------------------------------------------------|
B|-------------------------------------------------|--------------|-------------------------------------------------|
G|-17-17-17-17-17-17-17-17-17-17-17-17-17-17-17-17-|-17-----------|-13-13-13-13-13-13-13-13-13-13-13-13-13-13-13-13-|
D|-17-17-17-17-17-17-17-17-17-17-17-17-17-17-17-17-|-17-----------|-13-13-13-13-13-13-13-13-13-13-13-13-13-13-13-13-|
A|-15-15-15-15-15-15-15-15-15-15-15-15-15-15-15-15-|-15-----------|-11-11-11-11-11-11-11-11-11-11-11-11-11-11-11-11-|
E|-------------------------------------------------|--------------|-------------------------------------------------|


E|-------------------------------------------------|-------------------------------------------------|
B|-------------------------------------------------|-------------------------------------------------|
G|-12-12-12-12-12-12-12-12-12-12-12-12-12-12-12-12-|-17-17-17-17-17-17-17-17-17-17-17-17-17-17-17-17-|
D|-12-12-12-12-12-12-12-12-12-12-12-12-12-12-12-12-|-17-17-17-17-17-17-17-17-17-17-17-17-17-17-17-17-|
A|-10-10-10-10-10-10-10-10-10-10-10-10-10-10-10-10-|-15-15-15-15-15-15-15-15-15-15-15-15-15-15-15-15-|
E|-------------------------------------------------|-------------------------------------------------|


E|--------------|-------------------------------------------------|-------------------------------------------------|
B|--------------|-------------------------------------------------|-------------------------------------------------|
G|-17-----------|-6--6--6--6--6--6--6--6--6--6--6--6--6--6--6--6--|-8--8--8--8--8--8--8--8--8--8--8--8--8--8--8--8--|
D|-17-----------|-6--6--6--6--6--6--6--6--6--6--6--6--6--6--6--6--|-8--8--8--8--8--8--8--8--8--8--8--8--8--8--8--8--|
A|-15-----------|-4--4--4--4--4--4--4--4--4--4--4--4--4--4--4--4--|-6--6--6--6--6--6--6--6--6--6--6--6--6--6--6--6--|
E|--------------|-------------------------------------------------|-------------------------------------------------|


E|-------------------------------------------------|-------------------------------------------------|
B|-------------------------------------------------|-------------------------------------------------|
G|-10-10-10-10-10-10-10-10-10-10-10-10-10-10-10-10-|----------------------------13-13-13-13-12-12-12-|
D|-10-10-10-10-10-10-10-10-10-10-10-10-10-10-10-10-|-10-10-10-10-10-10-10-10-10-13-13-13-13-12-12-12-|
A|-8--8--8--8--8--8--8--8--8--8--8--8--8--8--8--8--|-10-10-10-10-10-10-10-10-10-11-11-11-11-10-10-10-|
E|-------------------------------------------------|-8--8--8--8--8--8--8--8--8-----------------------|


E|-------------------------------------------------|-------------------------------------------------|
B|-------------------------------------------------|-------------------------------------------------|
G|-6--6--6--6--6--6--6--6--6--6--6--6--6--6--6--6--|-8--8--8--8--8--8--8--8--8--8--8--8--8--8--8--8--|
D|-6--6--6--6--6--6--6--6--6--6--6--6--6--6--6--6--|-8--8--8--8--8--8--8--8--8--8--8--8--8--8--8--8--|
A|-4--4--4--4--4--4--4--4--4--4--4--4--4--4--4--4--|-6--6--6--6--6--6--6--6--6--6--6--6--6--6--6--6--|
E|-------------------------------------------------|-------------------------------------------------|


E|-------------------------------------------------|-------------------------------------------------|
B|-------------------------------------------------|-------------------------------------------------|
G|-10-10-10-10-10-10-10-10-10-10-10-10-10-10-10-10-|-17-17-17-17-17-17-17-17-17-17-17-17-17-17-17-17-|
D|-10-10-10-10-10-10-10-10-10-10-10-10-10-10-10-10-|-17-17-17-17-17-17-17-17-17-17-17-17-17-17-17-17-|
A|-8--8--8--8--8--8--8--8--8--8--8--8--8--8--8--8--|-15-15-15-15-15-15-15-15-15-15-15-15-15-15-15-15-|
E|-------------------------------------------------|-------------------------------------------------|


E|-------------------------------------------------|-------------------------------------------------|
B|-------------------------------------------------|-------------------------------------------------|
G|-------------------------------------------------|-------------------------------------------------|
D|-6--6--6--6--6--6--6--6--6--6--6--6--6--6--6--6--|-5--5--5--5--5--5--5--5--5--5--5--5--5--5--5--5--|
A|-------------------------------------------------|-------------------------------------------------|
E|-------------------------------------------------|-------------------------------------------------|


E|-------------------------------------------------|-------------------------------------------------|
B|-------------------------------------------------|-------------------------------------------------|
G|-------------------------------------------------|-------------------------------------------------|
D|-3--3--3--3--3--3--3--3--3--3--3--3--3--3--3--3--|-3--3--3--3--3--3--3--3--3--3--3--3--3--3--3--3--|
A|-------------------------------------------------|-------------------------------------------------|
E|-------------------------------------------------|-------------------------------------------------|


E|-------------------------------------------------|-------------------------------------------------|
B|-------------------------------------------------|-------------------------------------------------|
G|-------------------------------------------------|-------------------------------------------------|
D|-------------------------------------------------|-------------------------------------------------|
A|-4--4--4--4--4--4--4--4--4--4--4--4--4--4--4--4--|-6--6--6--6--6--6--6--6--6--6--6--6--6--6--6--6--|
E|-------------------------------------------------|-------------------------------------------------|


E|-------------------------------------------------|--------------|-------------------------------------------------|
B|-------------------------------------------------|--------------|-------------------------------------------------|
G|-------------------------------------------------|--------------|-6--6--6--6--6--6--6--6--6--6--6--6--6--6--6--6--|
D|-------------------------------------------------|--------------|-6--6--6--6--6--6--6--6--6--6--6--6--6--6--6--6--|
A|-8--8--8--8--8--8--8--8--8--8--8--8--8--8--8--8--|-8------------|-4--4--4--4--4--4--4--4--4--4--4--4--4--4--4--4--|
E|-------------------------------------------------|--------------|-------------------------------------------------|


E|-------------------------------------------------|-------------------------------------------------|
B|-------------------------------------------------|-------------------------------------------------|
G|-8--8--8--8--8--8--8--8--8--8--8--8--8--8--8--8--|-10-10-10-10-10-10-10-10-10-10-10-10-10-10-10-10-|
D|-8--8--8--8--8--8--8--8--8--8--8--8--8--8--8--8--|-10-10-10-10-10-10-10-10-10-10-10-10-10-10-10-10-|
A|-6--6--6--6--6--6--6--6--6--6--6--6--6--6--6--6--|-8--8--8--8--8--8--8--8--8--8--8--8--8--8--8--8--|
E|-------------------------------------------------|-------------------------------------------------|


E|-------------------------------------------------|-------------------------------------------------|
B|-------------------------------------------------|-------------------------------------------------|
G|----------------------------13-13-13-13-12-12-12-|-6--6--6--6--6--6--6--6--6--6--6--6--6--6--6--6--|
D|-10-10-10-10-10-10-10-10-10-13-13-13-13-12-12-12-|-6--6--6--6--6--6--6--6--6--6--6--6--6--6--6--6--|
A|-10-10-10-10-10-10-10-10-10-11-11-11-11-10-10-10-|-4--4--4--4--4--4--4--4--4--4--4--4--4--4--4--4--|
E|-8--8--8--8--8--8--8--8--8-----------------------|-------------------------------------------------|


E|-------------------------------------------------|-------------------------------------------------|
B|-------------------------------------------------|-------------------------------------------------|
G|-8--8--8--8--8--8--8--8--8--8--8--8--8--8--8--8--|-10-10-10-10-10-10-10-10-10-10-10-10-10-10-10-10-|
D|-8--8--8--8--8--8--8--8--8--8--8--8--8--8--8--8--|-10-10-10-10-10-10-10-10-10-10-10-10-10-10-10-10-|
A|-6--6--6--6--6--6--6--6--6--6--6--6--6--6--6--6--|-8--8--8--8--8--8--8--8--8--8--8--8--8--8--8--8--|
E|-------------------------------------------------|-------------------------------------------------|


E|-------------------------------------------------|-------------------------------------------------|
B|-------------------------------------------------|-------------------------------------------------|
G|-17-17-17-17-17-17-17-17-17-17-17-17-17-17-17-17-|-6--6--6--6--6--6--6--6--6--6--6--6--6--6--6--6--|
D|-17-17-17-17-17-17-17-17-17-17-17-17-17-17-17-17-|-6--6--6--6--6--6--6--6--6--6--6--6--6--6--6--6--|
A|-15-15-15-15-15-15-15-15-15-15-15-15-15-15-15-15-|-4--4--4--4--4--4--4--4--4--4--4--4--4--4--4--4--|
E|-------------------------------------------------|-------------------------------------------------|


E|-------------------------------------------------|-------------------------------------------------|
B|-------------------------------------------------|-------------------------------------------------|
G|-8--8--8--8--8--8--8--8--8--8--8--8--8--8--8--8--|-10-10-10-10-10-10-10-10-10-10-10-10-10-10-10-10-|
D|-8--8--8--8--8--8--8--8--8--8--8--8--8--8--8--8--|-10-10-10-10-10-10-10-10-10-10-10-10-10-10-10-10-|
A|-6--6--6--6--6--6--6--6--6--6--6--6--6--6--6--6--|-8--8--8--8--8--8--8--8--8--8--8--8--8--8--8--8--|
E|-------------------------------------------------|-------------------------------------------------|


E|-------------------------------------------------|-------------------------------------------------|
B|-------------------------------------------------|-------------------------------------------------|
G|----------------------------13-13-13-13-12-12-12-|-6--6--6--6--6--6--6--6--6--6--6--6--6--6--6--6--|
D|-10-10-10-10-10-10-10-10-10-13-13-13-13-12-12-12-|-6--6--6--6--6--6--6--6--6--6--6--6--6--6--6--6--|
A|-10-10-10-10-10-10-10-10-10-11-11-11-11-10-10-10-|-4--4--4--4--4--4--4--4--4--4--4--4--4--4--4--4--|
E|-8--8--8--8--8--8--8--8--8-----------------------|-------------------------------------------------|


E|-------------------------------------------------|-------------------------------------------------|
B|-------------------------------------------------|-------------------------------------------------|
G|-8--8--8--8--8--8--8--8--8--8--8--8--8--8--8--8--|-10-10-10-10-10-10-10-10-10-10-10-10-10-10-10-10-|
D|-8--8--8--8--8--8--8--8--8--8--8--8--8--8--8--8--|-10-10-10-10-10-10-10-10-10-10-10-10-10-10-10-10-|
A|-6--6--6--6--6--6--6--6--6--6--6--6--6--6--6--6--|-8--8--8--8--8--8--8--8--8--8--8--8--8--8--8--8--|
E|-------------------------------------------------|-------------------------------------------------|


E|-------------------------------------------------|-------------------------------------------------|
B|-------------------------------------------------|-------------------------------------------------|
G|-17-17-17-17-17-17-17-17-17-17-17-17-17-17-17-17-|-------------------------------------------------|
D|-17-17-17-17-17-17-17-17-17-17-17-17-17-17-17-17-|-6--6--6--6--6--6--6--6--6--6--6--6--6--6--6--6--|
A|-15-15-15-15-15-15-15-15-15-15-15-15-15-15-15-15-|-------------------------------------------------|
E|-------------------------------------------------|-------------------------------------------------|


E|-------------------------------------------------|-------------------------------------------------|
B|-------------------------------------------------|-------------------------------------------------|
G|-------------------------------------------------|-------------------------------------------------|
D|-5--5--5--5--5--5--5--5--5--5--5--5--5--5--5--5--|-3--3--3--3--3--3--3--3--3--3--3--3--3--3--3--3--|
A|-------------------------------------------------|-------------------------------------------------|
E|-------------------------------------------------|-------------------------------------------------|


E|-------------------------------------------------|-------------------------------------------------|
B|-------------------------------------------------|-------------------------------------------------|
G|-------------------------------------------------|-------------------------------------------------|
D|-3--3--3--3--3--3--3--3--3--3--3--3--3--3--3--3--|-------------------------------------------------|
A|-------------------------------------------------|-4--4--4--4--4--4--4--4--4--4--4--4--4--4--4--4--|
E|-------------------------------------------------|-------------------------------------------------|


E|-------------------------------------------------|-------------------------------------------------|
B|-------------------------------------------------|-------------------------------------------------|
G|-------------------------------------------------|-------------------------------------------------|
D|-------------------------------------------------|-------------------------------------------------|
A|-6--6--6--6--6--6--6--6--6--6--6--6--6--6--6--6--|-8--8--8--8--8--8--8--8--8--8--8--8--8--8--8--8--|
E|-------------------------------------------------|-------------------------------------------------|


E|--------------|
B|--------------|
G|--------------|
D|--------------|
A|-8------------|
E|--------------|





Track 2: Other guy

E|--------|--------|--------|--------|--------|--------|--------|--------|-------------------------------------------------|
B|--------|--------|--------|--------|--------|--------|--------|--------|-------------------------------------------------|
G|--------|--------|--------|--------|--------|--------|--------|--------|-17-17----17-17-17----17-17-17----17-17-17----17-|
D|--------|--------|--------|--------|--------|--------|--------|--------|-17-17----17-17-17----17-17-17----17-17-17----17-|
A|--------|--------|--------|--------|--------|--------|--------|--------|-15-15----15-15-15----15-15-15----15-15-15----15-|
E|--------|--------|--------|--------|--------|--------|--------|--------|-------------------------------------------------|


E|-------------------------------------------------|-------------------------------------------------|
B|-------------------------------------------------|-------------------------------------------------|
G|-17-17----17-17-17----17-17-17----17-17-17----17-|-17-17----17-17-17----17-17-17----17-17-17----17-|
D|-17-17----17-17-17----17-17-17----17-17-17----17-|-17-17----17-17-17----17-17-17----17-17-17----17-|
A|-15-15----15-15-15----15-15-15----15-15-15----15-|-15-15----15-15-15----15-15-15----15-15-15----15-|
E|-------------------------------------------------|-------------------------------------------------|


E|--------------|--------|--------|--------|--------|--------|--------|--------|--------|
B|--------------|--------|--------|--------|--------|--------|--------|--------|--------|
G|-17-----------|--------|--------|--------|--------|--------|--------|--------|--------|
D|-17-----------|--------|--------|--------|--------|--------|--------|--------|--------|
A|-15-----------|--------|--------|--------|--------|--------|--------|--------|--------|
E|--------------|--------|--------|--------|--------|--------|--------|--------|--------|


E|--------|-------------------------------------------------|-------------------------------------------------|
B|--------|-------------------------------------------------|-------------------------------------------------|
G|--------|-17-17----17-17-17----17-17-17----17-17-17----17-|-17-17----17-17-17----17-17-17----17-17-17----17-|
D|--------|-17-17----17-17-17----17-17-17----17-17-17----17-|-17-17----17-17-17----17-17-17----17-17-17----17-|
A|--------|-15-15----15-15-15----15-15-15----15-15-15----15-|-15-15----15-15-15----15-15-15----15-15-15----15-|
E|--------|-------------------------------------------------|-------------------------------------------------|


E|-------------------------------------------------|--------------|-------------------------------------------------|
B|-------------------------------------------------|--------------|-------------------------------------------------|
G|-17-17----17-17-17----17-17-17----17-17-17----17-|-17-----------|-17-17----17-17-17----17-17-17----17-17-17----17-|
D|-17-17----17-17-17----17-17-17----17-17-17----17-|-17-----------|-17-17----17-17-17----17-17-17----17-17-17----17-|
A|-15-15----15-15-15----15-15-15----15-15-15----15-|-15-----------|-15-15----15-15-15----15-15-15----15-15-15----15-|
E|-------------------------------------------------|--------------|-------------------------------------------------|


E|-------------------------------------------------|-------------------------------------------------|
B|-------------------------------------------------|-------------------------------------------------|
G|-17-17----17-17-17----17-17-17----17-17-17----17-|-17-17----17-17-17----17-17-17----17-17-17----17-|
D|-17-17----17-17-17----17-17-17----17-17-17----17-|-17-17----17-17-17----17-17-17----17-17-17----17-|
A|-15-15----15-15-15----15-15-15----15-15-15----15-|-15-15----15-15-15----15-15-15----15-15-15----15-|
E|-------------------------------------------------|-------------------------------------------------|


E|-------------------------------------------------|--------|--------|--------|--------|
B|-------------------------------------------------|--------|--------|--------|--------|
G|-17-17----17-17-17----17-18-18----18-18-18-18-18-|--------|--------|--------|--------|
D|-17-17----17-17-17----17-18-18----18-18-18-18-18-|--------|--------|--------|--------|
A|-15-15----15-15-15----15-15-15----15-15-15-15-15-|--------|--------|--------|--------|
E|-------------------------------------------------|--------|--------|--------|--------|


E|--------|--------|--------|--------|--------|--------|--------|--------|--------|
B|--------|--------|--------|--------|--------|--------|--------|--------|--------|
G|--------|--------|--------|--------|--------|--------|--------|--------|--------|
D|--------|--------|--------|--------|--------|--------|--------|--------|--------|
A|--------|--------|--------|--------|--------|--------|--------|--------|--------|
E|--------|--------|--------|--------|--------|--------|--------|--------|--------|


E|--------|--------|--------|--------|--------|--------|--------|--------|--------|
B|--------|--------|--------|--------|--------|--------|--------|--------|--------|
G|--------|--------|--------|--------|--------|--------|--------|--------|--------|
D|--------|--------|--------|--------|--------|--------|--------|--------|--------|
A|--------|--------|--------|--------|--------|--------|--------|--------|--------|
E|--------|--------|--------|--------|--------|--------|--------|--------|--------|


E|--------|--------|--------|--------|--------|--------|--------|--------|--------|
B|--------|--------|--------|--------|--------|--------|--------|--------|--------|
G|--------|--------|--------|--------|--------|--------|--------|--------|--------|
D|--------|--------|--------|--------|--------|--------|--------|--------|--------|
A|--------|--------|--------|--------|--------|--------|--------|--------|--------|
E|--------|--------|--------|--------|--------|--------|--------|--------|--------|


E|--------|--------------|--------|--------|--------|--------|--------|--------|--------|
B|--------|--------------|--------|--------|--------|--------|--------|--------|--------|
G|--------|-17-----------|--------|--------|--------|--------|--------|--------|--------|
D|--------|-17-----------|--------|--------|--------|--------|--------|--------|--------|
A|--------|-15-----------|--------|--------|--------|--------|--------|--------|--------|
E|--------|--------------|--------|--------|--------|--------|--------|--------|--------|





Track 3: Bass guy

G|--------|--------|--------|--------|-------------------------------------------------|
D|--------|--------|--------|--------|-6--6--6--6--6--6--6--6--6--6--6--6--6--6--6--6--|
A|--------|--------|--------|--------|-------------------------------------------------|
E|--------|--------|--------|--------|-------------------------------------------------|


G|-------------------------------------------------|-------------------------------------------------|
D|-5--5--5--5--5--5--5--5--5--5--5--5--5--5--5--5--|-3--3--3--3--3--3--3--3--3--3--3--3--3--3--3--3--|
A|-------------------------------------------------|-------------------------------------------------|
E|-------------------------------------------------|-------------------------------------------------|


G|-------------------------------------------------|-------------------------------------------------|
D|-3--3--3--3--3--3--3--3--3--3--3--3--3--3--3--3--|-------------------------------------------------|
A|-------------------------------------------------|-4--4--4--4--4--4--4--4--4--4--4--4--4--4--4--4--|
E|-------------------------------------------------|-------------------------------------------------|


G|-------------------------------------------------|-------------------------------------------------|
D|-------------------------------------------------|-------------------------------------------------|
A|-6--6--6--6--6--6--6--6--6--6--6--6--6--6--6--6--|-8--8--8--8--8--8--8--8--8--8--8--8--8--8--8--8--|
E|-------------------------------------------------|-------------------------------------------------|


G|--------------|-------------------------------------------------|-------------------------------------------------|
D|--------------|-------------------------------------------------|-------------------------------------------------|
A|-8------------|-4--4--4--4--4--4--4--4--4--4--4--4--4--4--4--4--|-6--6--6--6--6--6--6--6--6--6--6--6--6--6--6--6--|
E|--------------|-------------------------------------------------|-------------------------------------------------|


G|-------------------------------------------------|-------------------------------------------------|
D|-------------------------------------------------|-------------------------------------------------|
A|-8--8--8--8--8--8--8--8--8--8--8--8--8--8--8--8--|----------------------------11-11-11-11-10-10-10-|
E|-------------------------------------------------|-8--8--8--8--8--8--8--8--8-----------------------|


G|-------------------------------------------------|-------------------------------------------------|
D|-------------------------------------------------|-------------------------------------------------|
A|-4--4--4--4--4--4--4--4--4--4--4--4--4--4--4--4--|-6--6--6--6--6--6--6--6--6--6--6--6--6--6--6--6--|
E|-------------------------------------------------|-------------------------------------------------|


G|-------------------------------------------------|-------------------------------------------------|
D|-------------------------------------------------|-15-15-15-15-15-15-15-15-15-15-15-15-15-15-15-15-|
A|-8--8--8--8--8--8--8--8--8--8--8--8--8--8--8--8--|-------------------------------------------------|
E|-------------------------------------------------|-------------------------------------------------|


G|--------------|-------------------------------------------------|-------------------------------------------------|
D|-15-----------|-------------------------------------------------|-------------------------------------------------|
A|--------------|-4--4--4--4--4--4--4--4--4--4--4--4--4--4--4--4--|-6--6--6--6--6--6--6--6--6--6--6--6--6--6--6--6--|
E|--------------|-------------------------------------------------|-------------------------------------------------|


G|-------------------------------------------------|--------------|-------------------------------------------------|
D|-------------------------------------------------|--------------|-------------------------------------------------|
A|-8--8--8--8--8--8--8--8--8--8--8--8--8--8--8--8--|-8------------|-4--4--4--4--4--4--4--4--4--4--4--4--4--4--4--4--|
E|-------------------------------------------------|--------------|-------------------------------------------------|


G|-------------------------------------------------|-------------------------------------------------|
D|-------------------------------------------------|-------------------------------------------------|
A|-6--6--6--6--6--6--6--6--6--6--6--6--6--6--6--6--|-8--8--8--8--8--8--8--8--8--8--8--8--8--8--8--8--|
E|-------------------------------------------------|-------------------------------------------------|


G|--------------|-------------------------------------------------|-------------------------------------------------|
D|--------------|-------------------------------------------------|-------------------------------------------------|
A|-8------------|-4--4--4--4--4--4--4--4--4--4--4--4--4--4--4--4--|-6--6--6--6--6--6--6--6--6--6--6--6--6--6--6--6--|
E|--------------|-------------------------------------------------|-------------------------------------------------|


G|-------------------------------------------------|-------------------------------------------------|
D|-------------------------------------------------|-------------------------------------------------|
A|-8--8--8--8--8--8--8--8--8--8--8--8--8--8--8--8--|----------------------------11-11-11-11-10-10-10-|
E|-------------------------------------------------|-8--8--8--8--8--8--8--8--8-----------------------|


G|-------------------------------------------------|-------------------------------------------------|
D|-------------------------------------------------|-------------------------------------------------|
A|-4--4--4--4--4--4--4--4--4--4--4--4--4--4--4--4--|-6--6--6--6--6--6--6--6--6--6--6--6--6--6--6--6--|
E|-------------------------------------------------|-------------------------------------------------|


G|-------------------------------------------------|-------------------------------------------------|
D|-------------------------------------------------|-15-15-15-15-15-15-15-15-15-15-15-15-15-15-15-15-|
A|-8--8--8--8--8--8--8--8--8--8--8--8--8--8--8--8--|-------------------------------------------------|
E|-------------------------------------------------|-------------------------------------------------|


G|--------|--------|--------|--------|--------|--------|--------|--------|-------------------------------------------------|
D|--------|--------|--------|--------|--------|--------|--------|--------|-------------------------------------------------|
A|--------|--------|--------|--------|--------|--------|--------|--------|-4--4--4--4--4--4--4--4--4--4--4--4--4--4--4--4--|
E|--------|--------|--------|--------|--------|--------|--------|--------|-------------------------------------------------|


G|-------------------------------------------------|-------------------------------------------------|
D|-------------------------------------------------|-------------------------------------------------|
A|-6--6--6--6--6--6--6--6--6--6--6--6--6--6--6--6--|-8--8--8--8--8--8--8--8--8--8--8--8--8--8--8--8--|
E|-------------------------------------------------|-------------------------------------------------|


G|-------------------------------------------------|-------------------------------------------------|
D|-------------------------------------------------|-------------------------------------------------|
A|----------------------------11-11-11-11-10-10-10-|-4--4--4--4--4--4--4--4--4--4--4--4--4--4--4--4--|
E|-8--8--8--8--8--8--8--8--8-----------------------|-------------------------------------------------|


G|-------------------------------------------------|-------------------------------------------------|
D|-------------------------------------------------|-------------------------------------------------|
A|-6--6--6--6--6--6--6--6--6--6--6--6--6--6--6--6--|-8--8--8--8--8--8--8--8--8--8--8--8--8--8--8--8--|
E|-------------------------------------------------|-------------------------------------------------|


G|-------------------------------------------------|-------------------------------------------------|
D|-15-15-15-15-15-15-15-15-15-15-15-15-15-15-15-15-|-------------------------------------------------|
A|-------------------------------------------------|-4--4--4--4--4--4--4--4--4--4--4--4--4--4--4--4--|
E|-------------------------------------------------|-------------------------------------------------|


G|-------------------------------------------------|-------------------------------------------------|
D|-------------------------------------------------|-------------------------------------------------|
A|-6--6--6--6--6--6--6--6--6--6--6--6--6--6--6--6--|-8--8--8--8--8--8--8--8--8--8--8--8--8--8--8--8--|
E|-------------------------------------------------|-------------------------------------------------|


G|-------------------------------------------------|-------------------------------------------------|
D|-------------------------------------------------|-------------------------------------------------|
A|----------------------------11-11-11-11-10-10-10-|-4--4--4--4--4--4--4--4--4--4--4--4--4--4--4--4--|
E|-8--8--8--8--8--8--8--8--8-----------------------|-------------------------------------------------|


G|-------------------------------------------------|-------------------------------------------------|
D|-------------------------------------------------|-------------------------------------------------|
A|-6--6--6--6--6--6--6--6--6--6--6--6--6--6--6--6--|-8--8--8--8--8--8--8--8--8--8--8--8--8--8--8--8--|
E|-------------------------------------------------|-------------------------------------------------|


G|-------------------------------------------------|--------------|--------|--------|
D|-15-15-15-15-15-15-15-15-15-15-15-15-15-15-15-15-|-15-----------|--------|--------|
A|-------------------------------------------------|--------------|--------|--------|
E|-------------------------------------------------|--------------|--------|--------|


G|--------|--------|--------|--------|--------|
D|--------|--------|--------|--------|--------|
A|--------|--------|--------|--------|--------|
E|--------|--------|--------|--------|--------|





Track 4: Jared Leto (synth)

E|-------------------------------------------------|-------------------------------------------------|
B|-------------------------------------------------|-------------------------------------------------|
G|----------------------------------------------17-|----------------------------------------------17-|
D|-------17----18-17-15----18----15-17----15-------|-------17----18-17-15----18----15-17----15-------|
A|-------------------------------------------------|-------------------------------------------------|
E|-16-16----16----------16----16-------16----16----|-15-15----15----------15----15-------15----15----|


E|-------------------------------------------------|-------------------------------------------------|
B|-------------------------------------------------|-------------------------------------------------|
G|----------------------------------------------17-|----------------------------------------------17-|
D|-------17----18-17-15----18----15-17----15-------|-------17----18-17-15----18----15-17----15-------|
A|-------------------------------------------------|-------------------------------------------------|
E|-13-13----13----------13----13-------13----13----|-13-13----13----------13----13-------13----13----|


E|-------------------------------------------------|-------------------------------------------------|
B|-------------------------------------------------|-------------------------------------------------|
G|----------------------------------------------17-|----------------------------------------------17-|
D|-------17----18-17-15----18----15-17----15-------|-------17----18-17-15----18----15-17----15-------|
A|-------------------------------------------------|-------------------------------------------------|
E|-16-16----16----------16----16-------16----16----|-15-15----15----------15----15-------15----15----|


E|-------------------------------------------------|-------------------------------------------------|
B|-------------------------------------------------|-------------------------------------------------|
G|----------------------------------------------17-|----------------------------------------------17-|
D|-------17----18-17-15----18----15-17----15-------|-------17----18-17-15----18----15-17----15-------|
A|-------------------------------------------------|-------------------------------------------------|
E|-13-13----13----------13----13-------13----13----|-13-13----13----------13----13-------13----13----|


E|-------------------------------------------------|-------------------------------------------------|
B|-------------------------------------------------|-------------------------------------------------|
G|----------------------------------------------17-|----------------------------------------------17-|
D|-------17----18-17-15----18----15-17----15-------|-------17----18-17-15----18----15-17----15-------|
A|-------------------------------------------------|-------------------------------------------------|
E|-16-16----16----------16----16-------16----16----|-15-15----15----------15----15-------15----15----|


E|-------------------------------------------------|--------------|--------|--------|
B|-------------------------------------------------|--------------|--------|--------|
G|----------------------------------------------17-|--------------|--------|--------|
D|-------17----18-17-15----18----15-17----15-------|--------------|--------|--------|
A|-------------------------------------------------|--------------|--------|--------|
E|-13-13----13----------13----13-------13----13----|-13-----------|--------|--------|


E|--------|--------|--------|--------|--------|--------|-------------------------------------------------|
B|--------|--------|--------|--------|--------|--------|-------------------------------------------------|
G|--------|--------|--------|--------|--------|--------|----------------------------------------------17-|
D|--------|--------|--------|--------|--------|--------|-------17----18-17-15----18----15-17----15-------|
A|--------|--------|--------|--------|--------|--------|-------------------------------------------------|
E|--------|--------|--------|--------|--------|--------|-16-16----16----------16----16-------16----16----|


E|-------------------------------------------------|-------------------------------------------------|
B|-------------------------------------------------|-------------------------------------------------|
G|----------------------------------------------17-|----------------------------------------------17-|
D|-------17----18-17-15----18----15-17----15-------|-------17----18-17-15----18----15-17----15-------|
A|-------------------------------------------------|-------------------------------------------------|
E|-16-16----16----------16----16-------16----16----|-15-15----15----------15----15-------15----15----|


E|-------------------------------------------------|--------------|-------------------------------------------------|
B|-------------------------------------------------|--------------|-------------------------------------------------|
G|----------------------------------------------17-|--------------|----------------------------------------------17-|
D|-------17----18-17-15----18----15-17----15-------|--------------|-------17----18-17-15----18----15-17----15-------|
A|-------------------------------------------------|--------------|-------------------------------------------------|
E|-13-13----13----------13----13-------13----13----|-13-----------|-16-16----16----------16----16-------16----16----|


E|-------------------------------------------------|-------------------------------------------------|
B|-------------------------------------------------|-------------------------------------------------|
G|----------------------------------------------17-|----------------------------------------------17-|
D|-------17----18-17-15----18----15-17----15-------|-------17----18-17-15----18----15-17----15-------|
A|-------------------------------------------------|-------------------------------------------------|
E|-15-15----15----------15----15-------15----15----|-13-13----13----------13----13-------13----13----|


E|--------------|--------|--------|--------|--------|--------|--------|--------|--------|
B|--------------|--------|--------|--------|--------|--------|--------|--------|--------|
G|--------------|--------|--------|--------|--------|--------|--------|--------|--------|
D|--------------|--------|--------|--------|--------|--------|--------|--------|--------|
A|--------------|--------|--------|--------|--------|--------|--------|--------|--------|
E|-13-----------|--------|--------|--------|--------|--------|--------|--------|--------|


E|--------|--------|--------|--------|-------------------------------------------------|
B|--------|--------|--------|--------|-------------------------------------------------|
G|--------|--------|--------|--------|----------------------------------------------17-|
D|--------|--------|--------|--------|-------17----18-17-15----18----15-17----15-------|
A|--------|--------|--------|--------|-------------------------------------------------|
E|--------|--------|--------|--------|-16-16----16----------16----16-------16----16----|


E|-------------------------------------------------|-------------------------------------------------|
B|-------------------------------------------------|-------------------------------------------------|
G|----------------------------------------------17-|----------------------------------------------17-|
D|-------17----18-17-15----18----15-17----15-------|-------17----18-17-15----18----15-17----15-------|
A|-------------------------------------------------|-------------------------------------------------|
E|-15-15----15----------15----15-------15----15----|-13-13----13----------13----13-------13----13----|


E|--------------|--------|--------|--------|--------|--------|--------|--------|--------|
B|--------------|--------|--------|--------|--------|--------|--------|--------|--------|
G|--------------|--------|--------|--------|--------|--------|--------|--------|--------|
D|--------------|--------|--------|--------|--------|--------|--------|--------|--------|
A|--------------|--------|--------|--------|--------|--------|--------|--------|--------|
E|-13-----------|--------|--------|--------|--------|--------|--------|--------|--------|


E|--------|--------|--------|--------|--------|--------|--------|--------|-------------------------------------------------|
B|--------|--------|--------|--------|--------|--------|--------|--------|-------------------------------------------------|
G|--------|--------|--------|--------|--------|--------|--------|--------|----------------------------------------------17-|
D|--------|--------|--------|--------|--------|--------|--------|--------|-------17----18-17-15----18----15-17----15-------|
A|--------|--------|--------|--------|--------|--------|--------|--------|-------------------------------------------------|
E|--------|--------|--------|--------|--------|--------|--------|--------|-16-16----16----------16----16-------16----16----|


E|-------------------------------------------------|-------------------------------------------------|
B|-------------------------------------------------|-------------------------------------------------|
G|----------------------------------------------17-|----------------------------------------------17-|
D|-------17----18-17-15----18----15-17----15-------|-------17----18-17-15----18----15-17----15-------|
A|-------------------------------------------------|-------------------------------------------------|
E|-15-15----15----------15----15-------15----15----|-13-13----13----------13----13-------13----13----|


E|-------------------------------------------------|-------------------------------------------------|
B|-------------------------------------------------|-------------------------------------------------|
G|----------------------------------------------17-|----------------------------------------------17-|
D|-------17----18-17-15----18----15-17----15-------|-------17----18-17-15----18----15-17----15-------|
A|-------------------------------------------------|-------------------------------------------------|
E|-13-13----13----------13----13-------13----13----|-16-16----16----------16----16-------16----16----|


E|-------------------------------------------------|-------------------------------------------------|
B|-------------------------------------------------|-------------------------------------------------|
G|----------------------------------------------17-|----------------------------------------------17-|
D|-------17----18-17-15----18----15-17----15-------|-------17----18-17-15----18----15-17----15-------|
A|-------------------------------------------------|-------------------------------------------------|
E|-15-15----15----------15----15-------15----15----|-13-13----13----------13----13-------13----13----|


E|--------------|
B|--------------|
G|--------------|
D|--------------|
A|--------------|
E|-13-----------|





Track 5: More Jared Leto (synth)

E|-4------|-3------|-1------|-1------|-4------|-3------|-1------|-1------|-4------|
B|--------|--------|--------|--------|--------|--------|--------|--------|--------|
G|--------|--------|--------|--------|--------|--------|--------|--------|--------|
D|--------|--------|--------|--------|--------|--------|--------|--------|--------|
A|--------|--------|--------|--------|--------|--------|--------|--------|--------|
E|--------|--------|--------|--------|--------|--------|--------|--------|--------|


E|-3------|-1------|--------|--------|--------|--------|--------|--------|--------|
B|--------|--------|--------|--------|--------|--------|--------|--------|--------|
G|--------|--------|--------|--------|--------|--------|--------|--------|--------|
D|--------|--------|--------|--------|--------|--------|--------|--------|--------|
A|--------|--------|--------|--------|--------|--------|--------|--------|--------|
E|--------|--------|--------|--------|--------|--------|--------|--------|--------|


E|--------|--------|--------|-4------|-3------|-1------|-1------------|-4------|-3------|
B|--------|--------|--------|--------|--------|--------|--------------|--------|--------|
G|--------|--------|--------|--------|--------|--------|--------------|--------|--------|
D|--------|--------|--------|--------|--------|--------|--------------|--------|--------|
A|--------|--------|--------|--------|--------|--------|--------------|--------|--------|
E|--------|--------|--------|--------|--------|--------|--------------|--------|--------|


E|-1------|-1------------|--------|--------|--------|--------|--------|--------|--------|
B|--------|--------------|--------|--------|--------|--------|--------|--------|--------|
G|--------|--------------|--------|--------|--------|--------|--------|--------|--------|
D|--------|--------------|--------|--------|--------|--------|--------|--------|--------|
A|--------|--------------|--------|--------|--------|--------|--------|--------|--------|
E|--------|--------------|--------|--------|--------|--------|--------|--------|--------|


E|--------|--------|--------|--------|--------|--------|--------|--------|--------|
B|--------|--------|--------|--------|--------|--------|--------|--------|--------|
G|--------|--------|--------|--------|--------|--------|--------|--------|--------|
D|--------|--------|--------|--------|--------|--------|--------|--------|--------|
A|--------|--------|--------|--------|--------|--------|--------|--------|--------|
E|--------|--------|--------|--------|--------|--------|--------|--------|--------|


E|--------|--------|--------|--------|--------|--------|--------|--------|--------|
B|--------|--------|--------|--------|--------|--------|--------|--------|--------|
G|--------|--------|--------|--------|--------|--------|--------|--------|--------|
D|--------|--------|--------|--------|--------|--------|--------|--------|--------|
A|--------|--------|--------|--------|--------|--------|--------|--------|--------|
E|--------|--------|--------|--------|--------|--------|--------|--------|--------|


E|--------|--------|--------|--------|--------|--------|--------|--------|--------|
B|--------|--------|--------|--------|--------|--------|--------|--------|--------|
G|--------|--------|--------|--------|--------|--------|--------|--------|--------|
D|--------|--------|--------|--------|--------|--------|--------|--------|--------|
A|--------|--------|--------|--------|--------|--------|--------|--------|--------|
E|--------|--------|--------|--------|--------|--------|--------|--------|--------|


E|--------|--------|--------|--------|--------|--------|
B|--------|--------|--------|--------|--------|--------|
G|--------|--------|--------|--------|--------|--------|
D|--------|--------|--------|--------|--------|--------|
A|--------|--------|--------|--------|--------|--------|
E|--------|--------|--------|--------|--------|--------|





Track 6: Bass guy

G|--------|--------|--------|--------|--------|--------|--------|--------|--------|
D|--------|--------|--------|--------|--------|--------|--------|--------|--------|
A|--------|--------|--------|--------|--------|--------|--------|--------|--------|
E|--------|--------|--------|--------|--------|--------|--------|--------|--------|


G|--------|--------|--------|--------|--------|--------|--------|--------|--------|
D|--------|--------|--------|--------|--------|--------|--------|--------|--------|
A|--------|--------|--------|--------|--------|--------|--------|--------|--------|
E|--------|--------|--------|--------|--------|--------|--------|--------|--------|


G|--------|--------|--------|--------|--------|--------|--------|--------|--------|
D|--------|--------|--------|--------|--------|--------|--------|--------|--------|
A|--------|--------|--------|--------|--------|--------|--------|--------|--------|
E|--------|--------|--------|--------|--------|--------|--------|--------|--------|


G|--------|--------|--------|--------|--------|--------|--------|--------|--------|
D|--------|--------|--------|--------|--------|--------|--------|--------|--------|
A|--------|--------|--------|--------|--------|--------|--------|--------|--------|
E|--------|--------|--------|--------|--------|--------|--------|--------|--------|


G|--------|--------|--------|--------|--------|--------|--------|--------|--------|
D|--------|--------|--------|--------|--------|--------|--------|--------|--------|
A|--------|--------|--------|--------|--------|--------|--------|--------|--------|
E|--------|--------|--------|--------|--------|--------|--------|--------|--------|


G|--------|--------|--------|--------|--------|--------|--------|--------|--------|
D|--------|--------|--------|--------|--------|--------|--------|--------|--------|
A|--------|--------|--------|--------|--------|--------|--------|--------|--------|
E|--------|--------|--------|--------|--------|--------|--------|--------|--------|


G|--------|--------|--------|--------|--------|--------|--------|--------|--------|
D|--------|--------|--------|--------|--------|--------|--------|--------|--------|
A|--------|--------|--------|--------|--------|--------|--------|--------|--------|
E|--------|--------|--------|--------|--------|--------|--------|--------|--------|


G|--------|--------|--------|--------|--------|--------|
D|--------|--------|--------|--------|--------|--------|
A|--------|--------|--------|--------|--------|--------|
E|--------|--------|--------|--------|--------|--------|





Track 7: Random end effect

E|--------|--------|--------|--------|--------|--------|--------|--------|--------|
B|--------|--------|--------|--------|--------|--------|--------|--------|--------|
G|--------|--------|--------|--------|--------|--------|--------|--------|--------|
D|--------|--------|--------|--------|--------|--------|--------|--------|--------|
A|--------|--------|--------|--------|--------|--------|--------|--------|--------|
E|--------|--------|--------|--------|--------|--------|--------|--------|--------|


E|--------|--------|--------|--------|--------|--------|--------|--------|--------|
B|--------|--------|--------|--------|--------|--------|--------|--------|--------|
G|--------|--------|--------|--------|--------|--------|--------|--------|--------|
D|--------|--------|--------|--------|--------|--------|--------|--------|--------|
A|--------|--------|--------|--------|--------|--------|--------|--------|--------|
E|--------|--------|--------|--------|--------|--------|--------|--------|--------|


E|--------|--------|--------|--------|--------|--------|--------|--------|--------|
B|--------|--------|--------|--------|--------|--------|--------|--------|--------|
G|--------|--------|--------|--------|--------|--------|--------|--------|--------|
D|--------|--------|--------|--------|--------|--------|--------|--------|--------|
A|--------|--------|--------|--------|--------|--------|--------|--------|--------|
E|--------|--------|--------|--------|--------|--------|--------|--------|--------|


E|--------|--------|--------|--------|--------|--------|--------|--------|--------|
B|--------|--------|--------|--------|--------|--------|--------|--------|--------|
G|--------|--------|--------|--------|--------|--------|--------|--------|--------|
D|--------|--------|--------|--------|--------|--------|--------|--------|--------|
A|--------|--------|--------|--------|--------|--------|--------|--------|--------|
E|--------|--------|--------|--------|--------|--------|--------|--------|--------|


E|--------|--------|--------|--------|--------|--------|--------|--------|--------|
B|--------|--------|--------|--------|--------|--------|--------|--------|--------|
G|--------|--------|--------|--------|--------|--------|--------|--------|--------|
D|--------|--------|--------|--------|--------|--------|--------|--------|--------|
A|--------|--------|--------|--------|--------|--------|--------|--------|--------|
E|--------|--------|--------|--------|--------|--------|--------|--------|--------|


E|--------|--------|--------|--------|--------|--------|--------|--------|--------|
B|--------|--------|--------|--------|--------|--------|--------|--------|--------|
G|--------|--------|--------|--------|--------|--------|--------|--------|--------|
D|--------|--------|--------|--------|--------|--------|--------|--------|--------|
A|--------|--------|--------|--------|--------|--------|--------|--------|--------|
E|--------|--------|--------|--------|--------|--------|--------|--------|--------|


E|--------|--------|--------|--------|--------|--------|--------|--------|--------|
B|--------|--------|--------|--------|--------|--------|--------|--------|--------|
G|--------|--------|--------|--------|--------|--------|--------|--------|--------|
D|--------|--------|--------|--------|--------|--------|--------|--------|--------|
A|--------|--------|--------|--------|--------|--------|--------|--------|--------|
E|--------|--------|--------|--------|--------|--------|--------|--------|--------|


E|--------|--------|--------|--------|--------|-0-----------|
B|--------|--------|--------|--------|--------|-0-----------|
G|--------|--------|--------|--------|--------|-------------|
D|--------|--------|--------|--------|--------|-------------|
A|--------|--------|--------|--------|--------|-------------|
E|--------|--------|--------|--------|--------|-------------|