Site menu:

    

Browse: 0-9 A B C D E F G H I J K L N O P Q R S T U V W X Y Z

3 inches of blood - deadly sinners:



Title: Deadly Sinners
Artist: 
Album: Advance And Vanquish
Author: 3 Inches of Blood


Track 1: Guitar 1

E|---------------------------------|---------------------------------|---------------------------------|
B|---------------------------------|---------------------------------|---------------------------------|
G|---------------------------------|---------------------------------|---------------------------------|
D|---------12------10------9-------|-7-------9-------5---5-------7---|-7-------12------10------9-------|
A|-0---0-------0-------0-------0---|-----0-------0-----------0-------|-----0-------0-------0-------0---|
E|---------------------------------|---------------------------------|---------------------------------|


E|---------------------------------|---------------------------------|---------------------------------|
B|---------------------------------|---------------------------------|---------------------------------|
G|---------------------------------|---------------------------------|---------------------------------|
D|-7-------9-------6---6-------7---|-7-------12------10------9-------|-7-------9-------5---5-------7---|
A|-----0-------0-----------0-------|-----0-------0-------0-------0---|-----0-------0-----------0-------|
E|---------------------------------|---------------------------------|---------------------------------|


E|---------------------------------|---------------------------------|---------------------------------|
B|---------------------------------|---------------------------------|---------------------------------|
G|---------------------------------|---------------------------------|---------------------------------|
D|-7-------12------10------9-------|-7-------9-------6---6-------7---|-7-------12------10------9-------|
A|-----0-------0-------0-------0---|-----0-------0---6---6---0---7---|-7---0-------0-------0-------0---|
E|---------------------------------|---------------------------------|---------------------------------|


E|---------------------------------|---------------------------------|---------------------------------|
B|---------------------------------|---------------------------------|---------------------------------|
G|---------------------------------|---------------------------------|---------------------------------|
D|-7-------9-------5---5-------7---|-7-------12------10------9-------|-7-------9-------6---6-------7---|
A|-----0-------0-----------0-------|-----0-------0-------0-------0---|-----0-------0---6---6---0---7---|
E|---------------------------------|---------------------------------|---------------------------------|


E|---------------------------------|---------------------------------|---------------------------------|
B|---------------------------------|---------------------------------|---------------------------------|
G|---------------------------------|---------------------------------|---------------------------------|
D|-7-------12------10------9-------|-7-------9-------5---5-------7---|-7-------12------10------9-------|
A|-7---0-------0-------0-------0---|-----0-------0-----------0-------|-----0-------0-------0-------0---|
E|---------------------------------|---------------------------------|---------------------------------|


E|---------------------------------|---------------------------------|---------------------------------|
B|---------------------------------|---------------------------------|---------------------------------|
G|---------------------------------|---------------------------------|---------------------------------|
D|-7-------9-------6---6-------7---|-7-------12------10------9-------|-7-------9-------5---5-------7---|
A|-----0-------0---6---6---0---7---|-7---0-------0-------0-------0---|-----0-------0-----------0-------|
E|---------------------------------|---------------------------------|---------------------------------|


E|---------------------------------|---------------------------------|---------------------------------|
B|---------------------------------|---------------------------------|---------------------------------|
G|---------------------------------|---------------------------------|---------------------------------|
D|-7-------12------10------9-------|-7-------9-------6---6-------7---|-7-------12------10------9-------|
A|-----0-------0-------0-------0---|-----0-------0---6---6---0---7---|-7---0-------0-------0-------0---|
E|---------------------------------|---------------------------------|---------------------------------|


E|---------------------------------|---------------------------------|---------------------------------|
B|---------------------------------|---------------------------------|---------------------------------|
G|---------------------------------|---------------------------------|---------------------------------|
D|-7-------9-------5---5-------7---|-7-------12------10------9-------|-7-------9-------6---6-------7---|
A|-----0-------0-----------0-------|-----0-------0-------0-------0---|-----0-------0---6---6---0---7---|
E|---------------------------------|---------------------------------|---------------------------------|


E|---------------------------------|---------------------------------|---------------------------------|
B|---------------------------------|---------------------------------|---------------------------------|
G|---------------------------------|---------------------------------|---------------------------------|
D|-7-------12------10------9-------|-7-------9-------5---5-------7---|-7-------12------10------9-------|
A|-7---0-------0-------0-------0---|-----0-------0-----------0-------|-----0-------0-------0-------0---|
E|---------------------------------|---------------------------------|---------------------------------|


E|---------------------------------|---------------------------------|---------------------------------|
B|---------------------------------|---------------------------------|---------------------------------|
G|---------------------------------|---------------------------------|---------------------------------|
D|-7-------9-------6---6-------7---|-7-------12------10------9-------|-7-------9-------5---5-------7---|
A|-----0-------0---6---6---0---7---|-7---0-------0-------0-------0---|-----0-------0-----------0-------|
E|---------------------------------|---------------------------------|---------------------------------|


E|---------------------------------|---------------------------------|----------------------------------|
B|---------------------------------|---------------------------------|----------------------------------|
G|---------------------------------|---------------------------------|----------------------------------|
D|-7-------12------10------9-------|-7-------9-------6---6-------7---|-7--------------7-----------------|
A|-----0-------0-------0-------0---|-----0-------0---6---6---0---7---|-7----0--0--0-------7---0--0--0---|
E|---------------------------------|-----------------------------5---|-5--------------------------------|


E|--------------------------------|----------------------------------|--------------------------------|
B|--------------------------------|----------------------------------|--------------------------------|
G|--------------------------------|----------------------------------|--------------------------------|
D|-10----------------12-------7---|-7--------------7-----------------|-10--------------------5----7---|
A|-----8---0--0--0-------11---7---|-7----0--0--0-------7---0--0--0---|-----8---0--0--0---0---5----7---|
E|----------------------------5---|-5--------------------------------|-----------------------3----5---|


E|----------------------------------|--------------------------------|----------------------------------|
B|----------------------------------|--------------------------------|----------------------------------|
G|----------------------------------|--------------------------------|----------------------------------|
D|-7--------------7-----------------|-10----------------12-------7---|-7--------------7-----------------|
A|-7----0--0--0-------7---0--0--0---|-----8---0--0--0-------11---7---|-7----0--0--0-------7---0--0--0---|
E|-5--------------------------------|----------------------------5---|-5--------------------------------|


E|--------------------------------|----------------------------------|--------------------------------|
B|--------------------------------|----------------------------------|--------------------------------|
G|--------------------------------|----------------------------------|--------------------------------|
D|-10--------------------5----7---|-7--------------7-----------------|-10----------------12-------7---|
A|-----8---0--0--0---0---5----7---|-7----0--0--0-------7---0--0--0---|-----8---0--0--0-------11---7---|
E|-----------------------3----5---|-5--------------------------------|----------------------------5---|


E|----------------------------------|--------------------------------|----------------------------------|
B|----------------------------------|--------------------------------|----------------------------------|
G|----------------------------------|--------------------------------|----------------------------------|
D|-7--------------7-----------------|-10--------------------5----7---|-7--------------7-----------------|
A|-7----0--0--0-------7---0--0--0---|-----8---0--0--0---0---5----7---|-7----0--0--0-------7---0--0--0---|
E|-5--------------------------------|-----------------------3----5---|-5--------------------------------|


E|--------------------------------|----------------------------------|------------------------------|
B|--------------------------------|----------------------------------|------------------------------|
G|--------------------------------|----------------------------------|-----------------7---7----9---|
D|-10----------------12-------7---|-7--------------7-----------------|-10--------------5---5----7---|
A|-----8---0--0--0-------11---7---|-7----0--0--0-------7---0--0--0---|-----8---0---0----------------|
E|----------------------------5---|-5--------------------------------|------------------------------|


E|--------|--------------------|--------|--------------------|--------|--------------------|
B|--------|--------------------|--------|--------------------|--------|--------------------|
G|-9------|-9-----7---7----9---|-9------|-9-----7---7----5---|-5------|-5-----7---7----9---|
D|-7------|-7-----5---5----7---|-7------|-7-----5---5----3---|-3------|-3-----5---5----7---|
A|--------|--------------------|--------|--------------------|--------|--------------------|
E|--------|--------------------|--------|--------------------|--------|--------------------|


E|--------|--------------------|--------|--------------------|--------|--------------------|
B|--------|--------------------|--------|--------------------|--------|--------------------|
G|-9------|-9-----7---7----9---|-9------|-9-----7---7----9---|-9------|-9-----7---7----5---|
D|-7------|-7-----5---5----7---|-7------|-7-----5---5----7---|-7------|-7-----5---5----3---|
A|--------|--------------------|--------|--------------------|--------|--------------------|
E|--------|--------------------|--------|--------------------|--------|--------------------|


E|--------|--------------------|--------|-----------------------|---------------------------|
B|--------|--------------------|--------|-----------------------|---------------------------|
G|-5------|-5-----7---7----9---|-9------|-9-----7---7---7---9---|-9-------------------------|
D|-3------|-3-----5---5----7---|-7------|-7-----5---5---5---7---|-7---7---7---5---7----10---|
A|--------|--------------------|--------|-----------------------|---------------------------|
E|--------|--------------------|--------|-----------------------|---------------------------|


E|---------------------------|---------------------------|---------------------------|
B|---------------------------|---------------------------|---------------------------|
G|-----------7---7-------9---|-9-------------------------|-----------7---7-------5---|
D|-9----5----5---5-------7---|-7---7---7---5---7----10---|-9----5----5---5-------3---|
A|-------------------0-------|---------------------------|-------------------0-------|
E|---------------------------|---------------------------|---------------------------|


E|---------------------------|---------------------------|---------------------------|
B|---------------------------|---------------------------|---------------------------|
G|-5-------------------------|-----------7---7-------9---|-9-------------------------|
D|-3---7---7---5---7----10---|-9----5----5---5-------7---|-7---7---7---5---7----10---|
A|---------------------------|-------------------0-------|---------------------------|
E|---------------------------|---------------------------|---------------------------|


E|---------------------------|---------------------------|---------------------------|
B|---------------------------|---------------------------|---------------------------|
G|-----------7---7-------9---|-9-------------------------|-----------7---7-------9---|
D|-9----5----5---5-------7---|-7---7---7---5---7----10---|-9----5----5---5-------7---|
A|-------------------0-------|---------------------------|-------------------0-------|
E|---------------------------|---------------------------|---------------------------|


E|---------------------------|---------------------------|---------------------------|
B|---------------------------|---------------------------|---------------------------|
G|-9-------------------------|-----------7---7-------5---|-5-------------------------|
D|-7---7---7---5---7----10---|-9----5----5---5-------3---|-3---7---7---5---7----10---|
A|---------------------------|-------------------0-------|---------------------------|
E|---------------------------|---------------------------|---------------------------|


E|---------------------------|---------------------------|---------------------------|
B|---------------------------|---------------------------|---------------------------|
G|-----------7---7-------9---|-9-------------------------|-----------7---7-------2---|
D|-9----5----5---5-------7---|-7---7---7---5---7----10---|-9----5----5---5-------2---|
A|-------------------0-------|---------------------------|-------------------0---0---|
E|---------------------------|---------------------------|---------------------------|


E|-----------------------------------------------|-----------------------------------------------|
B|-----------------------------------------------|-----------------------------------------------|
G|-2---------------------------------------------|-2---------------------------------------------|
D|-2---------------------------------------------|-2---------------------------------------------|
A|-0---0--0--0--0--0--0--0--0--0--0--0--0--0--0--|-0---0--0--0--0--0--0--0--0--0--0--0--0--0--0--|
E|-----------------------------------------------|-----------------------------------------------|


E|-----------------------------------------------|-----------------------------------------------|
B|-----------------------------------------------|-----------------------------------------------|
G|-----------------------------------------------|-----------------------------------------------|
D|-3---------------------------------------------|-----------------------------------------------|
A|-3---------------------------------------------|-2---2--2--2--2--2--2--3--2--0--2--3--2--0--2--|
E|-1---1--1--1--1--1--1--1--1--1--1--1--1--1--1--|-----------------------------------------------|


E|-----------------------------------------------|-----------------------------------------------|
B|-----------------------------------------------|-----------------------------------------------|
G|-2---------------------------------------------|-2---------------------------------------------|
D|-2---------------------------------------------|-2---------------------------------------------|
A|-0---0--0--0--0--0--0--0--0--0--0--0--0--0--0--|-0---0--0--0--0--0--0--0--0--0--0--0--0--0--0--|
E|-----------------------------------------------|-----------------------------------------------|


E|-----------------------------------------------|-----------------------------------------------|
B|-----------------------------------------------|-----------------------------------------------|
G|-----------------------------------------------|-----------------------------------------------|
D|-3---------------------------------------------|-----------------------------------------------|
A|-3---------------------------------------------|-2---2--2--2--2--2--2--3--2--0--2--3--2--0--2--|
E|-1---1--1--1--1--1--1--1--1--1--1--1--1--1--1--|-----------------------------------------------|


E|-----------------------------------------------|-----------------------------------------------|
B|-----------------------------------------------|-----------------------------------------------|
G|-2---------------------------------------------|-2---------------------------------------------|
D|-2---------------------------------------------|-2---------------------------------------------|
A|-0---0--0--0--0--0--0--0--0--0--0--0--0--0--0--|-0---0--0--0--0--0--0--0--0--0--0--0--0--0--0--|
E|-----------------------------------------------|-----------------------------------------------|


E|-----------------------------------------------|-----------------------------------------------|
B|-----------------------------------------------|-----------------------------------------------|
G|-----------------------------------------------|-----------------------------------------------|
D|-3---------------------------------------------|-----------------------------------------------|
A|-3---------------------------------------------|-2---2--2--2--2--2--2--3--2--0--2--3--2--0--2--|
E|-1---1--1--1--1--1--1--1--1--1--1--1--1--1--1--|-----------------------------------------------|


E|-----------------------------------------------|-----------------------------------------------|
B|-----------------------------------------------|-----------------------------------------------|
G|-2---------------------------------------------|-2---------------------------------------------|
D|-2---------------------------------------------|-2---------------------------------------------|
A|-0---0--0--0--0--0--0--0--0--0--0--0--0--0--0--|-0---0--0--0--0--0--0--0--0--0--0--0--0--0--0--|
E|-----------------------------------------------|-----------------------------------------------|


E|-----------------------------------------------|-----------------------------------------------|
B|-----------------------------------------------|-----------------------------------------------|
G|-----------------------------------------------|-----------------------------------------------|
D|-3---------------------------------------------|-----------------------------------------------|
A|-3---------------------------------------------|-2---2--2--2--2--2--2--3--2--0--2--3--2--0--2--|
E|-1---1--1--1--1--1--1--1--1--1--1--1--1--1--1--|-----------------------------------------------|


E|---------------------------------|------------------------------|---------------------------------|
B|---------------------------------|------------------------------|---------------------------------|
G|-5---4---5---7---7---5---4---5---|-5---4-------4----------------|-5---4---5---7---7---5---4---5---|
D|---------------------------------|---------7-------7---5--------|---------------------------------|
A|---------------------------------|-------------------------7----|---------------------------------|
E|---------------------------------|------------------------------|---------------------------------|


E|------------------------------|---------------------------------|------------------------------|
B|------------------------------|---------------------------------|------------------------------|
G|-5---4-------4----------------|-5---4---5---7---7---5---4---5---|-5---4-------4----------------|
D|---------7-------7---5--------|---------------------------------|---------7-------7---5--------|
A|-------------------------7----|---------------------------------|-------------------------7----|
E|------------------------------|---------------------------------|------------------------------|


E|---------------------------------|------------------------------|---------------------------------|
B|---------------------------------|------------------------------|---------------------------------|
G|-5---4---5---7---7---5---4---5---|-5---4-------4----------------|-----4---5---4---4---5---7-------|
D|---------------------------------|---------7-------7---5--------|-7---------------------------7---|
A|---------------------------------|-------------------------7----|---------------------------------|
E|---------------------------------|------------------------------|---------------------------------|


E|------------------------------|---------------------------------|------------------------------|
B|------------------------------|---------------------------------|------------------------------|
G|-----4---5-----------4--------|-----4---5---4---4---5---7-------|-----4---5-----------4--------|
D|-7-----------5---7------------|-7---------------------------7---|-7-----------5---7------------|
A|-------------------------7----|---------------------------------|-------------------------7----|
E|------------------------------|---------------------------------|------------------------------|


E|---------------------------------|------------------------------|---------------------------------|
B|---------------------------------|------------------------------|---------------------------------|
G|-----4---5---4---4---5---7-------|-----4---5-----------4--------|-----4---5---4---4---5---7-------|
D|-7---------------------------7---|-7-----------5---7------------|-7---------------------------7---|
A|---------------------------------|-------------------------7----|---------------------------------|
E|---------------------------------|------------------------------|---------------------------------|


E|------------------------------|---------------------------------|------------------------------|
B|------------------------------|---------------------------------|------------------------------|
G|-----4---5-----------4--------|-----4---5---4---4---5---7-------|-----4---5-----------4--------|
D|-7-----------5---7------------|-7---------------------------7---|-7-----------5---7------------|
A|-------------------------7----|---------------------------------|-------------------------7----|
E|------------------------------|---------------------------------|------------------------------|


E|---------------------------------|------------------------------|---------------------------------|
B|---------------------------------|------------------------------|---------------------------------|
G|-----4---5---4---4---5---7-------|-----4---5-----------4--------|-----4---5---4---4---5---7-------|
D|-7---------------------------7---|-7-----------5---7------------|-7---------------------------7---|
A|---------------------------------|-------------------------7----|---------------------------------|
E|---------------------------------|------------------------------|---------------------------------|


E|------------------------------|---------------------------------|------------------------------|
B|------------------------------|---------------------------------|------------------------------|
G|-----4---5-----------4--------|-----4---5---4---4---5---7-------|-----4---5-----------4--------|
D|-7-----------5---7------------|-7---------------------------7---|-7-----------5---7------------|
A|-------------------------7----|---------------------------------|-------------------------7----|
E|------------------------------|---------------------------------|------------------------------|


E|-----------------------------------------|----------------------------------|---------------------------------|
B|-----------------------------------------|----------------------------------|---------------------------------|
G|-2---2---------------2---2---------------|-2---2---------------2--------2---|-2-------------------------------|
D|-2---2---------------2---2---------------|-2---2---------------2---5----2---|-2-------------------------------|
A|-0---0---0--0--0--0--0---0---0--0--0--0--|-0---0---0--0--0--0--0---5----0---|-0---0---7---5---5---3---3---0---|
E|-----------------------------------------|-------------------------3--------|---------------------------------|


E|-----------------------------------------|---------------------------------------------|
B|-----------------------------------------|---------------------------------------------|
G|-----------------------------------------|---------------------------------------------|
D|-------------------------5---5-------3---|-3-------------------2---3---5---------------|
A|-5---3---0---5---3---0---5---5-------3---|-3-------0---2---3---------------0---0---0---|
E|-------------------------3---3---0---1---|-1---1---------------------------------------|


E|-------------------------------|-------------------------------------------------|
B|-------------------------------|-6---5---3---5---3-------3-----------------------|
G|-------------------------------|---------------------5-------5---4---5---4---0---|
D|-3---2---0---------------------|-------------------------------------------------|
A|-------------------------------|-------------------------------------------------|
E|-------------4---0---4---------|-------------------------------------------------|


E|-------------------------------------------------|-------------------------------------------------|
B|-5---3-------3-----------------------------------|-3-----------------------------------------------|
G|---------5-------5---4---5---4---2---4---2---0---|-----5---4---5---4---2---4---2---0---4---2---0---|
D|-------------------------------------------------|-------------------------------------------------|
A|-------------------------------------------------|-------------------------------------------------|
E|-------------------------------------------------|-------------------------------------------------|


E|---------------------------|----------------|----------------------------------|
B|---------------------------|------------8---|-10--8------8---------------------|
G|-5---4---2---4--5----4-----|-5------5-------|---------9-----9--7--7----7----5--|
D|---------------------------|----------------|----------------------------------|
A|---------------------------|----------------|----------------------------------|
E|---------------------------|----------------|----------------------------------|


E|---------------------------|-3--5--3---------5---5-----|----------------------------------|
B|---------------------------|----------5--5-------------|----------------------------------|
G|-5-----5-------4---5---7---|---------------------------|----------------------------------|
D|-----------5---------------|---------------------------|-7--------------7-----------------|
A|---------------------------|---------------------------|-7----0--0--0-------7---0--0--0---|
E|---------------------------|---------------------------|-5--------------------------------|


E|--------------------------------|----------------------------------|--------------------------------|
B|--------------------------------|----------------------------------|--------------------------------|
G|--------------------------------|----------------------------------|--------------------------------|
D|-10----------------12-------7---|-7--------------7-----------------|-10--------------------5----7---|
A|-----8---0--0--0-------11---7---|-7----0--0--0-------7---0--0--0---|-----8---0--0--0---0---5----7---|
E|----------------------------5---|-5--------------------------------|-----------------------3----5---|


E|----------------------------------|--------------------------------|----------------------------------|
B|----------------------------------|--------------------------------|----------------------------------|
G|----------------------------------|--------------------------------|----------------------------------|
D|-7--------------7-----------------|-10----------------12-------7---|-7--------------7-----------------|
A|-7----0--0--0-------7---0--0--0---|-----8---0--0--0-------11---7---|-7----0--0--0-------7---0--0--0---|
E|-5--------------------------------|----------------------------5---|-5--------------------------------|


E|--------------------------------|----------------------------------|--------------------------------|
B|--------------------------------|----------------------------------|--------------------------------|
G|--------------------------------|----------------------------------|--------------------------------|
D|-10--------------------5----7---|-7--------------7-----------------|-10----------------12-------7---|
A|-----8---0--0--0---0---5----7---|-7----0--0--0-------7---0--0--0---|-----8---0--0--0-------11---7---|
E|-----------------------3----5---|-5--------------------------------|----------------------------5---|


E|----------------------------------|--------------------------------|----------------------------------|
B|----------------------------------|--------------------------------|----------------------------------|
G|----------------------------------|--------------------------------|----------------------------------|
D|-7--------------7-----------------|-10--------------------5----7---|-7--------------7-----------------|
A|-7----0--0--0-------7---0--0--0---|-----8---0--0--0---0---5----7---|-7----0--0--0-------7---0--0--0---|
E|-5--------------------------------|-----------------------3----5---|-5--------------------------------|


E|--------------------------------|----------------------------------|------------------------------|
B|--------------------------------|----------------------------------|------------------------------|
G|--------------------------------|----------------------------------|-----------------7---7----9---|
D|-10----------------12-------7---|-7--------------7-----------------|-10--------------5---5----7---|
A|-----8---0--0--0-------11---7---|-7----0--0--0-------7---0--0--0---|-----8---0---0----------------|
E|----------------------------5---|-5--------------------------------|------------------------------|


E|--------|--------------------|--------|--------------------|--------|--------------------|
B|--------|--------------------|--------|--------------------|--------|--------------------|
G|-9------|-9-----7---7----9---|-9------|-9-----7---7----5---|-5------|-5-----7---7----9---|
D|-7------|-7-----5---5----7---|-7------|-7-----5---5----3---|-3------|-3-----5---5----7---|
A|--------|--------------------|--------|--------------------|--------|--------------------|
E|--------|--------------------|--------|--------------------|--------|--------------------|


E|--------|--------------------|--------|--------------------|--------|--------------------|
B|--------|--------------------|--------|--------------------|--------|--------------------|
G|-9------|-9-----7---7----9---|-9------|-9-----7---7----9---|-9------|-9-----7---7----5---|
D|-7------|-7-----5---5----7---|-7------|-7-----5---5----7---|-7------|-7-----5---5----3---|
A|--------|--------------------|--------|--------------------|--------|--------------------|
E|--------|--------------------|--------|--------------------|--------|--------------------|


E|--------|--------------------|--------|-----------------------|---------------------------|
B|--------|--------------------|--------|-----------------------|---------------------------|
G|-5------|-5-----7---7----9---|-9------|-9-----7---7---7---9---|-9-------------------------|
D|-3------|-3-----5---5----7---|-7------|-7-----5---5---5---7---|-7---7---7---5---7----10---|
A|--------|--------------------|--------|-----------------------|---------------------------|
E|--------|--------------------|--------|-----------------------|---------------------------|


E|---------------------------|---------------------------|---------------------------|
B|---------------------------|---------------------------|---------------------------|
G|-----------7---7-------9---|-9-------------------------|-----------7---7-------5---|
D|-9----5----5---5-------7---|-7---7---7---5---7----10---|-9----5----5---5-------3---|
A|-------------------0-------|---------------------------|-------------------0-------|
E|---------------------------|---------------------------|---------------------------|


E|---------------------------|---------------------------|---------------------------|
B|---------------------------|---------------------------|---------------------------|
G|-5-------------------------|-----------7---7-------9---|-9-------------------------|
D|-3---7---7---5---7----10---|-9----5----5---5-------7---|-7---7---7---5---7----10---|
A|---------------------------|-------------------0-------|---------------------------|
E|---------------------------|---------------------------|---------------------------|


E|---------------------------|---------------------------|---------------------------|
B|---------------------------|---------------------------|---------------------------|
G|-----------7---7-------9---|-9-------------------------|-----------7---7-------9---|
D|-9----5----5---5-------7---|-7---7---7---5---7----10---|-9----5----5---5-------7---|
A|-------------------0-------|---------------------------|-------------------0-------|
E|---------------------------|---------------------------|---------------------------|


E|---------------------------|---------------------------|---------------------------|
B|---------------------------|---------------------------|---------------------------|
G|-9-------------------------|-----------7---7-------5---|-5-------------------------|
D|-7---7---7---5---7----10---|-9----5----5---5-------3---|-3---7---7---5---7----10---|
A|---------------------------|-------------------0-------|---------------------------|
E|---------------------------|---------------------------|---------------------------|


E|---------------------------|---------------------------|---------------------------|
B|---------------------------|---------------------------|---------------------------|
G|-----------7---7-------9---|-9-------------------------|-----------7---7-------9---|
D|-9----5----5---5-------7---|-7---7---7---5---7----10---|-9----5----5---5-------7---|
A|-------------------0-------|---------------------------|-------------------0---7---|
E|---------------------------|---------------------------|---------------------------|


E|-------------|----------------|--------|----------------|----------------|---------------------|
B|-------------|----------------|--------|----------------|----------------|---------------------|
G|-9-----------|------------2---|-2------|-2------2-------|----------------|-----------------2---|
D|-7-----------|------------2---|-2------|-2------2---5---|-5------5-------|-------3---3-----2---|
A|-7-----------|------------0---|-0------|-0------0---3---|-3------3---5---|-5---------------0---|
E|-------------|----------------|--------|----------------|------------3---|-3-------------------|


E|--------|----------------|----------------|---------------------|-----------------------|
B|--------|----------------|----------------|---------------------|-----------------------|
G|-2------|-2------2-------|----------------|-----------------2---|-2---------------------|
D|-2------|-2------2---5---|-5------5-------|-------3---3-----2---|-2-----3---2---0-------|
A|-0------|-0------0---3---|-3------3---5---|-5---------------0---|-0-----------------3---|
E|--------|----------------|------------3---|-3-------------------|-----------------------|


E|-----------------------|-----------------|---------------------------------|-----------------------|
B|-----------------------|-----------------|---------------------------------|-----------------------|
G|-----------------------|-----------------|-----------------------------2---|-2---------------------|
D|-------------------5---|-5---------------|---------------------0---2---2---|-2-----3---2---0-------|
A|-3-----0---2---3-------|-----------------|---------0---2---3-----------0---|-0-----------------3---|
E|-----------------------|-------1---1-----|-1---3---------------------------|-----------------------|


E|-----------------------|-----------------|---------------------------------|-----------------------|
B|-----------------------|-----------------|---------------------------------|-----------------------|
G|-----------------------|-----------------|-----------------------------2---|-2---------------------|
D|-------------------5---|-5---------------|---------------------0---2---2---|-2-----3---2---0-------|
A|-3-----0---2---3-------|-----------------|---------0---2---3-----------0---|-0-----------------3---|
E|-----------------------|-------1---1-----|-1---3---------------------------|-----------------------|


E|-----------------------|-----------------|---------------------------------|-----------------------|
B|-----------------------|-----------------|---------------------------------|-----------------------|
G|-----------------------|-----------------|-----------------------------2---|-2---------------------|
D|-------------------5---|-5---------------|---------------------0---2---2---|-2-----3---2---0-------|
A|-3-----0---2---3-------|-----------------|---------0---2---3-----------0---|-0-----------------3---|
E|-----------------------|-------1---1-----|-1---3---------------------------|-----------------------|


E|-----------------------|-----------------|---------------------------------|-----------------------|
B|-----------------------|-----------------|---------------------------------|-----------------------|
G|-----------------------|-----------------|-----------------------------2---|-2---------------------|
D|-------------------5---|-5---------------|---------------------0---2---2---|-2-----3---2---0-------|
A|-3-----0---2---3-------|-----------------|---------0---2---3-----------0---|-0-----------------3---|
E|-----------------------|-------1---1-----|-1---3---------------------------|-----------------------|


E|-----------------------|-----------------|---------------------------------|
B|-----------------------|-----------------|---------------------------------|
G|-----------------------|-----------------|-----------------------------2---|
D|-------------------5---|-5---------------|---------------------0-------2---|
A|-3-----0---2---3-------|-----------------|---------0---2---3-------0---0---|
E|-----------------------|-------1---1-----|-1---3---------------------------|





Track 2: Guitar 2

E|--------|--------|--------|--------|--------|----------------|--------|-----------------------|
B|--------|--------|--------|--------|--------|----------------|--------|-----------------------|
G|--------|--------|--------|--------|--------|------------7---|-7------|-7---------------------|
D|--------|--------|--------|--------|--------|----------------|--------|-------6---6-------7---|
A|--------|--------|--------|--------|--------|----------------|--------|-------6---6---0---7---|
E|--------|--------|--------|--------|--------|----------------|--------|-----------------------|


E|--------|--------|--------|--------|--------|--------|--------|--------|--------|
B|--------|--------|--------|--------|--------|--------|--------|--------|--------|
G|--------|--------|--------|--------|--------|--------|--------|--------|--------|
D|--------|--------|--------|--------|--------|--------|--------|--------|--------|
A|--------|--------|--------|--------|--------|--------|--------|--------|--------|
E|--------|--------|--------|--------|--------|--------|--------|--------|--------|


E|--------|--------|--------|--------|--------|--------|--------|--------|--------|
B|--------|--------|--------|--------|--------|--------|--------|--------|--------|
G|--------|--------|--------|--------|--------|--------|--------|--------|--------|
D|--------|--------|--------|--------|--------|--------|--------|--------|--------|
A|--------|--------|--------|--------|--------|--------|--------|--------|--------|
E|--------|--------|--------|--------|--------|--------|--------|--------|--------|


E|--------|--------|--------|--------|--------|--------|--------|--------|--------|
B|--------|--------|--------|--------|--------|--------|--------|--------|--------|
G|--------|--------|--------|--------|--------|--------|--------|--------|--------|
D|--------|--------|--------|--------|--------|--------|--------|--------|--------|
A|--------|--------|--------|--------|--------|--------|--------|--------|--------|
E|--------|--------|--------|--------|--------|--------|--------|--------|--------|


E|--------|--------|--------|--------|--------|--------|--------|--------|--------|
B|--------|--------|--------|--------|--------|--------|--------|--------|--------|
G|--------|--------|--------|--------|--------|--------|--------|--------|--------|
D|--------|--------|--------|--------|--------|--------|--------|--------|--------|
A|--------|--------|--------|--------|--------|--------|--------|--------|--------|
E|--------|--------|--------|--------|--------|--------|--------|--------|--------|


E|--------|--------|--------|--------|--------|--------|--------|--------|--------|
B|--------|--------|--------|--------|--------|--------|--------|--------|--------|
G|--------|--------|--------|--------|--------|--------|--------|--------|--------|
D|--------|--------|--------|--------|--------|--------|--------|--------|--------|
A|--------|--------|--------|--------|--------|--------|--------|--------|--------|
E|--------|--------|--------|--------|--------|--------|--------|--------|--------|


E|--------|--------|--------|--------|--------|--------|--------|--------|--------|
B|--------|--------|--------|--------|--------|--------|--------|--------|--------|
G|--------|--------|--------|--------|--------|--------|--------|--------|--------|
D|--------|--------|--------|--------|--------|--------|--------|--------|--------|
A|--------|--------|--------|--------|--------|--------|--------|--------|--------|
E|--------|--------|--------|--------|--------|--------|--------|--------|--------|


E|--------|--------|---------------------------|---------------------------|---------------------------|
B|--------|--------|---------------------------|---------------------------|---------------------------|
G|--------|--------|-9-------------------------|-----------7---7-------9---|-9-------------------------|
D|--------|--------|-7---7---7---5---7----10---|-9----5----5---5-------7---|-7---7---7---5---7----10---|
A|--------|--------|---------------------------|-------------------0-------|---------------------------|
E|--------|--------|---------------------------|---------------------------|---------------------------|


E|---------------------------|---------------------------|---------------------------|
B|-----------8---8-------6---|-6-------------------------|-----------8---8-------10--|
G|-----------7---7-------5---|-5-------------------------|-----------7---7-------9---|
D|-9----5--------------------|-----7---7---5---7----10---|-9----5--------------------|
A|-------------------0-------|---------------------------|-------------------0-------|
E|---------------------------|---------------------------|---------------------------|


E|---------------------------|---------------------------|---------------------------|
B|-10------------------------|---------------------------|---------------------------|
G|-9-------------------------|-----------7---7-------9---|-9-------------------------|
D|-----7---7---5---7----10---|-9----5----5---5-------7---|-7---7---7---5---7----10---|
A|---------------------------|-------------------0-------|---------------------------|
E|---------------------------|---------------------------|---------------------------|


E|---------------------------|---------------------------|---------------------------|
B|---------------------------|---------------------------|-----------8---8-------6---|
G|-----------7---7-------9---|-9-------------------------|-----------7---7-------5---|
D|-9----5----5---5-------7---|-7---7---7---5---7----10---|-9----5--------------------|
A|-------------------0-------|---------------------------|-------------------0-------|
E|---------------------------|---------------------------|---------------------------|


E|---------------------------|---------------------------|---------------------------|
B|-6-------------------------|-----------8---8-------10--|-10------------------------|
G|-5-------------------------|-----------7---7-------9---|-9-------------------------|
D|-----7---7---5---7----10---|-9----5--------------------|-----7---7---5---7----10---|
A|---------------------------|-------------------0-------|---------------------------|
E|---------------------------|---------------------------|---------------------------|


E|---------------------------|--------|--------|--------|--------|--------|--------|
B|---------------------------|--------|--------|--------|--------|--------|--------|
G|-----------7---7-------2---|--------|--------|--------|--------|--------|--------|
D|-9----5----5---5-------2---|--------|--------|--------|--------|--------|--------|
A|-------------------0---0---|--------|--------|--------|--------|--------|--------|
E|---------------------------|--------|--------|--------|--------|--------|--------|


E|--------|--------|--------|--------|--------|--------|--------|--------|--------|
B|--------|--------|--------|--------|--------|--------|--------|--------|--------|
G|--------|--------|--------|--------|--------|--------|--------|--------|--------|
D|--------|--------|--------|--------|--------|--------|--------|--------|--------|
A|--------|--------|--------|--------|--------|--------|--------|--------|--------|
E|--------|--------|--------|--------|--------|--------|--------|--------|--------|


E|--------|--------|--------|--------|--------|--------|--------|--------|--------|
B|--------|--------|--------|--------|--------|--------|--------|--------|--------|
G|--------|-2------|-2------|-2------|-2------|-2------|-2------|-2------|-2------|
D|--------|-2------|-2------|-2------|-2------|-2------|-2------|-2------|-2------|
A|--------|-0------|-0------|-0------|-0------|-0------|-0------|-0------|-0------|
E|--------|--------|--------|--------|--------|--------|--------|--------|--------|


E|---------------------------------|------------------------------|---------------------------------|
B|---------------------------------|------------------------------|---------------------------------|
G|-5---4-------7---7---5---4---5---|-5---4-------4----------------|-5---4-------7---7---5---4---5---|
D|---------7-----------------------|---------7-------7---5--------|---------7-----------------------|
A|---------------------------------|-------------------------7----|---------------------------------|
E|---------------------------------|------------------------------|---------------------------------|


E|------------------------------|---------------------------------|------------------------------|
B|------------------------------|---------------------------------|------------------------------|
G|-5---4-------4----------------|-5---4-------7---7---5---4---5---|-5---4-------4----------------|
D|---------7-------7---5--------|---------7-----------------------|---------7-------7---5--------|
A|-------------------------7----|---------------------------------|-------------------------7----|
E|------------------------------|---------------------------------|------------------------------|


E|---------------------------------|------------------------------|---------------------------------|
B|---------------------------------|------------------------------|---------------------------------|
G|-5---4-------7---7---5---4---5---|-5---4-------4----------------|-5---4-------7---7---5---4---5---|
D|---------7-----------------------|---------7-------7---5--------|---------7-----------------------|
A|---------------------------------|-------------------------7----|---------------------------------|
E|---------------------------------|------------------------------|---------------------------------|


E|------------------------------|---------------------------------|------------------------------|
B|------------------------------|---------------------------------|------------------------------|
G|-5---4-------4----------------|-5---4-------7---7---5---4---5---|-5---4-------4----------------|
D|---------7-------7---5--------|---------7-----------------------|---------7-------7---5--------|
A|-------------------------7----|---------------------------------|-------------------------7----|
E|------------------------------|---------------------------------|------------------------------|


E|---------------------------------|------------------------------|---------------------------------|
B|---------------------------------|------------------------------|---------------------------------|
G|-5---4-------7---7---5---4---5---|-5---4-------4----------------|-5---4-------7---7---5---4---5---|
D|---------7-----------------------|---------7-------7---5--------|---------7-----------------------|
A|---------------------------------|-------------------------7----|---------------------------------|
E|---------------------------------|------------------------------|---------------------------------|


E|------------------------------|--------|--------|------------------------------------------|
B|------------------------------|--------|--------|------------------------------------------|
G|-5---4-------4----------------|--------|--------|-2----------------------------------------|
D|---------7-------7---5--------|--------|--------|-2----------------------------------------|
A|-------------------------7----|--------|--------|-0----0--0--0--0--0--0--0--0--0--0--0--0--|
E|------------------------------|--------|--------|------------------------------------------|


E|-----------------------------------------|------------------------------------------|
B|-----------------------------------------|------------------------------------------|
G|-----------------------------------------|------------------------------------------|
D|-------------------------5---5-------3---|-3----------------------------------------|
A|-0--0--0--0--0--0--0--0--5---5-------3---|-3----------------------------------------|
E|-------------------------3---3---0---1---|-1----1--1--1--1--1--1--1--1--1--1--1--1--|


E|------------------------------|------------------------------------------|-----------------------------------------|
B|------------------------------|------------------------------------------|-----------------------------------------|
G|--------------------------2---|-2----------------------------------------|-----------------------------------------|
D|-2---0--------------------2---|-2----------------------------------------|-------------------------5---5-------3---|
A|--------------------------0---|-0----0--0--0--0--0--0--0--0--0--0--0--0--|-0--0--0--0--0--0--0--0--5---5-------3---|
E|---------4---0---4----0-------|------------------------------------------|-------------------------3---3---0---1---|


E|------------------------------------------|------------------------------|------------------------------------------|
B|------------------------------------------|------------------------------|------------------------------------------|
G|------------------------------------------|--------------------------2---|-2----------------------------------------|
D|-3----------------------------------------|-2---0--------------------2---|-2----------------------------------------|
A|-3----------------------------------------|--------------------------0---|-0----0--0--0--0--0--0--0--0--0--0--0--0--|
E|-1----1--1--1--1--1--1--1--1--1--1--1--1--|---------4---0---4----0-------|------------------------------------------|


E|-----------------------------------------|------------------------------------------|
B|-----------------------------------------|------------------------------------------|
G|-----------------------------------------|------------------------------------------|
D|-------------------------5---5-------3---|-3----------------------------------------|
A|-0--0--0--0--0--0--0--0--5---5-------3---|-3----------------------------------------|
E|-------------------------3---3---0---1---|-1----1--1--1--1--1--1--1--1--1--1--1--1--|


E|------------------------------|--------|--------|--------|--------|--------|--------|
B|------------------------------|--------|--------|--------|--------|--------|--------|
G|--------------------------2---|--------|--------|--------|--------|--------|--------|
D|-2---0--------------------2---|--------|--------|--------|--------|--------|--------|
A|--------------------------0---|--------|--------|--------|--------|--------|--------|
E|---------4---0---4----0-------|--------|--------|--------|--------|--------|--------|


E|--------|--------|--------|--------|--------|--------|--------|--------|--------|
B|--------|--------|--------|--------|--------|--------|--------|--------|--------|
G|--------|--------|--------|--------|--------|--------|--------|--------|--------|
D|--------|--------|--------|--------|--------|--------|--------|--------|--------|
A|--------|--------|--------|--------|--------|--------|--------|--------|--------|
E|--------|--------|--------|--------|--------|--------|--------|--------|--------|


E|--------|--------|--------|--------|--------|--------|--------|--------|--------|
B|--------|--------|--------|--------|--------|--------|--------|--------|--------|
G|--------|--------|--------|--------|--------|--------|--------|--------|--------|
D|--------|--------|--------|--------|--------|--------|--------|--------|--------|
A|--------|--------|--------|--------|--------|--------|--------|--------|--------|
E|--------|--------|--------|--------|--------|--------|--------|--------|--------|


E|--------|--------|--------|--------|--------|--------|--------|--------|---------------------------|
B|--------|--------|--------|--------|--------|--------|--------|--------|---------------------------|
G|--------|--------|--------|--------|--------|--------|--------|--------|-9-------------------------|
D|--------|--------|--------|--------|--------|--------|--------|--------|-7---7---7---5---7----10---|
A|--------|--------|--------|--------|--------|--------|--------|--------|---------------------------|
E|--------|--------|--------|--------|--------|--------|--------|--------|---------------------------|


E|---------------------------|---------------------------|---------------------------|
B|---------------------------|---------------------------|-----------8---8-------6---|
G|-----------7---7-------9---|-9-------------------------|-----------7---7-------5---|
D|-9----5----5---5-------7---|-7---7---7---5---7----10---|-9----5--------------------|
A|-------------------0-------|---------------------------|-------------------0-------|
E|---------------------------|---------------------------|---------------------------|


E|---------------------------|---------------------------|---------------------------|
B|-6-------------------------|-----------8---8-------10--|-10------------------------|
G|-5-------------------------|-----------7---7-------9---|-9-------------------------|
D|-----7---7---5---7----10---|-9----5--------------------|-----7---7---5---7----10---|
A|---------------------------|-------------------0-------|---------------------------|
E|---------------------------|---------------------------|---------------------------|


E|---------------------------|---------------------------|---------------------------|
B|---------------------------|---------------------------|---------------------------|
G|-----------7---7-------9---|-9-------------------------|-----------7---7-------9---|
D|-9----5----5---5-------7---|-7---7---7---5---7----10---|-9----5----5---5-------7---|
A|-------------------0-------|---------------------------|-------------------0-------|
E|---------------------------|---------------------------|---------------------------|


E|---------------------------|---------------------------|---------------------------|
B|---------------------------|-----------8---8-------6---|-6-------------------------|
G|-9-------------------------|-----------7---7-------5---|-5-------------------------|
D|-7---7---7---5---7----10---|-9----5--------------------|-----7---7---5---7----10---|
A|---------------------------|-------------------0-------|---------------------------|
E|---------------------------|---------------------------|---------------------------|


E|---------------------------|---------------------------|---------------------------|
B|-----------8---8-------10--|-10------------------------|---------------------------|
G|-----------7---7-------9---|-9-------------------------|-----------7---7-------9---|
D|-9----5--------------------|-----7---7---5---7----10---|-9----5----5---5-------7---|
A|-------------------0-------|---------------------------|-------------------0---7---|
E|---------------------------|---------------------------|---------------------------|


E|-------------|----------------|--------|----------------|----------------|---------------------|
B|-------------|----------------|--------|----------------|----------------|---------------------|
G|-9-----------|------------2---|-2------|-2------2---5---|-5------5-------|-----------------2---|
D|-7-----------|------------2---|-2------|-2------2-------|------------5---|-5---------------2---|
A|-7-----------|------------0---|-0------|-0------0-------|----------------|-----------------0---|
E|-------------|----------------|--------|----------------|----------------|-------1---1---------|


E|--------|----------------|----------------|---------------------|-----------------------|
B|--------|----------------|----------------|---------------------|-----------------------|
G|-2------|-2------2---5---|-5------5-------|-----------------2---|-2---------------------|
D|-2------|-2------2-------|------------5---|-5---------------2---|-2-----3---2---0-------|
A|-0------|-0------0-------|----------------|-----------------0---|-0-----------------3---|
E|--------|----------------|----------------|-------1---1---------|-----------------------|


E|-----------------------|-----------------------|---------------------------------|
B|-----------------------|-----------------------|---------------------3---5-------|
G|-----------------------|-----------------------|---------2---4---5-----------2---|
D|-----------------------|---------2-------------|-3---5-----------------------2---|
A|-3-----3---2---0-------|-----5-------3---3-----|-----------------------------0---|
E|-------------------3---|-3---------------------|---------------------------------|


E|-----------------------|-----------------------|-----------------------|---------------------------------|
B|-----------------------|-----------------------|-----------------------|---------------------3---5-------|
G|-2---------------------|-----------------------|-----------------------|---------2---4---5-----------2---|
D|-2-----3---2---0-------|-----------------------|---------2-------------|-3---5-----------------------2---|
A|-0-----------------3---|-3-----3---2---0-------|-----5-------3---3-----|-----------------------------0---|
E|-----------------------|-------------------3---|-3---------------------|---------------------------------|


E|-----------------------|-----------------------|-----------------------|---------------------------------|
B|-----------------------|-----------------------|-----------------------|---------------------3---5-------|
G|-2---------------------|-----------------------|-----------------------|---------2---4---5-----------2---|
D|-2-----3---2---0-------|-----------------------|---------2-------------|-3---5-----------------------2---|
A|-0-----------------3---|-3-----3---2---0-------|-----5-------3---3-----|-----------------------------0---|
E|-----------------------|-------------------3---|-3---------------------|---------------------------------|


E|-----------------------|-----------------------|-----------------------|---------------------------------|
B|-----------------------|-----------------------|-----------------------|---------------------3---5-------|
G|-2---------------------|-----------------------|-----------------------|---------2---4---5-----------2---|
D|-2-----3---2---0-------|-----------------------|---------2-------------|-3---5-----------------------2---|
A|-0-----------------3---|-3-----3---2---0-------|-----5-------3---3-----|-----------------------------0---|
E|-----------------------|-------------------3---|-3---------------------|---------------------------------|


E|--------|--------|--------|---------------------------------|
B|--------|--------|--------|---------------------------------|
G|-2------|-2------|-2------|-----------------------------2---|
D|-2------|-2------|-2------|---------------------0-------2---|
A|-0------|-0------|-0------|---------0---2---3-------0---0---|
E|--------|--------|--------|-1---3---------------------------|





Track 3: Bass

G|--------|--------|--------|--------|--------|--------|--------|-----------------------|
D|--------|--------|--------|--------|--------|--------|--------|-----------------------|
A|--------|--------|--------|--------|--------|--------|--------|---------------0---0---|
E|--------|--------|--------|--------|--------|--------|--------|-------4---4-----------|


G|---------------------------------|---------------------------------|---------------------------------|
D|---------------------------------|---------------------------------|---------------------------------|
A|-0---0---5---0---3---0---2---0---|-0---0---2---0-----------0---0---|-0---0---5---0---3---0---2---0---|
E|---------------------------------|-----------------3---3-----------|---------------------------------|


G|---------------------------------|---------------------------------|---------------------------------|
D|---------------------------------|---------------------------------|---------------------------------|
A|-0---0---2---0-----------0---0---|-0---0---5---0---3---0---2---0---|-0---0---2---0-----------0---0---|
E|-----------------4---4-----------|---------------------------------|-----------------3---3-----------|


G|---------------------------------|---------------------------------|---------------------------------|
D|---------------------------------|---------------------------------|---------------------------------|
A|-0---0---5---0---3---0---2---0---|-0---0---2---0-----------0---0---|-0---0---0---0---0---0---0---0---|
E|---------------------------------|-----------------4---4-----------|---------------------------------|


G|---------------------------------|---------------------------------|---------------------------------|
D|---------------------------------|---------------------------------|---------------------------------|
A|-0---0---0---0---0---0---0---2---|-2---2---2---2---2---2---2---2---|-2---2---2---2---2---2---2---3---|
E|---------------------------------|---------------------------------|---------------------------------|


G|---------------------------------|---------------------------------|---------------------------------|
D|---------------------------------|---------------------------------|---------------------------------|
A|-3---3---3---3---3---3---3---3---|-3---3---3---3---3---3---3-------|---------------------------------|
E|---------------------------------|-----------------------------3---|-3---3---3---3---3---3---3---3---|


G|---------------------------------|---------------------------------|---------------------------------|
D|---------------------------------|---------------------------------|---------------------------------|
A|-------------------------0---0---|-0---0---0---0---0---0---0---0---|-0---0---0---0---0---0---0---2---|
E|-3---3---3---3---4---4-----------|---------------------------------|---------------------------------|


G|---------------------------------|---------------------------------|---------------------------------|
D|---------------------------------|---------------------------------|---------------------------------|
A|-2---2---2---2---2---2---2---2---|-2---2---2---2---2---2---2---3---|-3---3---3---3---3---3---3---3---|
E|---------------------------------|---------------------------------|---------------------------------|


G|---------------------------------|---------------------------------|---------------------------------|
D|---------------------------------|---------------------------------|---------------------------------|
A|-3---3---3---3---3---3---3-------|---------------------------------|-------------------------0---0---|
E|-----------------------------3---|-3---3---3---3---3---3---3---3---|-3---3---3---3---4---4-----------|


G|------------------------------|------------------------------|------------------------------|
D|------------------------------|------------------------------|------------------------------|
A|-0----0---0---0---0---0---0---|-0---0---0---0---0---0----0---|-0----0---0---0---0---0---0---|
E|------------------------------|------------------------------|------------------------------|


G|------------------------------|------------------------------|------------------------------|
D|------------------------------|------------------------------|------------------------------|
A|-0---0---0---0---0--------0---|-0----0---0---0---0---0---0---|-0---0---0---0---0---0----0---|
E|---------------------3--------|------------------------------|------------------------------|


G|------------------------------|------------------------------|------------------------------|
D|------------------------------|------------------------------|------------------------------|
A|-0----0---0---0---0---0---0---|-0---0---0---0---0--------0---|-0----0---0---0---0---0---0---|
E|------------------------------|---------------------3--------|------------------------------|


G|------------------------------|------------------------------|------------------------------|
D|------------------------------|------------------------------|------------------------------|
A|-0---0---0---0---0---0----0---|-0----0---0---0---0---0---0---|-0---0---0---0---0--------0---|
E|------------------------------|------------------------------|---------------------3--------|


G|------------------------------|------------------------------|------------------------------|
D|------------------------------|------------------------------|------------------------------|
A|-0----0---0---0---0---0---0---|-0---0---0---0---0---0----0---|-0----0---0---0---0---0---0---|
E|------------------------------|------------------------------|------------------------------|


G|------------------------------|------------------------------|------------------------------|
D|------------------------------|------------------------------|------------------------------|
A|-0---0---0---0------------0---|-0----0---0---0---0---0---0---|-0---0---0---0------------0---|
E|-----------------3---3--------|------------------------------|-----------------3---3--------|


G|------------------------------|------------------------------|------------------------------|
D|------------------------------|------------------------------|------------------------------|
A|-0----0---0---0---0---0---0---|-0---0---0---0----------------|------------------------------|
E|------------------------------|-----------------3---3----1---|-1----1---1---1---1---1---1---|


G|------------------------------|------------------------------|------------------------------|
D|------------------------------|------------------------------|------------------------------|
A|--------------------------0---|-0----0---0---0---0---0---0---|-0---0---0---0------------0---|
E|-1---1---1---1---3---3--------|------------------------------|-----------------3---3--------|


G|------------------------------|------------------------------|------------------------------|
D|------------------------------|------------------------------|------------------------------|
A|-0----0---0---0---0---0---0---|-0---0---0---0------------0---|-0----0---0---0---0---0---0---|
E|------------------------------|-----------------3---3--------|------------------------------|


G|------------------------------|------------------------------|------------------------------|
D|------------------------------|------------------------------|------------------------------|
A|-0---0---0---0----------------|------------------------------|--------------------------0---|
E|-----------------3---3----1---|-1----1---1---1---1---1---1---|-1---1---1---1---3---3--------|


G|------------------------------|---------------------------------|---------------------------------|
D|------------------------------|---------------------------------|---------------------------------|
A|-0----0---0---0---0---0---0---|-0---0---0---0---------------0---|-0---0---0---0---0---0---0---0---|
E|------------------------------|-----------------3---3---3-------|---------------------------------|


G|---------------------------------|------------------------------|---------------------------|
D|---------------------------------|------------------------------|---------------------------|
A|-0---0---0---0-----------0---0---|-0---0---0---0---0---0---3----|-2-----------------0-------|
E|-----------------3---3-----------|------------------------------|------3----3---3-------1---|


G|------------------------------|---------------------------|---------------------------------|
D|------------------------------|---------------------------|---------------------------------|
A|-------------------------3----|-2-----------------0---0---|-0---0---0---0---0---0---0---0---|
E|-1---1---1---1---1---1--------|------3----3---3-----------|---------------------------------|


G|---------------------------------|---------------------------------|---------------------------------|
D|---------------------------------|---------------------------------|---------------------------------|
A|-0---0---0---0-----------0---0---|-0---0---0---0---0---0---0---0---|-0---0---0---0-----------0---0---|
E|-----------------3---3-----------|---------------------------------|-----------------3---3-----------|


G|------------------------------|---------------------------|------------------------------|
D|------------------------------|---------------------------|------------------------------|
A|-0---0---0---0---0---0---3----|-2-----------------0-------|-------------------------3----|
E|------------------------------|------3----3---3-------1---|-1---1---1---1---1---1--------|


G|---------------------------|---------------------------------|---------------------------------|
D|---------------------------|---------------------------------|---------------------------------|
A|-2-----------------0---0---|-0---0---0---0---0---0---0---0---|-0---0---0---0-----------0---0---|
E|------3----3---3-----------|---------------------------------|-----------------3---3-----------|


G|---------------------------------|---------------------------------|---------------------------------|
D|---------------------------------|---------------------------------|---------------------------------|
A|-0---0---0---0---0---0---0---0---|-0---0---0---0---0---0---0---0---|---------------------------------|
E|---------------------------------|---------------------------------|-1---1---1---1---1---1---1---1---|


G|---------------------------------|---------------------------------|---------------------------------|
D|---------------------------------|---------------------------------|---------------------------------|
A|-2---2---2---2---2---2---2---2---|-0---0---0---0---0---0---0---0---|-0---0---0---0---0---0---0---0---|
E|---------------------------------|---------------------------------|---------------------------------|


G|---------------------------------|---------------------------------|---------------------------------|
D|---------------------------------|---------------------------------|---------------------------------|
A|---------------------------------|-2---2---2---2---2---2---2---2---|-0---0---0---0---0---0---0---0---|
E|-1---1---1---1---1---1---1---1---|---------------------------------|---------------------------------|


G|---------------------------------|---------------------------------|---------------------------------|
D|---------------------------------|---------------------------------|---------------------------------|
A|-0---0---0---0---0---0---0---0---|---------------------------------|-2---2---2---2---2---2---2---2---|
E|---------------------------------|-1---1---1---1---1---1---1---1---|---------------------------------|


G|---------------------------------|---------------------------------|---------------------------------|
D|---------------------------------|---------------------------------|---------------------------------|
A|-0---0---0---0---0---0---0---0---|-0---0---0---0---0---0---0---0---|---------------------------------|
E|---------------------------------|---------------------------------|-1---1---1---1---1---1---1---1---|


G|---------------------------------|--------|--------|--------|--------|--------|--------|
D|---------------------------------|--------|--------|--------|--------|--------|--------|
A|-2---2---2---2---2---2---2---2---|-0------|-0------|-0------|-0------|-0------|-0------|
E|---------------------------------|--------|--------|--------|--------|--------|--------|


G|--------|--------|---------------------------------|---------------------------------|
D|--------|--------|-7---7---7---7---7---7---7---7---|-7---7---7---7---7---7---7---7---|
A|-0------|-0------|---------------------------------|---------------------------------|
E|--------|--------|---------------------------------|---------------------------------|


G|---------------------------------|---------------------------------|---------------------------------|
D|-9---9---9---9---9---9---9---9---|-9---9---9---9---9---9---9---9---|-10--10--10--10--10--10--10--10--|
A|---------------------------------|---------------------------------|---------------------------------|
E|---------------------------------|---------------------------------|---------------------------------|


G|---------------------------------|---------------------------------|---------------------------------|
D|-10--10--10--10--10--10--10--10--|---------------------------------|---------------------------------|
A|---------------------------------|-10--10--10--10--10--10--10--10--|-10--10--10--10--10--10--10--10--|
E|---------------------------------|---------------------------------|---------------------------------|


G|---------------------------------|---------------------------------|---------------------------------|
D|-7---7---7---7---7---7---7---7---|-7---7---7---7---7---7---7---7---|-9---9---9---9---9---9---9---9---|
A|---------------------------------|---------------------------------|---------------------------------|
E|---------------------------------|---------------------------------|---------------------------------|


G|---------------------------------|---------------------------------|---------------------------------|
D|-9---9---9---9---9---9---9---9---|-10--10--10--10--10--10--10--10--|-10--10--10--10--10--10--10--10--|
A|---------------------------------|---------------------------------|---------------------------------|
E|---------------------------------|---------------------------------|---------------------------------|


G|---------------------------------|---------------------------------|---------------------------|
D|---------------------------------|---------------------------------|---------------------------|
A|-10--10--10--10--10--10--10--10--|-10--10--10--10--10--10--10--10--|-0---0--------0---0--------|
E|---------------------------------|---------------------------------|---------------------------|


G|---------------------------|------------------------------|---------------------------------|
D|---------------------------|------------------------------|---------------------------------|
A|-0---0--------0--------0---|-0----0---0---0---0---0---0---|-0---0---0---0-------------------|
E|------------------3--------|------------------------------|-----------------3---3---0---1---|


G|------------------------------|------------------------------|------------------------------|
D|------------------------------|-2---0------------------------|------------------------------|
A|------------------------------|--------------------------0---|-0----0---0---0---0---0---0---|
E|-1----1---1---1---1---1---1---|---------4---0---4----0-------|------------------------------|


G|---------------------------------|------------------------------|------------------------------|
D|---------------------------------|------------------------------|-2---0------------------------|
A|-0---0---0---0-------------------|------------------------------|--------------------------0---|
E|-----------------3---3---0---1---|-1----1---1---1---1---1---1---|---------4---0---4----0-------|


G|------------------------------|---------------------------------|------------------------------|
D|------------------------------|---------------------------------|------------------------------|
A|-0----0---0---0---0---0---0---|-0---0---0---0-------------------|------------------------------|
E|------------------------------|-----------------3---3---0---1---|-1----1---1---1---1---1---1---|


G|------------------------------|------------------------------|------------------------------|
D|-2---0------------------------|------------------------------|------------------------------|
A|--------------------------0---|-0----0---0---0---0---0---0---|-0---0---0---0---0---0----0---|
E|---------4---0---4----0-------|------------------------------|------------------------------|


G|------------------------------|------------------------------|------------------------------|
D|------------------------------|------------------------------|------------------------------|
A|-0----0---0---0---0---0---0---|-0---0---0---0---0--------0---|-0----0---0---0---0---0---0---|
E|------------------------------|---------------------3--------|------------------------------|


G|------------------------------|------------------------------|------------------------------|
D|------------------------------|------------------------------|------------------------------|
A|-0---0---0---0---0---0----0---|-0----0---0---0---0---0---0---|-0---0---0---0---0--------0---|
E|------------------------------|------------------------------|---------------------3--------|


G|------------------------------|------------------------------|------------------------------|
D|------------------------------|------------------------------|------------------------------|
A|-0----0---0---0---0---0---0---|-0---0---0---0---0---0----0---|-0----0---0---0---0---0---0---|
E|------------------------------|------------------------------|------------------------------|


G|------------------------------|------------------------------|------------------------------|
D|------------------------------|------------------------------|------------------------------|
A|-0---0---0---0---0--------0---|-0----0---0---0---0---0---0---|-0---0---0---0---0---0----0---|
E|---------------------3--------|------------------------------|------------------------------|


G|------------------------------|------------------------------|------------------------------|
D|------------------------------|------------------------------|------------------------------|
A|-0----0---0---0---0---0---0---|-0---0---0---0------------0---|-0----0---0---0---0---0---0---|
E|------------------------------|-----------------3---3--------|------------------------------|


G|------------------------------|------------------------------|------------------------------|
D|------------------------------|------------------------------|------------------------------|
A|-0---0---0---0------------0---|-0----0---0---0---0---0---0---|-0---0---0---0----------------|
E|-----------------3---3--------|------------------------------|-----------------3---3----1---|


G|------------------------------|------------------------------|------------------------------|
D|------------------------------|------------------------------|------------------------------|
A|------------------------------|--------------------------0---|-0----0---0---0---0---0---0---|
E|-1----1---1---1---1---1---1---|-1---1---1---1---3---3--------|------------------------------|


G|------------------------------|------------------------------|------------------------------|
D|------------------------------|------------------------------|------------------------------|
A|-0---0---0---0------------0---|-0----0---0---0---0---0---0---|-0---0---0---0------------0---|
E|-----------------3---3--------|------------------------------|-----------------3---3--------|


G|------------------------------|------------------------------|------------------------------|
D|------------------------------|------------------------------|------------------------------|
A|-0----0---0---0---0---0---0---|-0---0---0---0----------------|------------------------------|
E|------------------------------|-----------------3---3----1---|-1----1---1---1---1---1---1---|


G|------------------------------|------------------------------|---------------------------------|
D|------------------------------|------------------------------|---------------------------------|
A|--------------------------0---|-0----0---0---0---0---0---0---|-0---0---0---0---------------0---|
E|-1---1---1---1---3---3--------|------------------------------|-----------------3---3---3-------|


G|---------------------------------|---------------------------------|------------------------------|
D|---------------------------------|---------------------------------|------------------------------|
A|-0---0---0---0---0---0---0---0---|-0---0---0---0-----------0---0---|-0---0---0---0---0---0---3----|
E|---------------------------------|-----------------3---3-----------|------------------------------|


G|---------------------------|------------------------------|---------------------------|
D|---------------------------|------------------------------|---------------------------|
A|-2-----------------0-------|-------------------------3----|-2-----------------0---0---|
E|------3----3---3-------1---|-1---1---1---1---1---1--------|------3----3---3-----------|


G|---------------------------------|---------------------------------|---------------------------------|
D|---------------------------------|---------------------------------|---------------------------------|
A|-0---0---0---0---0---0---0---0---|-0---0---0---0-----------0---0---|-0---0---0---0---0---0---0---0---|
E|---------------------------------|-----------------3---3-----------|---------------------------------|


G|---------------------------------|------------------------------|---------------------------|
D|---------------------------------|------------------------------|---------------------------|
A|-0---0---0---0-----------0---0---|-0---0---0---0---0---0---3----|-2-----------------0-------|
E|-----------------3---3-----------|------------------------------|------3----3---3-------1---|


G|------------------------------|---------------------------|---------------------------------|
D|------------------------------|---------------------------|---------------------------------|
A|-------------------------3----|-2-----------------0---0---|-0---0---0---0---0---0---0---0---|
E|-1---1---1---1---1---1--------|------3----3---3-----------|---------------------------------|


G|---------------------------------|-------------|----------------|------------------------------|
D|---------------------------------|-------------|----------------|------------------------------|
A|-0---0---0---0-------------------|-------------|------------0---|-0----0---0---0---0---0---0---|
E|-----------------3---3---5---5---|-5-----------|----------------|------------------------------|


G|---------------------------------|---------------------------------|---------------------------------|
D|---------------------------------|---------------------------------|---------------------------------|
A|-0---0---0---0---0---0---0---3---|-3---3---3---3---3---3---3-------|-----------------------------0---|
E|---------------------------------|-----------------------------3---|-3---3---3---1---1---1---1-------|


G|------------------------------|---------------------------------|---------------------------------|
D|------------------------------|---------------------------------|---------------------------------|
A|-0----0---0---0---0---0---0---|-0---0---0---0---0---0---0---3---|-3---3---3---3---3---3---3-------|
E|------------------------------|---------------------------------|-----------------------------3---|


G|---------------------------------|------------------------------|---------------------------------|
D|---------------------------------|------------------------------|---------------------------------|
A|-----------------------------0---|-0----0---0---0---0---0---0---|-0---0---0---0---0---0---0-------|
E|-3---3---3---1---1---1---1-------|------------------------------|-----------------------------3---|


G|---------------------------------|---------------------------------|------------------------------|
D|---------------------------------|---------------------0---2-------|------------------------------|
A|---------------------------------|---------0---2---3-----------0---|-0----0---0---0---0---0---0---|
E|-3---3---3---1---1---1---1---1---|-1---3---------------------------|------------------------------|


G|---------------------------------|---------------------------------|---------------------------------|
D|---------------------------------|---------------------------------|---------------------0---2-------|
A|-0---0---0---0---0---0---0-------|---------------------------------|---------0---2---3-----------0---|
E|-----------------------------3---|-3---3---3---1---1---1---1---1---|-1---3---------------------------|


G|------------------------------|---------------------------------|---------------------------------|
D|------------------------------|---------------------------------|---------------------------------|
A|-0----0---0---0---0---0---0---|-0---0---0---0---0---0---0-------|---------------------------------|
E|------------------------------|-----------------------------3---|-3---3---3---1---1---1---1---1---|


G|---------------------------------|------------------------------|---------------------------------|
D|---------------------0---2-------|------------------------------|---------------------------------|
A|---------0---2---3-----------0---|-0----0---0---0---0---0---0---|-0---0---0---0---0---0---0-------|
E|-1---3---------------------------|------------------------------|-----------------------------3---|


G|---------------------------------|---------------------------------|--------|--------|
D|---------------------------------|---------------------0---2-------|--------|--------|
A|---------------------------------|---------0---2---3-----------0---|-0------|-0------|
E|-3---3---3---1---1---1---1---1---|-1---3---------------------------|--------|--------|


G|--------|---------------------------------|
D|--------|---------------------0-----------|
A|-0------|---------0---2---3-------0---0---|
E|--------|-1---3---------------------------|