Site menu:

    

Browse: 0-9 A B C D E F G H I J K L N O P Q R S T U V W X Y Z

3 doors down - loser:



Title: Loser
Artist: 
Album: The Better Life
Author: Brad Arnold


Track 1: Gtr. 1

E|-2------2----|------0-----2----|------0-----2----|------0-----2----|------0---------2--2--2--2--|
B|-2------2----|------3-----2----|------3-----2----|------3-----2----|------3---------2--2--2--2--|
G|-3------3----|------2-----3----|------2-----3----|------2-----3----|------2---------3--3--3--3--|
D|-------------|-----------------|-----------------|-----------------|----------------4--4--4--4--|
A|-------------|-----------------|-----------------|-----------------|----------------4--4--4--4--|
E|-------------|-----------------|-----------------|-----------------|----------------2--2--2--2--|


E|-2--2--2---2-----2--2--2--2--|-2--2-----------------------------2--2--2--2--|-2--2--2---2-----2--2--2--2--|
B|-2--2--3---3-----2--2--2--2--|-2--2--7---7----------------------2--2--2--2--|-2--2--3---3-----2--2--2--2--|
G|-3--3--2---2-----3--3--3--3--|-3--3--7---7--7-----7-7-7--9--9---3--3--3--3--|-3--3--2---2-----3--3--3--3--|
D|-4--4--0---0-----4--4--4--4--|-4--4--7---7----------------------4--4--4--4--|-4--4--0---0-----4--4--4--4--|
A|-4--4------------4--4--4--4--|-4--4--5---5--5-----5-5-5--7--7---4--4--4--4--|-4--4------------4--4--4--4--|
E|-2--2------------2--2--2--2--|-2--2-----------------------------2--2--2--2--|-2--2------------2--2--2--2--|


E|-2--2--2---2---------2--2--2--2--|-2--2--2---2-----2--2--2--2--|-2--2-----------------------------2--2--2--2--|
B|-2--2--3---3---------2--2--2--2--|-2--2--3---3-----2--2--2--2--|-2--2--7---7----------------------2--2--2--2--|
G|-3--3--2---2---------3--3--3--3--|-3--3--2---2-----3--3--3--3--|-3--3--7---7--7-----7-7-7--9--9---3--3--3--3--|
D|-4--4--0---0---------4--4--4--4--|-4--4--0---0-----4--4--4--4--|-4--4--7---7----------------------4--4--4--4--|
A|-4--4----------------4--4--4--4--|-4--4------------4--4--4--4--|-4--4--5---5--5-----5-5-5--7--7---4--4--4--4--|
E|-2--2----------------2--2--2--2--|-2--2------------2--2--2--2--|-2--2-----------------------------2--2--2--2--|


E|-2--2--2---2-----2--2--2--2--|-2--2--2---2---------2--2--2--2--|-2--2--2---2-----2--2--2--2--|
B|-2--2--3---3-----2--2--2--2--|-2--2--3---3---------2--2--2--2--|-2--2--3---3-----2--2--2--2--|
G|-3--3--2---2-----3--3--3--3--|-3--3--2---2---------3--3--3--3--|-3--3--2---2-----3--3--3--3--|
D|-4--4--0---0-----4--4--4--4--|-4--4--0---0---------4--4--4--4--|-4--4--0---0-----4--4--4--4--|
A|-4--4------------4--4--4--4--|-4--4----------------4--4--4--4--|-4--4------------4--4--4--4--|
E|-2--2------------2--2--2--2--|-2--2----------------2--2--2--2--|-2--2------------2--2--2--2--|


E|-2--2-----------------------------2--2--2--2--|-2--2--2---2-----2--2--2--2--|-2--2--2---2--------------|
B|-2--2--7---7----------------------2--2--2--2--|-2--2--3---3-----2--2--2--2--|-2--2--3---3--------------|
G|-3--3--7---7--7-----7-7-7--9--9---3--3--3--3--|-3--3--2---2-----3--3--3--3--|-3--3--2---2--------------|
D|-4--4--7---7----------------------4--4--4--4--|-4--4--0---0-----4--4--4--4--|-4--4--0---0--------------|
A|-4--4--5---5--5-----5-5-5--7--7---4--4--4--4--|-4--4------------4--4--4--4--|-4--4---------------------|
E|-2--2-----------------------------2--2--2--2--|-2--2------------2--2--2--2--|-2--2---------------------|


E|--------|--------|--------|--------|--------|--------|--------|--------2--2--2--2--|
B|--------|--------|--------|--------|--------|--------|--------|--------2--2--2--2--|
G|--------|--------|--------|--------|--------|--------|--------|--------3--3--3--3--|
D|--------|--------|--------|--------|--------|--------|--------|--------4--4--4--4--|
A|--------|--------|--------|--------|--------|--------|--------|--------4--4--4--4--|
E|--------|--------|--------|--------|--------|--------|--------|--------2--2--2--2--|


E|-2--2--2---2-----2--2--2--2--|-2--2-----------------------------2--2--2--2--|-2--2--2---2-----2--2--2--2--|
B|-2--2--3---3-----2--2--2--2--|-2--2--7---7----------------------2--2--2--2--|-2--2--3---3-----2--2--2--2--|
G|-3--3--2---2-----3--3--3--3--|-3--3--7---7--7-----7-7-7--9--9---3--3--3--3--|-3--3--2---2-----3--3--3--3--|
D|-4--4--0---0-----4--4--4--4--|-4--4--7---7----------------------4--4--4--4--|-4--4--0---0-----4--4--4--4--|
A|-4--4------------4--4--4--4--|-4--4--5---5--5-----5-5-5--7--7---4--4--4--4--|-4--4------------4--4--4--4--|
E|-2--2------------2--2--2--2--|-2--2-----------------------------2--2--2--2--|-2--2------------2--2--2--2--|


E|-2--2--2---2---------2--2--2--2--|-2--2--2---2-----2--2--2--2--|-2--2-----------------------------2--2--2--2--|
B|-2--2--3---3---------2--2--2--2--|-2--2--3---3-----2--2--2--2--|-2--2--7---7----------------------2--2--2--2--|
G|-3--3--2---2---------3--3--3--3--|-3--3--2---2-----3--3--3--3--|-3--3--7---7--7-----7-7-7--9--9---3--3--3--3--|
D|-4--4--0---0---------4--4--4--4--|-4--4--0---0-----4--4--4--4--|-4--4--7---7----------------------4--4--4--4--|
A|-4--4----------------4--4--4--4--|-4--4------------4--4--4--4--|-4--4--5---5--5-----5-5-5--7--7---4--4--4--4--|
E|-2--2----------------2--2--2--2--|-2--2------------2--2--2--2--|-2--2-----------------------------2--2--2--2--|


E|-2--2--2---2-----2--2--2--2--|-2--2--2---2---------2--2--2--2--|-2--2--2---2-----2--2--2--2--|
B|-2--2--3---3-----2--2--2--2--|-2--2--3---3---------2--2--2--2--|-2--2--3---3-----2--2--2--2--|
G|-3--3--2---2-----3--3--3--3--|-3--3--2---2---------3--3--3--3--|-3--3--2---2-----3--3--3--3--|
D|-4--4--0---0-----4--4--4--4--|-4--4--0---0---------4--4--4--4--|-4--4--0---0-----4--4--4--4--|
A|-4--4------------4--4--4--4--|-4--4----------------4--4--4--4--|-4--4------------4--4--4--4--|
E|-2--2------------2--2--2--2--|-2--2----------------2--2--2--2--|-2--2------------2--2--2--2--|


E|-2--2-----------------------------2--2--2--2--|-2--2--2---2-----2--2--2--2--|-2--2--2---2--------------|
B|-2--2--7---7----------------------2--2--2--2--|-2--2--3---3-----2--2--2--2--|-2--2--3---3--------------|
G|-3--3--7---7--7-----7-7-7--9--9---3--3--3--3--|-3--3--2---2-----3--3--3--3--|-3--3--2---2--------------|
D|-4--4--7---7----------------------4--4--4--4--|-4--4--0---0-----4--4--4--4--|-4--4--0---0--------------|
A|-4--4--5---5--5-----5-5-5--7--7---4--4--4--4--|-4--4------------4--4--4--4--|-4--4---------------------|
E|-2--2-----------------------------2--2--2--2--|-2--2------------2--2--2--2--|-2--2---------------------|


E|--------|--------|--------|--------|--------|--------|--------|--------|--------|
B|--------|--------|--------|--------|--------|--------|--------|--------|--------|
G|--------|--------|--------|--------|--------|--------|--------|--------|--------|
D|--------|--------|--------|--------|--------|--------|--------|--------|--------|
A|--------|--------|--------|--------|--------|--------|--------|--------|--------|
E|--------|--------|--------|--------|--------|--------|--------|--------|--------|


E|--------|--------|--------|--------|--------|--------|--------|--------|--------|
B|--------|--------|--------|--------|--------|--------|--------|--------|--------|
G|--------|--------|--------|--------|--------|--------|--------|--------|--------|
D|--------|--------|--------|--------|--------|--------|--------|--------|--------|
A|--------|--------|--------|--------|--------|--------|--------|--------|--------|
E|--------|--------|--------|--------|--------|--------|--------|--------|--------|


E|--------|--------|--------|--------|--------|--------2--2--2--2--|-2--2--2---2-----2--2--2--2--|
B|--------|--------|--------|--------|--------|--------2--2--2--2--|-2--2--3---3-----2--2--2--2--|
G|--------|--------|--------|--------|--------|--------3--3--3--3--|-3--3--2---2-----3--3--3--3--|
D|--------|--------|--------|--------|--------|--------4--4--4--4--|-4--4--0---0-----4--4--4--4--|
A|--------|--------|--------|--------|--------|--------4--4--4--4--|-4--4------------4--4--4--4--|
E|--------|--------|--------|--------|--------|--------2--2--2--2--|-2--2------------2--2--2--2--|


E|-2--2-----------------------------2--2--2--2--|-2--2--2---2-----2--2--2--2--|-2--2--2---2---------2--2--2--2--|
B|-2--2--7---7----------------------2--2--2--2--|-2--2--3---3-----2--2--2--2--|-2--2--3---3---------2--2--2--2--|
G|-3--3--7---7--7-----7-7-7--9--9---3--3--3--3--|-3--3--2---2-----3--3--3--3--|-3--3--2---2---------3--3--3--3--|
D|-4--4--7---7----------------------4--4--4--4--|-4--4--0---0-----4--4--4--4--|-4--4--0---0---------4--4--4--4--|
A|-4--4--5---5--5-----5-5-5--7--7---4--4--4--4--|-4--4------------4--4--4--4--|-4--4----------------4--4--4--4--|
E|-2--2-----------------------------2--2--2--2--|-2--2------------2--2--2--2--|-2--2----------------2--2--2--2--|


E|-2--2--2---2-----2--2--2--2--|-2--2-----------------------------2--2--2--2--|-2--2--2---2-----2--2--2--2--|
B|-2--2--3---3-----2--2--2--2--|-2--2--7---7----------------------2--2--2--2--|-2--2--3---3-----2--2--2--2--|
G|-3--3--2---2-----3--3--3--3--|-3--3--7---7--7-----7-7-7--9--9---3--3--3--3--|-3--3--2---2-----3--3--3--3--|
D|-4--4--0---0-----4--4--4--4--|-4--4--7---7----------------------4--4--4--4--|-4--4--0---0-----4--4--4--4--|
A|-4--4------------4--4--4--4--|-4--4--5---5--5-----5-5-5--7--7---4--4--4--4--|-4--4------------4--4--4--4--|
E|-2--2------------2--2--2--2--|-2--2-----------------------------2--2--2--2--|-2--2------------2--2--2--2--|


E|-2--2--2---2--------------|--------|--------|--------|--------|--------|--------|
B|-2--2--3---3--------------|--------|--------|--------|--------|--------|--------|
G|-3--3--2---2--------------|--------|--------|--------|--------|--------|--------|
D|-4--4--0---0--------------|--------|--------|--------|--------|--------|--------|
A|-4--4---------------------|--------|--------|--------|--------|--------|--------|
E|-2--2---------------------|--------|--------|--------|--------|--------|--------|


E|--------|--------|--------|--------|--------|--------|--------|--------|--------|
B|--------|--------|--------|--------|--------|--------|--------|--------|--------|
G|--------|--------|--------|--------|--------|--------|--------|--------|--------|
D|--------|--------|--------|--------|--------|--------|--------|--------|--------|
A|--------|--------|--------|--------|--------|--------|--------|--------|--------|
E|--------|--------|--------|--------|--------|--------|--------|--------|--------|





Track 2: Gtr. 2

E|------------------------|-0-----------------------0-----------------------|-0-----------------------0-----------------------|
B|------------------------|----0--------------3--------3--------------------|----0--------------3--------3--------------------|
G|------------------3-----|-------3--------2-----2--------2--0--------3-----|-------3--------2-----2--------2--0--------3-----|
D|---------------------4--|----------4--0--------------------------------4--|----------4--0--------------------------------4--|
A|---------------4--------|----------------------------------------4--------|----------------------------------------4--------|
E|------------2-----------|-------------------------------------2-----------|-------------------------------------2-----------|


E|-0-----------------------0-----------------------|-------------------------0-----------2--2--2--2--|
B|----0--------------3--------3--------------------|-0-----------------3--------3-----0--2--2--2--2--|
G|-------3--------2-----2--------2--0--------3-----|----3-----3-----2-----2--------0-----3--3--3--3--|
D|----------4--0-----------------------------------|-------4-----0-----------------------4--4--4--4--|
A|----------------------------------------4--------|-------------------------------------4--4--4--4--|
E|-------------------------------------2--------2--|-------------------------------------2--2--2--2--|


E|-2--0--2---2---------2--2--2--2--|-2--2--2---2--------------2--2--2--2--|-2--0--2---2--0--------0---------2--2--2--2--|
B|-2--0--3---3-----0---2--2--2--2--|-2--2--3---3--------------2--2--2--2--|-2--0--3---3-----3--------3------2--2--2--2--|
G|-3--0--2---2-----0---3--3--3--3--|-3--3--2---2--------------3--3--3--3--|-3--0--2---2--------2--------0---3--3--3--3--|
D|-4-----0---0-----0---4--4--4--4--|-4--4--0---0--------------4--4--4--4--|-4-----0---0---------------------4--4--4--4--|
A|-4-------------------4--4--4--4--|-4--4-----------0--2--0---4--4--4--4--|-4-------------------------------4--4--4--4--|
E|-2---------------0---2--2--2--2--|-2--2---------------------2--2--2--2--|-2-------------------------------2--2--2--2--|


E|-2--2--2---2--------------2--2--2--2--|-2--0--2---2--0----0-------2--2--2--2--|-2--2--2---2--------------2--2--2--2--|
B|-2--2--3---3--------------2--2--2--2--|-2--0--3---3--3----3---0---2--2--2--2--|-2--2--3---3--------------2--2--2--2--|
G|-3--3--2---2--------------3--3--3--3--|-3--0--2---2--2----2---0---3--3--3--3--|-3--3--2---2--------------3--3--3--3--|
D|-4--4--0---0--------------4--4--4--4--|-4-----0---0--0----0---0---4--4--4--4--|-4--4--0---0--------------4--4--4--4--|
A|-4--4-----------0--2--0---4--4--4--4--|-4-------------------------4--4--4--4--|-4--4-----------0--2--0---4--4--4--4--|
E|-2--2---------------------2--2--2--2--|-2---------------------0---2--2--2--2--|-2--2---------------------2--2--2--2--|


E|-2--0--2---2--0--------0---------2--2--2--2--|-2--2--2---2--------------2--2--2--2--|
B|-2--0--3---3-----3--------3------2--2--2--2--|-2--2--3---3--------------2--2--2--2--|
G|-3--0--2---2--------2--------0---3--3--3--3--|-3--3--2---2--------------3--3--3--3--|
D|-4-----0---0-----------------0---4--4--4--4--|-4--4--0---0--------------4--4--4--4--|
A|-4-------------------------------4--4--4--4--|-4--4-----------0--2--0---4--4--4--4--|
E|-2---------------------------0---2--2--2--2--|-2--2---------------------2--2--2--2--|


E|-2--0--2---2--0----0-------2--2--2--2--|-2--2--2---2--------------2--2--2--2--|-2--0--2---2--0--------0---------2--2--2--2--|
B|-2--0--3---3--3----3---0---2--2--2--2--|-2--2--3---3--------------2--2--2--2--|-2--0--3---3-----3--------3------2--2--2--2--|
G|-3--0--2---2--2----2---0---3--3--3--3--|-3--3--2---2--------------3--3--3--3--|-3--0--2---2--------2--------0---3--3--3--3--|
D|-4-----0---0--0----0---0---4--4--4--4--|-4--4--0---0--------------4--4--4--4--|-4-----0---0-----------------0---4--4--4--4--|
A|-4-------------------------4--4--4--4--|-4--4-----------0--2--0---4--4--4--4--|-4-------------------------------4--4--4--4--|
E|-2---------------------0---2--2--2--2--|-2--2---------------------2--2--2--2--|-2---------------------------0---2--2--2--2--|


E|-2--0--2---2--0--0--0--0--0--0--0-------|--------|--------|--------|--------|--------|
B|-2--0--3---3--3--3--3--3--3--3--3-------|--------|--------|--------|--------|--------|
G|-3--0--2---2--2--2--2--2--2--2--2-------|--------|--------|--------|--------|--------|
D|-4--0--0---0--0--0--0--0--0--0--0-------|--------|--------|--------|--------|--------|
A|-4--------------------------------------|--------|--------|--------|--------|--------|
E|-2--------------------------------------|--------|--------|--------|--------|--------|


E|--------|--------|--------2--2--2--2--|-0--0--2---2---------2--2--2--2--|-4--0--2---2--------------2--2--2--2--|
B|--------|--------|--------2--2--2--2--|-2--0--3---3-----0---2--2--2--2--|-4--0--3---3--------------2--2--2--2--|
G|--------|--------|--------3--3--3--3--|-2--0--2---2-----0---3--3--3--3--|-3--0--2---2--------------3--3--3--3--|
D|--------|--------|--------4--4--4--4--|-4-----0---0-----0---4--4--4--4--|-4--0--0---0--------------4--4--4--4--|
A|--------|--------|--------4--4--4--4--|-4-------------------4--4--4--4--|-4--------------0--2--0---4--4--4--4--|
E|--------|--------|--------2--2--2--2--|-5---------------0---2--2--2--2--|-2------------------------2--2--2--2--|


E|-0--0--2---2--0--------0---------2--2--2--2--|-4--0--2---2--------------2--2--2--2--|
B|-2--0--3---3-----3--------3------2--2--2--2--|-4--0--3---3--------------2--2--2--2--|
G|-2--0--2---2--------2--------0---3--3--3--3--|-3--0--2---2--------------3--3--3--3--|
D|-4-----0---0---------------------4--4--4--4--|-4--0--0---0--------------4--4--4--4--|
A|-4---------------------------0---4--4--4--4--|-4--------------0--2--0---4--4--4--4--|
E|-5-------------------------------2--2--2--2--|-2------------------------2--2--2--2--|


E|-2--0--2---2--0----0-------2--2--2--2--|-2--2--2---2--------------2--2--2--2--|-2--0--2---2--0--------0---------2--2--2--2--|
B|-2--0--3---3--3----3---0---2--2--2--2--|-2--2--3---3--------------2--2--2--2--|-2--0--3---3-----3--------3------2--2--2--2--|
G|-3--0--2---2--2----2---0---3--3--3--3--|-3--3--2---2--------------3--3--3--3--|-3--0--2---2--------2--------0---3--3--3--3--|
D|-4-----0---0--0----0---0---4--4--4--4--|-4--4--0---0--------------4--4--4--4--|-4-----0---0-----------------0---4--4--4--4--|
A|-4-------------------------4--4--4--4--|-4--4-----------0--2--0---4--4--4--4--|-4-------------------------------4--4--4--4--|
E|-2---------------------0---2--2--2--2--|-2--2---------------------2--2--2--2--|-2---------------------------0---2--2--2--2--|


E|-2--2--2---2--------------2--2--2--2--|-2--0--2---2--0----0-------2--2--2--2--|-2--2--2---2--------------2--2--2--2--|
B|-2--2--3---3--------------2--2--2--2--|-2--0--3---3--3----3---0---2--2--2--2--|-2--2--3---3--------------2--2--2--2--|
G|-3--3--2---2--------------3--3--3--3--|-3--0--2---2--2----2---0---3--3--3--3--|-3--3--2---2--------------3--3--3--3--|
D|-4--4--0---0--------------4--4--4--4--|-4-----0---0--0----0---0---4--4--4--4--|-4--4--0---0--------------4--4--4--4--|
A|-4--4-----------0--2--0---4--4--4--4--|-4-------------------------4--4--4--4--|-4--4-----------0--2--0---4--4--4--4--|
E|-2--2---------------------2--2--2--2--|-2---------------------0---2--2--2--2--|-2--2---------------------2--2--2--2--|


E|-2--0--2---2--0--------0---------2--2--2--2--|-2--0--2---2--0--0--0--0--0--0--0-------|
B|-2--0--3---3-----3--------3------2--2--2--2--|-2--0--3---3--3--3--3--3--3--3--3-------|
G|-3--0--2---2--------2--------0---3--3--3--3--|-3--0--2---2--2--2--2--2--2--2--2-------|
D|-4-----0---0-----------------0---4--4--4--4--|-4--0--0---0--0--0--0--0--0--0--0-------|
A|-4-------------------------------4--4--4--4--|-4--------------------------------------|
E|-2---------------------------0---2--2--2--2--|-2--------------------------------------|


E|--------|--------|--------|--------|--------|--------|--------|--------|--------|
B|--------|--------|--------|--------|--------|--------|--------|--------|--------|
G|--------|--------|--------|--------|--------|--------|--------|--------|--------|
D|--------|--------|--------|--------|--------|--------|--------|--------|--------|
A|--------|--------|--------|--------|--------|--------|--------|--------|--------|
E|--------|--------|--------|--------|--------|--------|--------|--------|--------|


E|--------|--------|--------|--------|--------|--------|--------|--------|--------|
B|--------|--------|--------|--------|--------|--------|--------|--------|--------|
G|--------|--------|--------|--------|--------|--------|--------|--------|--------|
D|--------|--------|--------|--------|--------|--------|--------|--------|--------|
A|--------|--------|--------|--------|--------|--------|--------|--------|--------|
E|--------|--------|--------|--------|--------|--------|--------|--------|--------|


E|--------|--------|--------|--------|--------|--------2--2--2--2--|-2--0--2---2---------2--2--2--2--|
B|--------|--------|--------|--------|--------|--------2--2--2--2--|-2--0--3---3-----0---2--2--2--2--|
G|--------|--------|--------|--------|--------|--------3--3--3--3--|-3--0--2---2-----0---3--3--3--3--|
D|--------|--------|--------|--------|--------|--------4--4--4--4--|-4-----0---0-----0---4--4--4--4--|
A|--------|--------|--------|--------|--------|--------4--4--4--4--|-4-------------------4--4--4--4--|
E|--------|--------|--------|--------|--------|--------2--2--2--2--|-2---------------0---2--2--2--2--|


E|-2--2--2---2--------------2--2--2--2--|-2--0--2---2--0--------0---------2--2--2--2--|
B|-2--2--3---3--------------2--2--2--2--|-2--0--3---3-----3--------3------2--2--2--2--|
G|-3--3--2---2--------------3--3--3--3--|-3--0--2---2--------2--------0---3--3--3--3--|
D|-4--4--0---0--------------4--4--4--4--|-4-----0---0---------------------4--4--4--4--|
A|-4--4-----------0--2--0---4--4--4--4--|-4-------------------------------4--4--4--4--|
E|-2--2---------------------2--2--2--2--|-2-------------------------------2--2--2--2--|


E|-2--2--2---2--------------2--2--2--2--|-2--0--2---2---------2--2--2--2--|-2--2--2---2--------------2--2--2--2--|
B|-2--2--3---3--------------2--2--2--2--|-2--0--3---3-----0---2--2--2--2--|-2--2--3---3--------------2--2--2--2--|
G|-3--3--2---2--------------3--3--3--3--|-3--0--2---2-----0---3--3--3--3--|-3--3--2---2--------------3--3--3--3--|
D|-4--4--0---0--------------4--4--4--4--|-4-----0---0-----0---4--4--4--4--|-4--4--0---0--------------4--4--4--4--|
A|-4--4-----------0--2--0---4--4--4--4--|-4-------------------4--4--4--4--|-4--4-----------0--2--0---4--4--4--4--|
E|-2--2---------------------2--2--2--2--|-2---------------0---2--2--2--2--|-2--2---------------------2--2--2--2--|


E|-2--0--2---2--0--------0---------2--2--2--2--|-2--0--2---2--0--0--0--0--0--0--0-------|
B|-2--0--3---3-----3--------3------2--2--2--2--|-2--0--3---3--3--3--3--3--3--3--3-------|
G|-3--0--2---2--------2--------0---3--3--3--3--|-3--0--2---2--2--2--2--2--2--2--2-------|
D|-4-----0---0---------------------4--4--4--4--|-4--0--0---0--0--0--0--0--0--0--0-------|
A|-4-------------------------------4--4--4--4--|-4--------------------------------------|
E|-2-------------------------------2--2--2--2--|-2--------------------------------------|


E|--------|--------|--------|--------|--------|--------|--------|--------|--------|
B|--------|--------|--------|--------|--------|--------|--------|--------|--------|
G|--------|--------|--------|--------|--------|--------|--------|--------|--------|
D|--------|--------|--------|--------|--------|--------|--------|--------|--------|
A|--------|--------|--------|--------|--------|--------|--------|--------|--------|
E|--------|--------|--------|--------|--------|--------|--------|--------|--------|


E|--------|--------|--------|--------|--------|--------|
B|--------|--------|--------|--------|--------|--------|
G|--------|--------|--------|--------|--------|--------|
D|--------|--------|--------|--------|--------|--------|
A|--------|--------|--------|--------|--------|--------|
E|--------|--------|--------|--------|--------|--------|





Track 3: Gtr. 3

E|------------2----|------0-----2----|------0-----2----|------0-----2----|------0--------------|
B|------------2----|------3-----2----|------3-----2----|------3-----2----|------3-----0--------|
G|------------3----|------2-----3----|------2-----3----|------2-----3----|------2-----0--------|
D|------------4----|------0-----4----|------0-----4----|------0-----4----|------0-----0--------|
A|------------4----|------0-----4----|------0-----4----|------0-----4----|------0--------------|
E|------------2----|------------2----|------------2----|------------2----|---------------------|


E|--------|--------|--------|--------|--------|--------|--------|--------|--------|
B|--------|--------|--------|--------|--------|--------|--------|--------|--------|
G|--------|--------|--------|--------|--------|--------|--------|--------|--------|
D|--------|--------|--------|--------|--------|--------|--------|--------|--------|
A|--------|--------|--------|--------|--------|--------|--------|--------|--------|
E|--------|--------|--------|--------|--------|--------|--------|--------|--------|


E|--------|--------|--------|--------|--------|--------|--------|--------|--------|
B|--------|--------|--------|--------|--------|--------|--------|--------|--------|
G|--------|--------|--------|--------|--------|--------|--------|--------|--------|
D|--------|--------|--------|--------|--------|--------|--------|--------|--------|
A|--------|--------|--------|--------|--------|--------|--------|--------|--------|
E|--------|--------|--------|--------|--------|--------|--------|--------|--------|


E|--------|--------|--------|--------|--------|--------|--------|--------|--------|
B|--------|--------|--------|--------|--------|--------|--------|--------|--------|
G|--------|--------|--------|--------|--------|--------|--------|--------|--------|
D|--------|--------|--------|--------|--------|--------|--------|--------|--------|
A|--------|--------|--------|--------|--------|--------|--------|--------|--------|
E|--------|--------|--------|--------|--------|--------|--------|--------|--------|


E|--------|--------|--------|--------|--------|--------|--------|--------|--------|
B|--------|--------|--------|--------|--------|--------|--------|--------|--------|
G|--------|--------|--------|--------|--------|--------|--------|--------|--------|
D|--------|--------|--------|--------|--------|--------|--------|--------|--------|
A|--------|--------|--------|--------|--------|--------|--------|--------|--------|
E|--------|--------|--------|--------|--------|--------|--------|--------|--------|


E|--------|--------|--------|--------|--------|--------|--------|--------|--------|
B|--------|--------|--------|--------|--------|--------|--------|--------|--------|
G|--------|--------|--------|--------|--------|--------|--------|--------|--------|
D|--------|--------|--------|--------|--------|--------|--------|--------|--------|
A|--------|--------|--------|--------|--------|--------|--------|--------|--------|
E|--------|--------|--------|--------|--------|--------|--------|--------|--------|


E|--------|--------|--------|--------|--------|--------|--------|--------|--------|
B|--------|--------|--------|--------|--------|--------|--------|--------|--------|
G|--------|--------|--------|--------|--------|--------|--------|--------|--------|
D|--------|--------|--------|--------|--------|--------|--------|--------|--------|
A|--------|--------|--------|--------|--------|--------|--------|--------|--------|
E|--------|--------|--------|--------|--------|--------|--------|--------|--------|


E|--------|--------|--------|--------|--------|--------|--------|--------|--------|
B|--------|--------|--------|--------|--------|--------|--------|--------|--------|
G|--------|--------|--------|--------|--------|--------|--------|--------|--------|
D|--------|--------|--------|--------|--------|--------|--------|--------|--------|
A|--------|--------|--------|--------|--------|--------|--------|--------|--------|
E|--------|--------|--------|--------|--------|--------|--------|--------|--------|


E|--------|--------|--------|--------|--------|--------|--------|--------|--------|
B|--------|--------|--------|--------|--------|--------|--------|--------|--------|
G|--------|--------|--------|--------|--------|--------|--------|--------|--------|
D|--------|--------|--------|--------|--------|--------|--------|--------|--------|
A|--------|--------|--------|--------|--------|--------|--------|--------|--------|
E|--------|--------|--------|--------|--------|--------|--------|--------|--------|


E|--------|--------|--------|--------|--------|--------|--------|
B|--------|--------|--------|--------|--------|--------|--------|
G|--------|--------|--------|--------|--------|--------|--------|
D|--------|--------|--------|--------|--------|--------|--------|
A|--------|--------|--------|--------|--------|--------|--------|
E|--------|--------|--------|--------|--------|--------|--------|





Track 4: Gtr. 4

E|--------|--------|--------|--------|--------|--------|--------|--------|--------|
B|--------|--------|--------|--------|--------|--------|--------|--------|--------|
G|--------|--------|--------|--------|--------|--------|--------|--------|--------|
D|--------|--------|--------|--------|--------|--------|--------|--------|--------|
A|--------|--------|--------|--------|--------|--------|--------|--------|--------|
E|--------|--------|--------|--------|--------|--------|--------|--------|--------|


E|--------|--------|--------|--------|--------|--------|-------------|-------------------------------|
B|--------|--------|--------|--------|--------|--------|-------------|-------------------------------|
G|--------|--------|--------|--------|--------|--------|-------------|-------------------------------|
D|--------|--------|--------|--------|--------|--------|-------------|-----------2--2--2--2--2----2--|
A|--------|--------|--------|--------|--------|--------|-------------|-----------2--2--2--2--2----2--|
E|--------|--------|--------|--------|--------|--------|-------------|-----------2--0--0--0--0----0--|


E|-------------------------------------------|-----------------------------------------|
B|-------------------------------------------|-----------------------------------------|
G|---------------------------------7---7--7--|-----------------------------------------|
D|-2--0--4---4--4--5--5--4---5--5--7---7--7--|-------2---2--2--2--2--2---2--2--2----2--|
A|-2--0--4---4--4--5--5--4---5--5--5---5--5--|-0--0--2---2--2--2--2--2---2--2--2----2--|
E|-0--0--2---2--2--5--5--2---5--5------------|-0--0--0---0--0--2--2--0---0--0--0----0--|


E|-----------------------------------------|-----------------------------------------|
B|-----------------------------------------|-----------------------------------------|
G|---------------------------------7----7--|-----------------------------------------|
D|-2--0--4---4--4--5--5--4---5--5--7----7--|-0--0--2---2--2--2--2--2---2--2--2----2--|
A|-2--0--4---4--4--5--5--4---5--5--5----5--|-0--0--2---2--2--2--2--2---2--2--2----2--|
E|-0--0--2---2--2--5--5--2---5--5----------|-0--0--0---0--0--0--0--0---0--0--0----0--|


E|-------------------------------------------|-------------------------------------------|
B|-------------------------------------------|-------------------------------------------|
G|---------------------------------7---7--7--|-7-----------------------------------------|
D|-2--2--4---4--4--5--5--4---5--5--7---7--7--|-7--0--2---2--2--2--2--2--2--2--2--2----2--|
A|-2--2--4---4--4--5--5--4---5--5--5---5--5--|-5--0--2---2--2--2--2--2--2--2--2--2----2--|
E|-0--0--2---2--2--5--5--2---5--5------------|----0--0---0--0--0--0--0--0--0--0--0----0--|


E|----------------------------------------|-------------|-------------|--------|--------|
B|----------------------------------------|-------------|-------------|--------|--------|
G|-----------------------------------7----|--------7----|-------------|--------|--------|
D|-0--0--4---4--4--4--4--4--4--4--4--7----|--------7----|-------------|--------|--------|
A|-0--0--4---4--4--4--4--4--4--4--4--5----|--------5----|-------------|--------|--------|
E|-0--0--2---2--2--2--2--2--2--2--2-------|-------------|-------------|--------|--------|


E|--------|--------|--------|--------|--------|--------|--------|-------------|-------------------------------|
B|--------|--------|--------|--------|--------|--------|--------|-------------|-------------------------------|
G|--------|--------|--------|--------|--------|--------|--------|-------------|-------------------------------|
D|--------|--------|--------|--------|--------|--------|--------|-------------|-----------2--2--2--2--2----2--|
A|--------|--------|--------|--------|--------|--------|--------|-------------|-----------2--2--2--2--2----2--|
E|--------|--------|--------|--------|--------|--------|--------|-------------|-----------2--0--0--0--0----0--|


E|-------------------------------------------|-----------------------------------------|
B|-------------------------------------------|-----------------------------------------|
G|---------------------------------7---7--7--|-----------------------------------------|
D|-2--0--4---4--4--5--5--4---5--5--7---7--7--|-------2---2--2--2--2--2---2--2--2----2--|
A|-2--0--4---4--4--5--5--4---5--5--5---5--5--|-0--0--2---2--2--2--2--2---2--2--2----2--|
E|-0--0--2---2--2--5--5--2---5--5------------|-0--0--0---0--0--2--2--0---0--0--0----0--|


E|-----------------------------------------|-----------------------------------------|
B|-----------------------------------------|-----------------------------------------|
G|---------------------------------7----7--|-----------------------------------------|
D|-2--0--4---4--4--5--5--4---5--5--7----7--|-0--0--2---2--2--2--2--2---2--2--2----2--|
A|-2--0--4---4--4--5--5--4---5--5--5----5--|-0--0--2---2--2--2--2--2---2--2--2----2--|
E|-0--0--2---2--2--5--5--2---5--5----------|-0--0--0---0--0--0--0--0---0--0--0----0--|


E|-------------------------------------------|-------------------------------------------|
B|-------------------------------------------|-------------------------------------------|
G|---------------------------------7---7--7--|-7-----------------------------------------|
D|-2--2--4---4--4--5--5--4---5--5--7---7--7--|-7--0--2---2--2--2--2--2--2--2--2--2----2--|
A|-2--2--4---4--4--5--5--4---5--5--5---5--5--|-5--0--2---2--2--2--2--2--2--2--2--2----2--|
E|-0--0--2---2--2--5--5--2---5--5------------|----0--0---0--0--0--0--0--0--0--0--0----0--|


E|----------------------------------------|-------------|-------------|-----------------|
B|----------------------------------------|-------------|-------------|-----------------|
G|-----------------------------------7----|--------7----|--------7----|-----------------|
D|-0--0--4---4--4--4--4--4--4--4--4--7----|--------7----|--------7----|------------4----|
A|-0--0--4---4--4--4--4--4--4--4--4--5----|--------5----|--------5----|------------4----|
E|-0--0--2---2--2--2--2--2--2--2--2-------|-------------|-------------|-------14---2----|


E|---------------------------|---------------------|---------------------------|---------------------|
B|---------------------------|---------------------|---------------------------|---------------------|
G|-3----5---4----------------|---------------------|-2----5---4----------------|---------------------|
D|-2----5---4----2---2-------|----------------4----|-2----5---4----2---2---2---|-3--------------4----|
A|-0----3---2----2---2-------|----------------4----|-0----3---2----2---2---2---|-3--------------4----|
E|---------------0---0---0---|-1----2----14---2----|---------------0---0---0---|-1----2----14---2----|


E|---------------------------|------------------------|---------------------------------|
B|---------------------------|------------------------|---------------------------------|
G|-3----5---4----------------|------------------------|-2---2---5---4-------------------|
D|-2----5---4----2---2---2---|-3---3---4---------4----|-2---2---5---4-------2---2---2---|
A|-0----3---2----2---2---2---|-3---3---4---------4----|-0---0---3---2---2---2---2---2---|
E|---------------0---0---0---|-1---1---2----14---2----|-----------------0---0---0---0---|


E|---------------------------|---------------------------------|------------------------|
B|---------------------------|---------------------------------|------------------------|
G|---------------------------|-2---2---5---4-------------------|------------------------|
D|-3---3---4----0---0---4----|-2---2---5---4-------2---2-------|-3---3---4---------4----|
A|-3---3---4----0---0---4----|-0---0---3---2---2---2---2---2---|-3---3---4---------4----|
E|-1---1---2----0---0---2----|-----------------0---0---0---0---|---------2-----0---2----|


E|---------------------------------|---------------------------|------------------------------|
B|---------------------------------|---------------------------|------------------------------|
G|-2---2---5---4-------------------|---------------------------|-2---2---5---4----------------|
D|-2---2---5---4-------2---2---2---|-3---3---4----0---0---4----|-2---2---5---4-------2---2----|
A|-0---0---3---2---2---2---2---2---|-3---3---4----0---0---4----|-0---0---3---2---2---2---2----|
E|-----------------0---0---0---0---|-1---1---2----0---0---2----|-----------------0---0---0----|


E|--------|--------|--------|--------|--------|--------|--------|--------|----------------|
B|--------|--------|--------|--------|--------|--------|--------|--------|----------------|
G|--------|--------|--------|--------|--------|--------|--------|--------|----------------|
D|--------|--------|--------|--------|--------|--------|--------|--------|--------2----2--|
A|--------|--------|--------|--------|--------|--------|--------|--------|--------2----2--|
E|--------|--------|--------|--------|--------|--------|--------|--------|--------0----0--|


E|-------------------------------------------|-----------------------------------------|
B|-------------------------------------------|-----------------------------------------|
G|---------------------------------7---7--7--|-----------------------------------------|
D|-2--0--4---4--4--5--5--4---5--5--7---7--7--|-------2---2--2--2--2--2---2--2--2----2--|
A|-2--0--4---4--4--5--5--4---5--5--5---5--5--|-0--0--2---2--2--2--2--2---2--2--2----2--|
E|-0--0--2---2--2--5--5--2---5--5------------|-0--0--0---0--0--2--2--0---0--0--0----0--|


E|-----------------------------------------|-----------------------------------------|
B|-----------------------------------------|-----------------------------------------|
G|---------------------------------7----7--|-----------------------------------------|
D|-2--0--4---4--4--5--5--4---5--5--7----7--|-0--0--2---2--2--2--2--2---2--2--2----2--|
A|-2--0--4---4--4--5--5--4---5--5--5----5--|-0--0--2---2--2--2--2--2---2--2--2----2--|
E|-0--0--2---2--2--5--5--2---5--5----------|-0--0--0---0--0--0--0--0---0--0--0----0--|


E|-------------------------------------------|-------------------------------------------|
B|-------------------------------------------|-------------------------------------------|
G|---------------------------------7---7--7--|-7-----------------------------------------|
D|-2--2--4---4--4--5--5--4---5--5--7---7--7--|-7--0--2---2--2--2--2--2--2--2--2--2----2--|
A|-2--2--4---4--4--5--5--4---5--5--5---5--5--|-5--0--2---2--2--2--2--2--2--2--2--2----2--|
E|-0--0--2---2--2--5--5--2---5--5------------|----0--0---0--0--0--0--0--0--0--0--0----0--|


E|-------------------------------------------|-----------------------------------------|
B|-------------------------------------------|-----------------------------------------|
G|-----------------------------------7----7--|-7---7---7--7--7--7--7--7--7--7----------|
D|-0--0--4---4--4--4--4--4--4--4--4--7----7--|-7---7---7--7--7--7--7--7--7--7--2----2--|
A|-0--0--4---4--4--4--4--4--4--4--4--5----5--|-5---5---5--5--5--5--5--5--5--5--2----2--|
E|-0--0--2---2--2--2--2--2--2--2--2----------|---------------------------------0----0--|


E|-------------------------------------------|-----------------------------------------|
B|-------------------------------------------|-----------------------------------------|
G|---------------------------------7---7--7--|-----------------------------------------|
D|-2--0--4---4--4--5--5--4---5--5--7---7--7--|-------2---2--2--2--2--2---2--2--2----2--|
A|-2--0--4---4--4--5--5--4---5--5--5---5--5--|-0--0--2---2--2--2--2--2---2--2--2----2--|
E|-0--0--2---2--2--5--5--2---5--5------------|-0--0--0---0--0--2--2--0---0--0--0----0--|


E|-----------------------------------------|-----------------------------------------|
B|-----------------------------------------|-----------------------------------------|
G|---------------------------------7----7--|-----------------------------------------|
D|-2--0--4---4--4--5--5--4---5--5--7----7--|-0--0--2---2--2--2--2--2---2--2--2----2--|
A|-2--0--4---4--4--5--5--4---5--5--5----5--|-0--0--2---2--2--2--2--2---2--2--2----2--|
E|-0--0--2---2--2--5--5--2---5--5----------|-0--0--0---0--0--0--0--0---0--0--0----0--|


E|-------------------------------------------|-------------------------------------------|
B|-------------------------------------------|-------------------------------------------|
G|---------------------------------7---7--7--|-7-----------------------------------------|
D|-2--2--4---4--4--5--5--4---5--5--7---7--7--|-7--0--2---2--2--2--2--2--2--2--2--2----2--|
A|-2--2--4---4--4--5--5--4---5--5--5---5--5--|-5--0--2---2--2--2--2--2--2--2--2--2----2--|
E|-0--0--2---2--2--5--5--2---5--5------------|----0--0---0--0--0--0--0--0--0--0--0----0--|


E|----------------------------------------|
B|----------------------------------------|
G|-----------------------------------7----|
D|-0--0--4---4--4--4--4--4--4--4--4--7----|
A|-0--0--4---4--4--4--4--4--4--4--4--5----|
E|-0--0--2---2--2--2--2--2--2--2--2-------|





Track 5: Gtr. 5

E|--------|--------|--------|--------|--------|--------|--------|--------|--------|
B|--------|--------|--------|--------|--------|--------|--------|--------|--------|
G|--------|--------|--------|--------|--------|--------|--------|--------|--------|
D|--------|--------|--------|--------|--------|--------|--------|--------|--------|
A|--------|--------|--------|--------|--------|--------|--------|--------|--------|
E|--------|--------|--------|--------|--------|--------|--------|--------|--------|


E|--------|--------|--------|--------|--------|--------|--------|--------|--------|
B|--------|--------|--------|--------|--------|--------|--------|--------|--------|
G|--------|--------|--------|--------|--------|--------|--------|--------|--------|
D|--------|--------|--------|--------|--------|--------|--------|--------|--------|
A|--------|--------|--------|--------|--------|--------|--------|--------|--------|
E|--------|--------|--------|--------|--------|--------|--------|--------|--------|


E|--------|--------|--------|--------|--------|--------|--------|--------|--------|
B|--------|--------|--------|--------|--------|--------|--------|--------|--------|
G|--------|--------|--------|--------|--------|--------|--------|--------|--------|
D|--------|--------|--------|--------|--------|--------|--------|--------|--------|
A|--------|--------|--------|--------|--------|--------|--------|--------|--------|
E|--------|--------|--------|--------|--------|--------|--------|--------|--------|


E|--------|--------|--------|--------|--------|--------|--------|--------|--------|
B|--------|--------|--------|--------|--------|--------|--------|--------|--------|
G|--------|--------|--------|--------|--------|--------|--------|--------|--------|
D|--------|--------|--------|--------|--------|--------|--------|--------|--------|
A|--------|--------|--------|--------|--------|--------|--------|--------|--------|
E|--------|--------|--------|--------|--------|--------|--------|--------|--------|


E|--------|--------|--------|--------|--------|--------|--------|-------------|------------------------|
B|--------|--------|--------|--------|--------|--------|--------|-------------|------------------------|
G|--------|--------|--------|--------|--------|--------|--------|-------------|------------------------|
D|--------|--------|--------|--------|--------|--------|--------|-------------|----------------0--4----|
A|--------|--------|--------|--------|--------|--------|--------|-------------|----------------0--4----|
E|--------|--------|--------|--------|--------|--------|--------|-------------|----------------0--2----|


E|---------------------------|---------------------|--------|--------|--------|--------|
B|---------------------------|---------------------|--------|--------|--------|--------|
G|-2----5---4----------------|---------------------|--------|--------|--------|--------|
D|-2----5---4----2---2-------|---------------------|--------|--------|--------|--------|
A|-0----3---2----2---2-------|---------------------|--------|--------|--------|--------|
E|---------------0---0---0---|-1----2----14--------|--------|--------|--------|--------|


E|--------|--------|--------|--------|--------|--------|--------|--------|--------|
B|--------|--------|--------|--------|--------|--------|--------|--------|--------|
G|--------|--------|--------|--------|--------|--------|--------|--------|--------|
D|--------|--------|--------|--------|--------|--------|--------|--------|--------|
A|--------|--------|--------|--------|--------|--------|--------|--------|--------|
E|--------|--------|--------|--------|--------|--------|--------|--------|--------|


E|--------|--------|--------|--------|--------|--------|--------|--------|--------|
B|--------|--------|--------|--------|--------|--------|--------|--------|--------|
G|--------|--------|--------|--------|--------|--------|--------|--------|--------|
D|--------|--------|--------|--------|--------|--------|--------|--------|--------|
A|--------|--------|--------|--------|--------|--------|--------|--------|--------|
E|--------|--------|--------|--------|--------|--------|--------|--------|--------|


E|--------|--------|--------|--------|--------|--------|--------|--------|--------|
B|--------|--------|--------|--------|--------|--------|--------|--------|--------|
G|--------|--------|--------|--------|--------|--------|--------|--------|--------|
D|--------|--------|--------|--------|--------|--------|--------|--------|--------|
A|--------|--------|--------|--------|--------|--------|--------|--------|--------|
E|--------|--------|--------|--------|--------|--------|--------|--------|--------|


E|--------|--------|--------|--------|--------|--------|
B|--------|--------|--------|--------|--------|--------|
G|--------|--------|--------|--------|--------|--------|
D|--------|--------|--------|--------|--------|--------|
A|--------|--------|--------|--------|--------|--------|
E|--------|--------|--------|--------|--------|--------|





Track 6: Mandolin arr. for Acoustic

E|--------|--------|--------|--------|--------|--------|--------|--------|--------|
B|--------|--------|--------|--------|--------|--------|--------|--------|--------|
G|--------|--------|--------|--------|--------|--------|--------|--------|--------|
D|--------|--------|--------|--------|--------|--------|--------|--------|--------|
A|--------|--------|--------|--------|--------|--------|--------|--------|--------|
E|--------|--------|--------|--------|--------|--------|--------|--------|--------|


E|--------|--------|--------|--------|--------|--------|--------|--------|--------|
B|--------|--------|--------|--------|--------|--------|--------|--------|--------|
G|--------|--------|--------|--------|--------|--------|--------|--------|--------|
D|--------|--------|--------|--------|--------|--------|--------|--------|--------|
A|--------|--------|--------|--------|--------|--------|--------|--------|--------|
E|--------|--------|--------|--------|--------|--------|--------|--------|--------|


E|--------|--------|--------|--------|--------|--------|--------|--------|--------|
B|--------|--------|--------|--------|--------|--------|--------|--------|--------|
G|--------|--------|--------|--------|--------|--------|--------|--------|--------|
D|--------|--------|--------|--------|--------|--------|--------|--------|--------|
A|--------|--------|--------|--------|--------|--------|--------|--------|--------|
E|--------|--------|--------|--------|--------|--------|--------|--------|--------|


E|--------|--------|--------|--------|--------|--------|--------|--------|--------|
B|--------|--------|--------|--------|--------|--------|--------|--------|--------|
G|--------|--------|--------|--------|--------|--------|--------|--------|--------|
D|--------|--------|--------|--------|--------|--------|--------|--------|--------|
A|--------|--------|--------|--------|--------|--------|--------|--------|--------|
E|--------|--------|--------|--------|--------|--------|--------|--------|--------|


E|--------|--------|--------|--------|--------|--------|--------|--------|--------|
B|--------|--------|--------|--------|--------|--------|--------|--------|--------|
G|--------|--------|--------|--------|--------|--------|--------|--------|--------|
D|--------|--------|--------|--------|--------|--------|--------|--------|--------|
A|--------|--------|--------|--------|--------|--------|--------|--------|--------|
E|--------|--------|--------|--------|--------|--------|--------|--------|--------|


E|--------|--------|--------|--------|--------|--------|--------|--------|--------|
B|--------|--------|--------|--------|--------|--------|--------|--------|--------|
G|--------|--------|--------|--------|--------|--------|--------|--------|--------|
D|--------|--------|--------|--------|--------|--------|--------|--------|--------|
A|--------|--------|--------|--------|--------|--------|--------|--------|--------|
E|--------|--------|--------|--------|--------|--------|--------|--------|--------|


E|--------|--------|--------|--------|--------|-------------|-------------|-----------------------------|
B|--------|--------|--------|--------|--------|-------------|-------------|-----------------------------|
G|--------|--------|--------|--------|--------|-------------|-------------|-----------------------------|
D|--------|--------|--------|--------|--------|-------------|--------9----|-----------4--4--7--9--9--9--|
A|--------|--------|--------|--------|--------|-------------|-------------|-----------------------------|
E|--------|--------|--------|--------|--------|-------------|-------------|-----------------------------|


E|----------------------------------------------|------------------------------------|
B|----------------------------------------------|------------------------------------|
G|----------------------------------------------|------------------------14--13--11--|
D|-11-11-11--11-12--121212-12-12-12-12-14-14-14-|-16-16-16--16---16--16--------------|
A|----------------------------------------------|------------------------------------|
E|----------------------------------------------|------------------------------------|


E|---------------------------------------------|-------------------------------------|
B|---------------------------------------------|-------------------------------------|
G|-13--11--9---11--9---7---9---7---6---7----4--|-----4---4--2----2---0---------------|
D|---------------------------------------------|-------------------------2--4--4--4--|
A|---------------------------------------------|-------------------------------------|
E|---------------------------------------------|-------------------------------------|


E|---------------------------------------|---------------------------------------|
B|---------------------------------------|---------------------------------------|
G|-----------------------2---------------|-2--1--1---1--2----2---0---2--4-----4--|
D|-4--2--2---2--4----4-------2--4--4--4--|---------------------------------------|
A|---------------------------------------|---------------------------------------|
E|---------------------------------------|---------------------------------------|


E|----------------------------------------|--------|--------|--------|--------|--------|
B|----------------------------------------|--------|--------|--------|--------|--------|
G|-4--6--6---6--7--7--7--7--7--7--7-------|--------|--------|--------|--------|--------|
D|----------------------------------------|--------|--------|--------|--------|--------|
A|----------------------------------------|--------|--------|--------|--------|--------|
E|----------------------------------------|--------|--------|--------|--------|--------|


E|--------|--------|--------|--------|--------|--------|--------|--------|--------|
B|--------|--------|--------|--------|--------|--------|--------|--------|--------|
G|--------|--------|--------|--------|--------|--------|--------|--------|--------|
D|--------|--------|--------|--------|--------|--------|--------|--------|--------|
A|--------|--------|--------|--------|--------|--------|--------|--------|--------|
E|--------|--------|--------|--------|--------|--------|--------|--------|--------|


E|--------|
B|--------|
G|--------|
D|--------|
A|--------|
E|--------|





Track 7: Gtr. 1

E|--------|--------|--------|--------|--------|--------|--------|--------|--------|
B|--------|--------|--------|--------|--------|--------|--------|--------|--------|
G|--------|--------|--------|--------|--------|--------|--------|--------|--------|
D|--------|--------|--------|--------|--------|--------|--------|--------|--------|
A|--------|--------|--------|--------|--------|--------|--------|--------|--------|
E|--------|--------|--------|--------|--------|--------|--------|--------|--------|


E|--------|--------|--------|--------|--------|--------|--------|--------|--------|
B|--------|--------|--------|--------|--------|--------|--------|--------|--------|
G|--------|--------|--------|--------|--------|--------|--------|--------|--------|
D|--------|--------|--------|--------|--------|--------|--------|--------|--------|
A|--------|--------|--------|--------|--------|--------|--------|--------|--------|
E|--------|--------|--------|--------|--------|--------|--------|--------|--------|


E|--------|--------|--------|--------|--------|--------|--------|--------|--------|
B|--------|--------|--------|--------|--------|--------|--------|--------|--------|
G|--------|--------|--------|--------|--------|--------|--------|--------|--------|
D|--------|--------|--------|--------|--------|--------|--------|--------|--------|
A|--------|--------|--------|--------|--------|--------|--------|--------|--------|
E|--------|--------|--------|--------|--------|--------|--------|--------|--------|


E|--------|--------|--------|--------|--------|--------|--------|--------|--------|
B|--------|--------|--------|--------|--------|--------|--------|--------|--------|
G|--------|--------|--------|--------|--------|--------|--------|--------|--------|
D|--------|--------|--------|--------|--------|--------|--------|--------|--------|
A|--------|--------|--------|--------|--------|--------|--------|--------|--------|
E|--------|--------|--------|--------|--------|--------|--------|--------|--------|


E|--------|--------|--------|--------|--------|--------|--------|--------|--------|
B|--------|--------|--------|--------|--------|--------|--------|--------|--------|
G|--------|--------|--------|--------|--------|--------|--------|--------|--------|
D|--------|--------|--------|--------|--------|--------|--------|--------|--------|
A|--------|--------|--------|--------|--------|--------|--------|--------|--------|
E|--------|--------|--------|--------|--------|--------|--------|--------|--------|


E|--------|--------|--------|--------|--------|--------|--------|--------|--------|
B|--------|--------|--------|--------|--------|--------|--------|--------|--------|
G|--------|--------|--------|--------|--------|--------|--------|--------|--------|
D|--------|--------|--------|--------|--------|--------|--------|--------|--------|
A|--------|--------|--------|--------|--------|--------|--------|--------|--------|
E|--------|--------|--------|--------|--------|--------|--------|--------|--------|


E|--------|--------|--------|--------|--------|-------------|--------|--------|--------|
B|--------|--------|--------|--------|--------|-------------|--------|--------|--------|
G|--------|--------|--------|--------|--------|-------------|--------|--------|--------|
D|--------|--------|--------|--------|--------|-------------|--------|--------|--------|
A|--------|--------|--------|--------|--------|-------------|--------|--------|--------|
E|--------|--------|--------|--------|--------|-------------|--------|--------|--------|


E|--------|--------|--------|--------|--------|--------|--------|--------|--------|
B|--------|--------|--------|--------|--------|--------|--------|--------|--------|
G|--------|--------|--------|--------|--------|--------|--------|--------|--------|
D|--------|--------|--------|--------|--------|--------|--------|--------|--------|
A|--------|--------|--------|--------|--------|--------|--------|--------|--------|
E|--------|--------|--------|--------|--------|--------|--------|--------|--------|


E|--------|--------|--------|--------|--------|--------|--------|--------|--------|
B|--------|--------|--------|--------|--------|--------|--------|--------|--------|
G|--------|--------|--------|--------|--------|--------|--------|--------|--------|
D|--------|--------|--------|--------|--------|--------|--------|--------|--------|
A|--------|--------|--------|--------|--------|--------|--------|--------|--------|
E|--------|--------|--------|--------|--------|--------|--------|--------|--------|


E|--------|--------|--------|
B|--------|--------|--------|
G|--------|--------|--------|
D|--------|--------|--------|
A|--------|--------|--------|
E|--------|--------|--------|





Track 8: Untitled

G|-----------------|--------|--------|-------------|-------------------------------|
D|-----------------|--------|--------|-------------|-------------------------------|
A|-----------------|--------|--------|-------------|-------------------------------|
E|-----------------|--------|--------|-------------|---------------15--2--2--2--2--|


G|---------------------------------|--------------------------------------|---------------------------------|
D|---------------------------------|--------------------------------------|---------------------------------|
A|----0--5---5-----7---------------|-------5---5----0--2--0---------------|---------------------------------|
E|-2--0----------------2--2--2--2--|-2--0---------------------2--2--2--2--|-2--0--5---5-----7---2--2--2--2--|


G|--------------------------------------|---------------------------------|--------------------------------------|
D|--------------------------------------|---------------------------------|--------------------------------------|
A|--------------------------------------|----0--5---5-----7---------------|-------5---5----0--2--0---------------|
E|-2--0--5---5----0--2--0---2--2--2--2--|-2--0----------------2--2--2--2--|-2--0---------------------2--2--2--2--|


G|---------------------------------|--------------------------------------|---------------------------------|
D|---------------------------------|--------------------------------------|---------------------------------|
A|---------------------------------|--------------------------------------|----0--5---5-----7---------------|
E|-2--0--5---5-----7---2--2--2--2--|-2--0--5---5----0--2--0---2--2--2--2--|-2--0----------------2--2--2--2--|


G|--------------------------------------|---------------------------------|-----------------------------------------|
D|--------------------------------------|---------------------------------|-----------------------------------------|
A|-------5---5----0--2--0---------------|---------------------------------|-------5---5--5--5---5--5--5--5----------|
E|-2--0---------------------2--2--2--2--|-2--0--5---5-----7---2--2--2--2--|-3--0----------------------------0----0--|


G|-----------------------------|------------4--------4-----------|-------------------------------------|
D|-----------------------------|-----2---2-------2---------------|-------------------------------------|
A|------------------------5----|---------------------------------|-------------------------2---5----5--|
E|-0--0--2---2----2----0-------|-------------------------0----0--|-0---2---2--2--2---2--4--------------|


G|------------4--------4-----------|----------------------------------|-------------------------2--4----------|
D|-----2---2-------2---------------|----------------------------------|-----2---2--2--2---2--4----------------|
A|-5-------------------------------|--------------------------5----5--|-5-------------------------------------|
E|-------------------------0----0--|-0--0--2---2----2--2---0----------|-------------------------------0----0--|


G|------------------------------------|--------------------|---------------------------------|
D|------------------------------------|--------------------|---------------------------------|
A|-------------------------------5----|--------------------|----0--5---5-----7---------------|
E|-0--0--2---2--2--2---2--2---0-------|--------2--2--2--2--|-2--0----------------2--2--2--2--|


G|--------------------------------------|---------------------------------|--------------------------------------|
D|--------------------------------------|---------------------------------|--------------------------------------|
A|-------5---5----0--2--0---------------|---------------------------------|--------------------------------------|
E|-2--0---------------------2--2--2--2--|-2--0--5---5-----7---2--2--2--2--|-2--0--5---5----0--2--0---2--2--2--2--|


G|---------------------------------|--------------------------------------|---------------------------------|
D|---------------------------------|--------------------------------------|---------------------------------|
A|----0--5---5-----7---------------|-------5---5----0--2--0---------------|---------------------------------|
E|-2--0----------------2--2--2--2--|-2--0---------------------2--2--2--2--|-2--0--5---5-----7---2--2--2--2--|


G|--------------------------------------|---------------------------------|--------------------------------------|
D|--------------------------------------|---------------------------------|--------------------------------------|
A|--------------------------------------|----0--5---5-----7---------------|-------5---5----0--2--0---------------|
E|-2--0--5---5----0--2--0---2--2--2--2--|-2--0----------------2--2--2--2--|-2--0---------------------2--2--2--2--|


G|---------------------------------|-----------------------------------------|-----------------------------|
D|---------------------------------|-----------------------------------------|-----------------------------|
A|---------------------------------|-------5---5--5--5---5--5--5--5----------|------------------------5----|
E|-2--0--5---5-----7---2--2--2--2--|-3--0----------------------------0----0--|-0--0--2---2----2----0-------|


G|------------4--------4-----------|-------------------------------------|------------4--------4-----------|
D|-----2---2-------2---------------|-------------------------------------|-----2---2-------2---------------|
A|---------------------------------|-------------------------2---5----5--|-5-------------------------------|
E|-------------------------0----0--|-0---2---2--2--2---2--4--------------|-------------------------0----0--|


G|----------------------------------|-------------------------2--4----------|------------------------------------|
D|----------------------------------|-----2---2--2--2---2--4----------------|------------------------------------|
A|--------------------------5----5--|-5-------------------------------------|-------------------------------5----|
E|-0--0--2---2----2--2---0----------|-------------------------------0----0--|-0--0--2---2--2--2---2--2---0-------|


G|-------------|-----------------|---------------------------|---------------------|
D|-------------|-----------------|---------------------------|---------------------|
A|--------5----|-----------------|-0----3---2----------------|---------------------|
E|-------------|-------14---2----|---------------0---0---0---|-1----2----14---2----|


G|---------------------------|---------------------|---------------------------|------------------------|
D|---------------------------|---------------------|---------------------------|------------------------|
A|-0----3---2----------------|---------------------|-0----3---2----------------|------------------------|
E|---------------0---0---0---|-1----2----14---2----|---------------0---0---0---|-1---1---2----14---2----|


G|------------------------------|------------------------|------------------------------|
D|------------------------------|------------------------|------------------------------|
A|-0---0---3---2----------------|------------------------|-0---0---3---3----------------|
E|------------------0---0---0---|-1---1---2----5----2----|------------------0---0---0---|


G|---------------------|------------------------------|------------------------|---------------------------|
D|---------------------|------------------------------|------------------------|---------------------------|
A|---------------------|-0---0---3---2----------------|------------------------|-0---0---3---3-------------|
E|-1----2----5----2----|------------------0---0---0---|-1---1---2----5----2----|------------------0---0----|


G|--------------------|---------------------------------|--------------------------------------|
D|--------------------|---------------------------------|--------------------------------------|
A|--------------------|----0--5---5-----7---------------|-------5---5----0--2--0---------------|
E|--------2--2--2--2--|-2--0----------------2--2--2--2--|-2--0---------------------2--2--2--2--|


G|---------------------------------|--------------------------------------|---------------------------------|
D|---------------------------------|--------------------------------------|---------------------------------|
A|---------------------------------|--------------------------------------|----0--5---5-----7---------------|
E|-2--0--5---5-----7---2--2--2--2--|-2--0--5---5----0--2--0---2--2--2--2--|-2--0----------------2--2--2--2--|


G|--------------------------------------|---------------------------------|-----------------------------------------|
D|--------------------------------------|---------------------------------|-----------------------------------------|
A|-------5---5----0--2--0---------------|---------------------------------|-------5---5--5--5---5--5--5--5----------|
E|-2--0---------------------2--2--2--2--|-2--0--5---5-----7---2--2--2--2--|-3--0----------------------------0----2--|


G|---------------------------------------|-----------------------------------------|
D|-2-------------------------------------|-----------------------------------------|
A|----2----------------------2---5----5--|-5--5--7---7--7--7---7--7--7--7----------|
E|-------2---2--2--2---2--4--------------|---------------------------------0----0--|


G|---------------------------------------|-------------------------2--4----------|
D|---------------------------------------|-----2---2--2--2---2--4----------------|
A|---------------------------2---5----5--|-5-------------------------------------|
E|-0--0--2---2--2--2---2--4--------------|-------------------------------0----0--|


G|-----------------------------------|-----------------------------------|-----------------------------7----7--|
D|-----------------------------------|-----2---2---2---2--2---2----------|-----------------------------7----7--|
A|-----------------------2---5----5--|-5---------------------------------|-------------------------2---5----5--|
E|-0---2---2---2---2--4--------------|---------------------------0----0--|-0--0--2---2---2---2--4--------------|


G|-7--7--7---7--7--7--7--7--7--7--7----------|---------------------------------------|
D|-7--7--7---7--7--7--7--7--7--7--7----------|-2-------------------------------------|
A|-5--5--5---5--5--5--5--5--5--5--5----------|----2----------------------2---5----5--|
E|-----------------------------------0----2--|-------2---2--2--2---2--4--------------|


G|-----------------------------------------|---------------------------------------|
D|-----------------------------------------|---------------------------------------|
A|-5--5--7---7--7--7---7--7--7--7----------|---------------------------2---5----5--|
E|---------------------------------0----0--|-0--0--2---2--2--2---2--4--------------|


G|-------------------------2--4----------|-----------------------------------|-----------------------------------|
D|-----2---2--2--2---2--4----------------|-----------------------------------|-----2---2---2---2--2---2----------|
A|-5-------------------------------------|-----------------------2---5----5--|-5---------------------------------|
E|-------------------------------0----0--|-0---2---2---2---2--4--------------|---------------------------0----0--|


G|----------------------------------|--------|
D|----------------------------------|--------|
A|-------------------------2---5----|--------|
E|-0--0--2---2---2---2--4-----------|--------|