Site menu:

    

Browse: 0-9 A B C D E F G H I J K L N O P Q R S T U V W X Y Z

3 doors down - kryptonite:



Title: Kyptonite
Artist: 
Album: The Better Life
Author: Matt Robert, Brad Arnold and Todd Harell


Track 1: Gtr1

E|---------------------|---------------------|---------------------|---------------------|
B|----------------3----|-3-------------------|---------------------|----------------0----|
G|-----------4---------|------4---------0----|----------------0----|-----------2---------|
D|------4--------------|-----------4---------|-----------0---------|------2--------------|
A|-2-------------------|---------------------|------2--------------|-0-------------------|
E|---------------------|---------------------|-3-------------------|---------------------|


E|---------------------|---------------------|---------------------|---------------------|
B|----------------3----|-3-------------------|---------------------|----------------0----|
G|-----------4---------|------4---------0----|----------------0----|-----------2---------|
D|------4--------------|-----------4---------|-----------0---------|------2--------------|
A|-2-------------------|---------------------|------2--------------|-0-------------------|
E|---------------------|---------------------|-3-------------------|---------------------|


E|---------------------|---------------------|---------------------|---------------------|
B|----------------3----|-3-------------------|---------------------|----------------0----|
G|-----------4---------|------4---------0----|----------------0----|-----------2---------|
D|------4--------------|-----------4---------|-----------0---------|------2--------------|
A|-2-------------------|---------------------|------2--------------|-0-------------------|
E|---------------------|---------------------|-3-------------------|---------------------|


E|---------------------|---------------------|---------------------|------0--------------|
B|----------------3----|-3-------------------|----------------0----|-----------0---------|
G|-----------4---------|------4---------0----|-----------0---------|----------------0----|
D|------4--------------|---------------------|------0--------------|---------------------|
A|-2-------------------|-----------2---------|---------------------|-0-------------------|
E|---------------------|---------------------|-3-------------------|---------------------|


E|---------------------|---------------------|---------------------|------0--------------|
B|----------------3----|-3-------------------|----------------0----|-----------0---------|
G|-----------4---------|------4---------0----|-----------0---------|----------------0----|
D|------4--------------|---------------------|------0--------------|---------------------|
A|-2-------------------|-----------2---------|---------------------|-0-------------------|
E|---------------------|---------------------|-3-------------------|---------------------|


E|---------------------|---------------------|---------------------|---------------------|
B|----------------3----|-3-------------------|---------------------|----------------0----|
G|-----------4---------|------4---------0----|----------------0----|-----------2---------|
D|------4--------------|-----------4---------|-----------0---------|------2--------------|
A|-2-------------------|---------------------|------2--------------|-0-------------------|
E|---------------------|---------------------|-3-------------------|---------------------|


E|---------------------|---------------------|---------------------|---------------------|
B|----------------3----|-3-------------------|---------------------|----------------0----|
G|-----------4---------|------4---------0----|----------------0----|-----------2---------|
D|------4--------------|-----------4---------|-----------0---------|------2--------------|
A|-2-------------------|---------------------|------2--------------|-0-------------------|
E|---------------------|---------------------|-3-------------------|---------------------|


E|---------------------|---------------------|---------------------|------0--------------|
B|----------------3----|-3-------------------|----------------0----|-----------0---------|
G|-----------4---------|------4---------0----|-----------0---------|----------------0----|
D|------4--------------|---------------------|------0--------------|---------------------|
A|-2-------------------|-----------2---------|---------------------|-0-------------------|
E|---------------------|---------------------|-3-------------------|---------------------|


E|---------------------|----------------0----|-0-------------------|-------2---------|
B|-0----3----3----2----|-2----3----3---------|------3----3----2----|-2----------2----|
G|---------------------|---------------------|---------------------|-----------------|
D|---------------------|---------------------|---------------------|-----------------|
A|---------------------|---------------------|---------------------|-----------------|
E|---------------------|---------------------|---------------------|-----------------|


E|------2----2---------|---------------------|------3----3----2----|-2-----0----2----|
B|-0--------------2----|-2----3----3---------|---------------------|-----------------|
G|---------------------|----------------0----|-0-------------------|-----------------|
D|---------------------|---------------------|---------------------|-----------------|
A|---------------------|---------------------|---------------------|-----------------|
E|---------------------|---------------------|---------------------|-----------------|


E|---------------------|---------------------|---------------------|---------------------|
B|----------------3----|-3-------------------|----------------0----|----------------0----|
G|-----------4---------|------4---------0----|----------------0----|-----------2---------|
D|------4--------------|-----------4---------|-----------0---------|------2--------------|
A|-2-------------------|---------------------|------2--------------|-0-------------------|
E|---------------------|---------------------|-3-------------------|---------------------|


E|---------------------|---------------------|---------------------|-----------0---------|
B|----------------3----|-3-------------------|----------------0----|----------------0----|
G|-----------4---------|------4---------0----|----------------0----|---------------------|
D|------4--------------|-----------4---------|-----------0---------|------2--------------|
A|-2-------------------|---------------------|------2--------------|-0-------------------|
E|---------------------|---------------------|-3-------------------|---------------------|


E|---------------------|---------------------|---------------------|---------------------|
B|----------------3----|-3-------------------|----------------0----|----------------0----|
G|-----------4---------|------4---------0----|-----------0---------|-----------2---------|
D|------4--------------|-----------4---------|------0--------------|------2--------------|
A|-2-------------------|---------------------|---------------------|-0-------------------|
E|---------------------|---------------------|-3-------------------|---------------------|


E|---------------------|---------------------|---------------------|---------------------|
B|----------------3----|-3-------------------|---------------------|----------------0----|
G|-----------4---------|------4---------0----|----------------0----|-----------2---------|
D|------4--------------|-----------4---------|-----------0---------|------2--------------|
A|-2-------------------|---------------------|------2--------------|-0-------------------|
E|---------------------|---------------------|-3-------------------|---------------------|


E|--------|--------|--------|--------|--------|--------|--------|--------|--------|
B|--------|--------|--------|--------|--------|--------|--------|--------|--------|
G|--------|--------|--------|--------|--------|--------|--------|--------|--------|
D|--------|--------|--------|--------|--------|--------|--------|--------|--------|
A|--------|--------|--------|--------|--------|--------|--------|--------|--------|
E|--------|--------|--------|--------|--------|--------|--------|--------|--------|


E|--------|--------|--------|--------|--------|--------|--------|--------|--------|
B|--------|--------|--------|--------|--------|--------|--------|--------|--------|
G|--------|--------|--------|--------|--------|--------|--------|--------|--------|
D|--------|--------|--------|--------|--------|--------|--------|--------|--------|
A|--------|--------|--------|--------|--------|--------|--------|--------|--------|
E|--------|--------|--------|--------|--------|--------|--------|--------|--------|


E|--------|--------|--------|--------|--------|--------|--------|--------|--------|
B|--------|--------|--------|--------|--------|--------|--------|--------|--------|
G|--------|--------|--------|--------|--------|--------|--------|--------|--------|
D|--------|--------|--------|--------|--------|--------|--------|--------|--------|
A|--------|--------|--------|--------|--------|--------|--------|--------|--------|
E|--------|--------|--------|--------|--------|--------|--------|--------|--------|


E|--------|--------|--------|--------|--------|--------|--------|--------|--------|
B|--------|--------|--------|--------|--------|--------|--------|--------|--------|
G|--------|--------|--------|--------|--------|--------|--------|--------|--------|
D|--------|--------|--------|--------|--------|--------|--------|--------|--------|
A|--------|--------|--------|--------|--------|--------|--------|--------|--------|
E|--------|--------|--------|--------|--------|--------|--------|--------|--------|


E|---------------------|---------------------|---------------------|---------------------|
B|----------------3----|-3-------------------|---------------------|----------------0----|
G|-----------4---------|------4---------0----|----------------0----|-----------2---------|
D|------4--------------|-----------4---------|-----------0---------|------2--------------|
A|-2-------------------|---------------------|------2--------------|-0-------------------|
E|---------------------|---------------------|-3-------------------|---------------------|


E|--------|--------|--------|--------|--------|--------|--------|--------|--------|
B|--------|--------|--------|--------|--------|--------|--------|--------|--------|
G|--------|--------|--------|--------|--------|--------|--------|--------|--------|
D|--------|--------|--------|--------|--------|--------|--------|--------|--------|
A|--------|--------|--------|--------|--------|--------|--------|--------|--------|
E|--------|--------|--------|--------|--------|--------|--------|--------|--------|


E|--------|--------|--------|--------|--------|--------|--------|--------|--------|
B|--------|--------|--------|--------|--------|--------|--------|--------|--------|
G|--------|--------|--------|--------|--------|--------|--------|--------|--------|
D|--------|--------|--------|--------|--------|--------|--------|--------|--------|
A|--------|--------|--------|--------|--------|--------|--------|--------|--------|
E|--------|--------|--------|--------|--------|--------|--------|--------|--------|


E|--------|--------|--------|--------|--------|--------|--------|--------|--------|
B|--------|--------|--------|--------|--------|--------|--------|--------|--------|
G|--------|--------|--------|--------|--------|--------|--------|--------|--------|
D|--------|--------|--------|--------|--------|--------|--------|--------|--------|
A|--------|--------|--------|--------|--------|--------|--------|--------|--------|
E|--------|--------|--------|--------|--------|--------|--------|--------|--------|


E|--------|--------|--------|--------|--------|-2------|-2------|-0------|-3------|
B|--------|--------|--------|--------|--------|-3------|-3------|-2------|-3------|
G|--------|--------|--------|--------|--------|-4------|-4------|-2------|-0------|
D|--------|--------|--------|--------|--------|-4------|-4------|-2------|-0------|
A|--------|--------|--------|--------|--------|-2------|-2------|-0------|-2------|
E|--------|--------|--------|--------|--------|--------|--------|--------|-3------|


E|-2------|-2------|-0------|-3------|-2------|-2------|-0------|-3------|----------------2----|
B|-3------|-3------|-2------|-3------|-3------|-3------|-2------|-3------|---------------------|
G|-4------|-4------|-2------|-0------|-4------|-4------|-2------|-0------|-----------4---------|
D|-4------|-4------|-2------|-0------|-4------|-4------|-2------|-0------|------4--------------|
A|-2------|-2------|-0------|-2------|-2------|-2------|-0------|-2------|-2-------------------|
E|--------|--------|--------|-3------|--------|--------|--------|-3------|---------------------|


E|---------------------|-2-------------------|-3-------------------|----------------2----|
B|-3-------------------|------2--------------|------3--------------|---------------------|
G|------4----4---------|-----------2----2----|-----------0---------|-----------4---------|
D|---------------------|---------------------|---------------------|------4--------------|
A|---------------------|---------------------|---------------------|-2-------------------|
E|---------------------|---------------------|---------------------|---------------------|


E|---------------------|-2-------------------|-3-------------------|----------------2----|
B|-3-------------------|------2--------------|------3--------------|---------------------|
G|------4----4---------|-----------2----2----|-----------0---------|-----------4---------|
D|---------------------|---------------------|---------------------|------4--------------|
A|---------------------|---------------------|---------------------|-2-------------------|
E|---------------------|---------------------|---------------------|---------------------|


E|---------------------|-2-------------------|-3-------------------|--------|--------|
B|-3-------------------|------2--------------|------3--------------|--------|--------|
G|------4----4---------|-----------2----2----|-----------0---------|--------|--------|
D|---------------------|---------------------|---------------------|--------|--------|
A|---------------------|---------------------|---------------------|--------|--------|
E|---------------------|---------------------|---------------------|--------|--------|


E|--------|--------|--------|--------|--------|--------|--------|--------|--------|
B|--------|--------|--------|--------|--------|--------|--------|--------|--------|
G|--------|--------|--------|--------|--------|--------|--------|--------|--------|
D|--------|--------|--------|--------|--------|--------|--------|--------|--------|
A|--------|--------|--------|--------|--------|--------|--------|--------|--------|
E|--------|--------|--------|--------|--------|--------|--------|--------|--------|


E|--------|--------|--------|--------|--------|---------------------|----------------0----|
B|--------|--------|--------|--------|--------|-0----3----3----2----|-2----3----3---------|
G|--------|--------|--------|--------|--------|---------------------|---------------------|
D|--------|--------|--------|--------|--------|---------------------|---------------------|
A|--------|--------|--------|--------|--------|---------------------|---------------------|
E|--------|--------|--------|--------|--------|---------------------|---------------------|


E|-0-------------------|-------2---------|------2----2---------|---------------------|
B|------3----3----2----|-2----------2----|-0--------------2----|-2----3----3---------|
G|---------------------|-----------------|---------------------|----------------0----|
D|---------------------|-----------------|---------------------|---------------------|
A|---------------------|-----------------|---------------------|---------------------|
E|---------------------|-----------------|---------------------|---------------------|


E|------3----3----2----|-2-----0----2----|---------------------|----------------0----|
B|---------------------|-----------------|-0----3----3----2----|-2----3----3---------|
G|-0-------------------|-----------------|---------------------|---------------------|
D|---------------------|-----------------|---------------------|---------------------|
A|---------------------|-----------------|---------------------|---------------------|
E|---------------------|-----------------|---------------------|---------------------|


E|-0-------------------|-------2---------|------2----2---------|---------------------|
B|------3----3----2----|-2----------2----|-0--------------2----|-2----3----3---------|
G|---------------------|-----------------|---------------------|----------------0----|
D|---------------------|-----------------|---------------------|---------------------|
A|---------------------|-----------------|---------------------|---------------------|
E|---------------------|-----------------|---------------------|---------------------|


E|------3----3----2----|-2-----0----2----|--------|--------|--------|
B|---------------------|-----------------|--------|--------|--------|
G|-0-------------------|-----------------|--------|--------|--------|
D|---------------------|-----------------|--------|--------|--------|
A|---------------------|-----------------|--------|--------|--------|
E|---------------------|-----------------|--------|--------|--------|





Track 2: Gtr3

E|--------|--------|--------|--------|--------|--------|--------|--------|-2------|
B|--------|--------|--------|--------|--------|--------|--------|--------|-2------|
G|--------|--------|--------|--------|--------|--------|--------|--------|-4------|
D|--------|--------|--------|--------|--------|--------|--------|--------|-4------|
A|--------|--------|--------|--------|--------|--------|--------|--------|-2------|
E|--------|--------|--------|--------|--------|--------|--------|--------|--------|


E|-2------|--------|--------|--------|--------|--------|--------|--------|--------|
B|-2------|--------|--------|--------|--------|--------|--------|--------|--------|
G|-4------|--------|--------|--------|--------|--------|--------|--------|--------|
D|-4------|--------|--------|--------|--------|--------|--------|--------|--------|
A|-2------|--------|--------|--------|--------|--------|--------|--------|--------|
E|--------|--------|--------|--------|--------|--------|--------|--------|--------|


E|--------|--------|--------|--------|--------|--------|--------|--------|--------|
B|--------|--------|--------|--------|--------|--------|--------|--------|--------|
G|--------|--------|--------|--------|--------|--------|--------|--------|--------|
D|--------|--------|--------|--------|--------|--------|--------|--------|--------|
A|--------|--------|--------|--------|--------|--------|--------|--------|--------|
E|--------|--------|--------|--------|--------|--------|--------|--------|--------|


E|--------|--------|--------|--------|--------|--------|--------|--------|--------|
B|--------|--------|--------|--------|--------|--------|--------|--------|--------|
G|--------|--------|--------|--------|--------|--------|--------|--------|--------|
D|--------|--------|--------|--------|--------|--------|--------|--------|--------|
A|--------|--------|--------|--------|--------|--------|--------|--------|--------|
E|--------|--------|--------|--------|--------|--------|--------|--------|--------|


E|--------|--------|--------|--------|--------|--------|--------|--------|--------|
B|--------|--------|--------|--------|--------|--------|--------|--------|--------|
G|--------|--------|--------|--------|--------|--------|--------|--------|--------|
D|--------|--------|--------|--------|--------|--------|--------|--------|--------|
A|--------|--------|--------|--------|--------|--------|--------|--------|--------|
E|--------|--------|--------|--------|--------|--------|--------|--------|--------|


E|--------|--------|--------|--------|--------|--------|--------|--------|--------|
B|--------|--------|--------|--------|--------|--------|--------|--------|--------|
G|--------|--------|--------|--------|--------|--------|--------|--------|--------|
D|--------|--------|--------|--------|--------|--------|--------|--------|--------|
A|--------|--------|--------|--------|--------|--------|--------|--------|--------|
E|--------|--------|--------|--------|--------|--------|--------|--------|--------|


E|--------|--------|--------|--------|--------|--------|--------|--------|--------|
B|--------|--------|--------|--------|--------|--------|--------|--------|--------|
G|--------|--------|--------|--------|--------|--------|--------|--------|--------|
D|--------|--------|--------|--------|--------|--------|--------|--------|--------|
A|--------|--------|--------|--------|--------|--------|--------|--------|--------|
E|--------|--------|--------|--------|--------|--------|--------|--------|--------|


E|--------|--------|--------|--------|--------|--------|--------|--------|--------|
B|--------|--------|--------|--------|--------|--------|--------|--------|--------|
G|--------|--------|--------|--------|--------|--------|--------|--------|--------|
D|--------|--------|--------|--------|--------|--------|--------|--------|--------|
A|--------|--------|--------|--------|--------|--------|--------|--------|--------|
E|--------|--------|--------|--------|--------|--------|--------|--------|--------|


E|--------|--------|--------|--------|--------|--------|--------|--------|--------|
B|--------|--------|--------|--------|--------|--------|--------|--------|--------|
G|--------|--------|--------|--------|--------|--------|--------|--------|--------|
D|--------|--------|--------|--------|--------|--------|--------|--------|--------|
A|--------|--------|--------|--------|--------|--------|--------|--------|--------|
E|--------|--------|--------|--------|--------|--------|--------|--------|--------|


E|--------|--------|--------|--------|--------|--------|--------|--------|--------|
B|--------|--------|--------|--------|--------|--------|--------|--------|--------|
G|--------|--------|--------|--------|--------|--------|--------|--------|--------|
D|--------|--------|--------|--------|--------|--------|--------|--------|--------|
A|--------|--------|--------|--------|--------|--------|--------|--------|--------|
E|--------|--------|--------|--------|--------|--------|--------|--------|--------|


E|--------|--------|--------|--------|--------|--------|--------|--------|--------|
B|--------|--------|--------|--------|--------|--------|--------|--------|--------|
G|--------|--------|--------|--------|--------|--------|--------|--------|--------|
D|--------|--------|--------|--------|--------|--------|--------|--------|--------|
A|--------|--------|--------|--------|--------|--------|--------|--------|--------|
E|--------|--------|--------|--------|--------|--------|--------|--------|--------|


E|--------|--------|--------|--------|--------|--------|--------|--------|--------|
B|--------|--------|--------|--------|--------|--------|--------|--------|--------|
G|--------|--------|--------|--------|--------|--------|--------|--------|--------|
D|--------|--------|--------|--------|--------|--------|--------|--------|--------|
A|--------|--------|--------|--------|--------|--------|--------|--------|--------|
E|--------|--------|--------|--------|--------|--------|--------|--------|--------|


E|--------|--------|--------|--------|--------|--------|--------|--------|--------|
B|--------|--------|--------|--------|--------|--------|--------|--------|--------|
G|--------|--------|--------|--------|--------|--------|--------|--------|--------|
D|--------|--------|--------|--------|--------|--------|--------|--------|--------|
A|--------|--------|--------|--------|--------|--------|--------|--------|--------|
E|--------|--------|--------|--------|--------|--------|--------|--------|--------|


E|--------|--------|--------|--------|--------|--------|--------|--------|--------|
B|--------|--------|--------|--------|--------|--------|--------|--------|--------|
G|--------|--------|--------|--------|--------|--------|--------|--------|--------|
D|--------|--------|--------|--------|--------|--------|--------|--------|--------|
A|--------|--------|--------|--------|--------|--------|--------|--------|--------|
E|--------|--------|--------|--------|--------|--------|--------|--------|--------|


E|--------|--------|---------------------|---------------------|----------------5----|
B|--------|--------|----------------3----|-3----2----2---------|------5----5---------|
G|--------|--------|-4---------4---------|----------------4----|-4-------------------|
D|--------|--------|------4--------------|---------------------|---------------------|
A|--------|--------|---------------------|---------------------|---------------------|
E|--------|--------|---------------------|---------------------|---------------------|


E|-3-------------------|---------------------|---------------------|---------------------|
B|------3----3---------|----------------3----|-3----2----2----5----|------5----5---------|
G|----------------2----|-4---------4---------|---------------------|----------------2----|
D|---------------------|------4--------------|---------------------|---------------------|
A|---------------------|---------------------|---------------------|---------------------|
E|---------------------|---------------------|---------------------|---------------------|


E|-----------3---------|------2--------------|---------------------|-----------5---------|
B|------3---------3----|----------------3----|-3----2----2----5----|------5--------------|
G|-2-------------------|-4-------------------|---------------------|-2--------------2----|
D|---------------------|-----------4---------|---------------------|---------------------|
A|---------------------|---------------------|---------------------|---------------------|
E|---------------------|---------------------|---------------------|---------------------|


E|-----------3---------|------2---------2----|----------------0----|-0---------0---------|
B|------3---------0----|---------------------|-3-------------------|------2--------------|
G|-0-------------------|---------------------|-----------4---------|---------------------|
D|---------------------|-----------4---------|------4--------------|---------------------|
A|---------------------|-2-------------------|---------------------|---------------------|
E|---------------------|---------------------|---------------------|---------------------|


E|---------------------|----------------2----|----------------0----|-2-------------------|
B|------3----0----0----|---------------------|-3-------------------|------2--------------|
G|---------------------|-4---------4---------|-----------4---------|-----------2----4----|
D|---------------------|------4--------------|------4--------------|---------------------|
A|---------------------|---------------------|---------------------|---------------------|
E|---------------------|---------------------|---------------------|---------------------|


E|-3-------------------|----------------2----|---------------------|------2------|
B|------3--------------|---------------------|-3----2----2---------|-------------|
G|-----------0---------|-----------4---------|----------------2----|-2-----------|
D|---------------------|------4--------------|---------------------|-------------|
A|---------------------|-2-------------------|---------------------|-------------|
E|---------------------|---------------------|---------------------|-------------|


E|-3--------------3----|--------|--------|--------|--------|--------|--------|--------|
B|------3--------------|--------|--------|--------|--------|--------|--------|--------|
G|-----------0---------|--------|--------|--------|--------|--------|--------|--------|
D|---------------------|--------|--------|--------|--------|--------|--------|--------|
A|---------------------|--------|--------|--------|--------|--------|--------|--------|
E|---------------------|--------|--------|--------|--------|--------|--------|--------|


E|--------|--------|--------|--------|--------|--------|--------|--------|--------|
B|--------|--------|--------|--------|--------|--------|--------|--------|--------|
G|--------|--------|--------|--------|--------|--------|--------|--------|--------|
D|--------|--------|--------|--------|--------|--------|--------|--------|--------|
A|--------|--------|--------|--------|--------|--------|--------|--------|--------|
E|--------|--------|--------|--------|--------|--------|--------|--------|--------|


E|--------|--------|--------|--------|--------|--------|--------|--------|--------|
B|--------|--------|--------|--------|--------|--------|--------|--------|--------|
G|--------|--------|--------|--------|--------|--------|--------|--------|--------|
D|--------|--------|--------|--------|--------|--------|--------|--------|--------|
A|--------|--------|--------|--------|--------|--------|--------|--------|--------|
E|--------|--------|--------|--------|--------|--------|--------|--------|--------|


E|--------|--------|--------|--------|--------|--------|--------|-2---------------|
B|--------|--------|--------|--------|--------|--------|--------|-----------------|
G|--------|--------|--------|--------|--------|--------|--------|-----------------|
D|--------|--------|--------|--------|--------|--------|--------|-----------------|
A|--------|--------|--------|--------|--------|--------|--------|-------2---------|
E|--------|--------|--------|--------|--------|--------|--------|------------2----|


E|---------------------|-----------------|
B|---------------------|-----------------|
G|---------------------|-----------------|
D|------2----2----2----|-0---------------|
A|-2-------------------|------2----2-----|
E|---------------------|-----------------|





Track 3: Gtr2

E|--------|--------|--------|--------|--------|--------|--------|--------|-2------|
B|--------|--------|--------|--------|--------|--------|--------|--------|-3------|
G|--------|--------|--------|--------|--------|--------|--------|--------|-4------|
D|--------|--------|--------|--------|--------|--------|--------|--------|-4------|
A|--------|--------|--------|--------|--------|--------|--------|--------|-2------|
E|--------|--------|--------|--------|--------|--------|--------|--------|--------|


E|-2------|-3------|-0------|-2------|-2------|-3------|-0------|-2------|-2------|
B|-3------|-3------|-2------|-3------|-3------|-3------|-2------|-3------|-3------|
G|-4------|-0------|-2------|-4------|-4------|-0------|-2------|-4------|-4------|
D|-4------|-0------|-2------|-4------|-4------|-0------|-2------|-4------|-4------|
A|-2------|-2------|-0------|-2------|-2------|-2------|-0------|-2------|-2------|
E|--------|-3------|--------|--------|--------|-3------|--------|--------|--------|


E|-3------|-0------|-2------|-2------|-3------|-0------|-2------|-2------|-3------|
B|-3------|-2------|-3------|-3------|-3------|-2------|-3------|-3------|-3------|
G|-0------|-2------|-4------|-4------|-0------|-2------|-4------|-4------|-0------|
D|-0------|-2------|-4------|-4------|-0------|-2------|-4------|-4------|-0------|
A|-2------|-0------|-2------|-2------|-2------|-0------|-2------|-2------|-2------|
E|-3------|--------|--------|--------|-3------|--------|--------|--------|-3------|


E|-0------|-2------|-2------|-3------|-0------|------0----0---0---0---0---|-0----0----0---0---0----|
B|-2------|-3------|-3------|-3------|-2------|------3----3---3---3---3---|-3----3----3---3---3----|
G|-2------|-4------|-4------|-0------|-2------|-4----4----4---4---4---4---|-4----4----4---4---4----|
D|-2------|-4------|-4------|-0------|-2------|-4----4----4---4---4---4---|-4----4----4---4---4----|
A|-0------|-2------|-2------|-2------|-0------|-2----2----2---2---2---2---|-2----2----2---2---2----|
E|--------|--------|--------|-3------|--------|---------------------------|------------------------|


E|------3----3---3---3----|------0----0---0---0---0---|------0----0---0---0---0---|
B|------3----3---3---3----|------2----2---2---2---2---|------3----3---3---3---3---|
G|------0----0---0---0----|------2----2---2---2---2---|-4----4----4---4---4---4---|
D|------0----0---0---0----|------2----2---2---2---2---|-4----4----4---4---4---4---|
A|------2----2---2---2----|-0----0----0---0---0---0---|-2----2----2---2---2---2---|
E|-3----3----3---3---3----|---------------------------|---------------------------|


E|-0----0----0---0---0----|------3----3---3---3----|------0----0---0---0---0---|--------|
B|-3----3----3---3---3----|------3----3---3---3----|------2----2---2---2---2---|--------|
G|-4----4----4---4---4----|------0----0---0---0----|------2----2---2---2---2---|--------|
D|-4----4----4---4---4----|------0----0---0---0----|------2----2---2---2---2---|--------|
A|-2----2----2---2---2----|------2----2---2---2----|-0----0----0---0---0---0---|--------|
E|------------------------|-3----3----3---3---3----|---------------------------|--------|


E|--------|--------|--------|--------|--------|--------|--------|--------|--------|
B|--------|--------|--------|--------|--------|--------|--------|--------|--------|
G|--------|--------|--------|--------|--------|--------|--------|--------|--------|
D|--------|--------|--------|--------|--------|--------|--------|--------|--------|
A|--------|--------|--------|--------|--------|--------|--------|--------|--------|
E|--------|--------|--------|--------|--------|--------|--------|--------|--------|


E|--------|--------|--------|--------|--------|--------|--------|--------|--------|
B|--------|--------|--------|--------|--------|--------|--------|--------|--------|
G|--------|--------|--------|--------|--------|--------|--------|--------|--------|
D|--------|--------|--------|--------|--------|--------|--------|--------|--------|
A|--------|--------|--------|--------|--------|--------|--------|--------|--------|
E|--------|--------|--------|--------|--------|--------|--------|--------|--------|


E|--------|--------|--------|--------|--------|--------|--------|--------|--------|
B|--------|--------|--------|--------|--------|--------|--------|--------|--------|
G|--------|--------|--------|--------|--------|--------|--------|--------|--------|
D|--------|--------|--------|--------|--------|--------|--------|--------|--------|
A|--------|--------|--------|--------|--------|--------|--------|--------|--------|
E|--------|--------|--------|--------|--------|--------|--------|--------|--------|


E|--------|--------|--------|--------|--------|--------|--------|--------|--------|
B|--------|--------|--------|--------|--------|--------|--------|--------|--------|
G|--------|--------|--------|--------|--------|--------|--------|--------|--------|
D|--------|--------|--------|--------|--------|--------|--------|--------|--------|
A|--------|--------|--------|--------|--------|--------|--------|--------|--------|
E|--------|--------|--------|--------|--------|--------|--------|--------|--------|


E|--------|--------|--------|--------|--------|--------|--------|--------|--------|
B|--------|--------|--------|--------|--------|--------|--------|--------|--------|
G|--------|--------|--------|--------|--------|--------|--------|--------|--------|
D|--------|--------|--------|--------|--------|--------|--------|--------|--------|
A|--------|--------|--------|--------|--------|--------|--------|--------|--------|
E|--------|--------|--------|--------|--------|--------|--------|--------|--------|


E|--------|--------|--------|--------|--------|--------|--------|--------|--------|
B|--------|--------|--------|--------|--------|--------|--------|--------|--------|
G|--------|--------|--------|--------|--------|--------|--------|--------|--------|
D|--------|--------|--------|--------|--------|--------|--------|--------|--------|
A|--------|--------|--------|--------|--------|--------|--------|--------|--------|
E|--------|--------|--------|--------|--------|--------|--------|--------|--------|


E|--------|--------|--------|--------|--------|--------|--------|--------|--------|
B|--------|--------|--------|--------|--------|--------|--------|--------|--------|
G|--------|--------|--------|--------|--------|--------|--------|--------|--------|
D|--------|--------|--------|--------|--------|--------|--------|--------|--------|
A|--------|--------|--------|--------|--------|--------|--------|--------|--------|
E|--------|--------|--------|--------|--------|--------|--------|--------|--------|


E|--------|--------|--------|--------|--------|--------|--------|--------|--------|
B|--------|--------|--------|--------|--------|--------|--------|--------|--------|
G|--------|--------|--------|--------|--------|--------|--------|--------|--------|
D|--------|--------|--------|--------|--------|--------|--------|--------|--------|
A|--------|--------|--------|--------|--------|--------|--------|--------|--------|
E|--------|--------|--------|--------|--------|--------|--------|--------|--------|


E|--------|--------|--------|--------|--------|--------|--------|--------|--------|
B|--------|--------|--------|--------|--------|--------|--------|--------|--------|
G|--------|--------|--------|--------|--------|--------|--------|--------|--------|
D|--------|--------|--------|--------|--------|--------|--------|--------|--------|
A|--------|--------|--------|--------|--------|--------|--------|--------|--------|
E|--------|--------|--------|--------|--------|--------|--------|--------|--------|


E|--------|--------|--------|--------|--------|--------|--------|--------|--------|
B|--------|--------|--------|--------|--------|--------|--------|--------|--------|
G|--------|--------|--------|--------|--------|--------|--------|--------|--------|
D|--------|--------|--------|--------|--------|--------|--------|--------|--------|
A|--------|--------|--------|--------|--------|--------|--------|--------|--------|
E|--------|--------|--------|--------|--------|--------|--------|--------|--------|


E|--------|--------|--------|--------|--------|--------|--------|--------|--------|
B|--------|--------|--------|--------|--------|--------|--------|--------|--------|
G|--------|--------|--------|--------|--------|--------|--------|--------|--------|
D|--------|--------|--------|--------|--------|--------|--------|--------|--------|
A|--------|--------|--------|--------|--------|--------|--------|--------|--------|
E|--------|--------|--------|--------|--------|--------|--------|--------|--------|


E|--------|--------|--------|--------|--------|--------|--------|--------|--------|
B|--------|--------|--------|--------|--------|--------|--------|--------|--------|
G|--------|--------|--------|--------|--------|--------|--------|--------|--------|
D|--------|--------|--------|--------|--------|--------|--------|--------|--------|
A|--------|--------|--------|--------|--------|--------|--------|--------|--------|
E|--------|--------|--------|--------|--------|--------|--------|--------|--------|


E|--------|--------|--------|--------|--------|--------|--------|--------|--------|
B|--------|--------|--------|--------|--------|--------|--------|--------|--------|
G|--------|--------|--------|--------|--------|--------|--------|--------|--------|
D|--------|--------|--------|--------|--------|--------|--------|--------|--------|
A|--------|--------|--------|--------|--------|--------|--------|--------|--------|
E|--------|--------|--------|--------|--------|--------|--------|--------|--------|


E|--------|--------|--------|--------|--------|--------|--------|--------|--------|
B|--------|--------|--------|--------|--------|--------|--------|--------|--------|
G|--------|--------|--------|--------|--------|--------|--------|--------|--------|
D|--------|--------|--------|--------|--------|--------|--------|--------|--------|
A|--------|--------|--------|--------|--------|--------|--------|--------|--------|
E|--------|--------|--------|--------|--------|--------|--------|--------|--------|


E|--------|--------|--------|--------|--------|--------|--------|--------|--------|
B|--------|--------|--------|--------|--------|--------|--------|--------|--------|
G|--------|--------|--------|--------|--------|--------|--------|--------|--------|
D|--------|--------|--------|--------|--------|--------|--------|--------|--------|
A|--------|--------|--------|--------|--------|--------|--------|--------|--------|
E|--------|--------|--------|--------|--------|--------|--------|--------|--------|


E|--------|--------|--------|--------|--------|--------|--------|--------|--------|
B|--------|--------|--------|--------|--------|--------|--------|--------|--------|
G|--------|--------|--------|--------|--------|--------|--------|--------|--------|
D|--------|--------|--------|--------|--------|--------|--------|--------|--------|
A|--------|--------|--------|--------|--------|--------|--------|--------|--------|
E|--------|--------|--------|--------|--------|--------|--------|--------|--------|


E|--------|--------|
B|--------|--------|
G|--------|--------|
D|--------|--------|
A|--------|--------|
E|--------|--------|





Track 4: Gtr4

E|--------|--------|--------|--------|--------|--------|--------|--------|--------|
B|--------|--------|--------|--------|--------|--------|--------|--------|--------|
G|--------|--------|--------|--------|--------|--------|--------|--------|--------|
D|--------|--------|--------|--------|--------|--------|--------|--------|--------|
A|--------|--------|--------|--------|--------|--------|--------|--------|--------|
E|--------|--------|--------|--------|--------|--------|--------|--------|--------|


E|--------|--------|--------|--------|--------|--------|--------|--------|--------|
B|--------|--------|--------|--------|--------|--------|--------|--------|--------|
G|--------|--------|--------|--------|--------|--------|--------|-4------|-4------|
D|--------|--------|--------|--------|--------|--------|--------|-4------|-4------|
A|--------|--------|--------|--------|--------|--------|--------|-2------|-2------|
E|--------|--------|--------|--------|--------|--------|--------|-2------|-2------|


E|--------|--------|--------|--------|--------|--------|--------|--------|--------|
B|--------|--------|--------|--------|--------|--------|--------|--------|--------|
G|-4------|-4------|-4------|-4------|-4------|-4------|-4------|-4------|-4------|
D|-4------|-4------|-4------|-4------|-4------|-4------|-4------|-4------|-4------|
A|-2------|-2------|-2------|-2------|-2------|-2------|-2------|-2------|-2------|
E|-2------|-2------|-2------|-2------|-2------|-2------|-2------|-2------|-2------|


E|--------|--------|--------|--------|--------|--------|--------|--------|--------|
B|--------|--------|--------|--------|--------|--------|--------|--------|--------|
G|-4------|-4------|-4------|-4------|-4------|-4------|-4------|-4------|-4------|
D|-4------|-4------|-4------|-4------|-4------|-4------|-4------|-4------|-4------|
A|-2------|-2------|-2------|-2------|-2------|-2------|-2------|-2------|-2------|
E|-2------|-2------|-2------|-2------|-2------|-2------|-2------|-2------|-2------|


E|--------|--------|--------|--------|--------|--------|--------|--------|--------|
B|--------|--------|--------|--------|--------|--------|--------|--------|--------|
G|-4------|-4------|-4------|-4------|-4------|-4------|-4------|-4------|-4------|
D|-4------|-4------|-4------|-4------|-4------|-4------|-4------|-4------|-4------|
A|-2------|-2------|-2------|-2------|-2------|-2------|-2------|-2------|-2------|
E|-2------|-2------|-2------|-2------|-2------|-2------|-2------|-2------|-2------|


E|--------|--------|--------|--------|--------|--------|--------|--------|--------|
B|--------|--------|--------|--------|--------|--------|--------|--------|--------|
G|-4------|-4------|-4------|--------|--------|--------|--------|-4------|-4------|
D|-4------|-4------|-4------|--------|--------|--------|--------|-4------|-4------|
A|-2------|-2------|-2------|--------|--------|--------|--------|-2------|-2------|
E|-2------|-2------|-2------|--------|--------|--------|--------|--------|--------|


E|-------------|-------------|---------------------------|---------------------------|
B|-------------|-------------|---------------------------|---------------------------|
G|-4-----------|-------------|-4------------4------------|-4------------4------------|
D|-4-----------|-------------|-4------------4------------|-4------------4------------|
A|-2------2----|-17----17----|-2----2---2---2----2---2---|-2----2---2---2----0---0---|
E|-------------|-------------|---------------------------|-------------------0---0---|


E|---------------------------|---------------------------|---------------------------|
B|-3------------3------------|---------------------------|---------------------------|
G|-0------------0------------|-2------------2------------|-4------------4------------|
D|-0------------0------------|-2------------2------------|-4------------4------------|
A|---------------------------|-0----0---0---0----0---0---|-2----2---2---2----2---2---|
E|-3----3---3---3----3---3---|---------------------------|---------------------------|


E|---------------------------|---------------------------|---------------------|---------------------------|
B|---------------------------|---------------------------|---------------------|---------------------------|
G|-4------------4------------|--------------1------------|-4-------------------|-4------------4------------|
D|-4------------4------------|-2------------2------------|-4-------------------|-4------------4------------|
A|-2----2---2---2----0---0---|-2------------2------------|-2----5----4----0----|-2----2---2---2----2---2---|
E|-------------------0---0---|-0----0---0---0----0---0---|---------------------|---------------------------|


E|---------------------------|---------------------------|---------------------------|
B|---------------------------|-3------------3------------|---------------------------|
G|-4------------4------------|-0------------0------------|-2------------2------------|
D|-4------------4------------|-0------------0------------|-2------------2------------|
A|-2----2---2---2----0---0---|---------------------------|-0----0---0---0----0---0---|
E|-------------------0---0---|-3----3---3---3----3---3---|---------------------------|


E|---------------------------|---------------------------|---------------------------------|
B|---------------------------|---------------------------|---------------------------------|
G|-4------------4------------|-4------------4------------|-1---1---1---1---1---1---1---1---|
D|-4------------4------------|-4------------4------------|-2---2---2---2---2---2---2---2---|
A|-2----2---2---2----2---2---|-2----2---2---2----0---0---|-2---2---2---2---2---2---2---2---|
E|---------------------------|-------------------0---0---|-0---0---0---0---0---0---0---0---|


E|---------------------------------|---------------------|----------------0----|-0-------------------|
B|---------------------------------|-0----3----3----2----|-2----3----3---------|------3----3----2----|
G|-3---3---3---3---3---3---3-------|---------------------|---------------------|---------------------|
D|-4---4---4---4---4---4---4-------|---------------------|---------------------|---------------------|
A|-4---4---4---4---4---4---4---0---|---------------------|---------------------|---------------------|
E|-2---2---2---2---2---2---2---0---|---------------------|---------------------|---------------------|


E|-------2---------|------2----2---------|---------------------|------3----3----2----|
B|-2----------2----|-0--------------2----|-2----3----3---------|---------------------|
G|-----------------|---------------------|----------------0----|-0-------------------|
D|-----------------|---------------------|---------------------|---------------------|
A|-----------------|---------------------|---------------------|---------------------|
E|-----------------|---------------------|---------------------|---------------------|


E|-2-----0----2----|---------------------|---------------------|---------------------|
B|-----------------|----------------3----|-3-------------------|----------------0----|
G|-----------------|-----------4---------|------4---------0----|----------------0----|
D|-----------------|------4--------------|-----------4---------|-----------0---------|
A|-----------------|-2-------------------|---------------------|------2--------------|
E|-----------------|---------------------|---------------------|-3-------------------|


E|---------------------|---------------------|---------------------|---------------------|
B|----------------0----|----------------3----|-3-------------------|----------------0----|
G|-----------2---------|-----------4---------|------4---------0----|----------------0----|
D|------2--------------|------4--------------|-----------4---------|-----------0---------|
A|-0-------------------|-2-------------------|---------------------|------2--------------|
E|---------------------|---------------------|---------------------|-3-------------------|


E|-----------0---------|---------------------|---------------------|---------------------|
B|----------------0----|----------------3----|-3-------------------|----------------0----|
G|---------------------|-----------4---------|------4---------0----|-----------0---------|
D|------2--------------|------4--------------|-----------4---------|------0--------------|
A|-0-------------------|-2-------------------|---------------------|---------------------|
E|---------------------|---------------------|---------------------|-3-------------------|


E|---------------------|--------|--------|-------------|-------------|---------------------------|
B|----------------0----|--------|--------|-------------|-------------|---------------------------|
G|-----------2---------|-4------|-4------|-4-----------|-------------|-4------------4------------|
D|------2--------------|-4------|-4------|-4-----------|-------------|-4------------4------------|
A|-0-------------------|-2------|-2------|-2------2----|-17----17----|-2----2---2---2----2---2---|
E|---------------------|--------|--------|-------------|-------------|---------------------------|


E|---------------------------|---------------------------|---------------------------|
B|---------------------------|-3------------3------------|---------------------------|
G|-4------------4------------|-0------------0------------|-2------------2------------|
D|-4------------4------------|-0------------0------------|-2------------2------------|
A|-2----2---2---2----0---0---|---------------------------|-0----0---0---0----0---0---|
E|-------------------0---0---|-3----3---3---3----3---3---|---------------------------|


E|---------------------------|---------------------------|---------------------------|
B|---------------------------|---------------------------|---------------------------|
G|-4------------4------------|-4------------4------------|--------------1------------|
D|-4------------4------------|-4------------4------------|-2------------2------------|
A|-2----2---2---2----2---2---|-2----2---2---2----0---0---|-2------------2------------|
E|---------------------------|-------------------0---0---|-0----0---0---0----0---0---|


E|---------------------|---------------------------|---------------------------|---------------------------|
B|---------------------|---------------------------|---------------------------|-3------------3------------|
G|-4-------------------|-4------------4------------|-4------------4------------|-0------------0------------|
D|-4-------------------|-4------------4------------|-4------------4------------|-0------------0------------|
A|-2----5----4----0----|-2----2---2---2----2---2---|-2----2---2---2----0---0---|---------------------------|
E|---------------------|---------------------------|-------------------0---0---|-3----3---3---3----3---3---|


E|---------------------------|---------------------------|---------------------------|
B|---------------------------|---------------------------|---------------------------|
G|-2------------2------------|-4------------4------------|-4------------4------------|
D|-2------------2------------|-4------------4------------|-4------------4------------|
A|-0----0---0---0----0---0---|-2----2---2---2----2---2---|-2----2---2---2----0---0---|
E|---------------------------|---------------------------|-------------------0---0---|


E|---------------------------------|---------------------------------|--------|----------------|
B|---------------------------------|---------------------------------|--------|----------------|
G|-1---1---1---1---1---1---1---1---|-3---3---3---3---3---3---3-------|-4------|-4--------------|
D|-2---2---2---2---2---2---2---2---|-4---4---4---4---4---4---4-------|-4------|-4--------------|
A|-2---2---2---2---2---2---2---2---|-4---4---4---4---4---4---4---0---|-2------|-2------2---2---|
E|-0---0---0---0---0---0---0---0---|-2---2---2---2---2---2---2---0---|-2------|-2------2---2---|


E|----------------|----------------|--------|----------------|----------------|----------------|
B|-3--------------|----------------|--------|----------------|----------------|----------------|
G|-0--------------|-2--------------|-4------|-4--------------|----------------|-3--------------|
D|-0--------------|-2--------------|-4------|-4--------------|-2--------------|-4--------------|
A|--------3---3---|-0------2---2---|-2------|-2------2---2---|-2------2---2---|-4------2---2---|
E|-3------3---3---|--------2---2---|-2------|-2------2---2---|-0------2---2---|-2------2---2---|


E|--------|----------------|----------------|----------------|--------|----------------|
B|--------|----------------|-3--------------|----------------|--------|----------------|
G|-4------|-4--------------|-0--------------|-2--------------|-4------|-4--------------|
D|-4------|-4--------------|-0--------------|-2--------------|-4------|-4--------------|
A|-2------|-2------2---2---|--------3---3---|-0------2---2---|-2------|-2------2---2---|
E|-2------|-2------2---2---|-3------3---3---|--------2---2---|-2------|-2------2---2---|


E|----------------|----------------|--------|--------|--------|--------|--------|--------|
B|----------------|----------------|--------|--------|--------|--------|--------|--------|
G|----------------|-3--------------|-4------|-4------|-4------|-4------|-4------|-4------|
D|-2--------------|-4--------------|-4------|-4------|-4------|-4------|-4------|-4------|
A|-2------2---2---|-4------2---2---|-2------|-2------|-2------|-2------|-2------|-2------|
E|-0------2---2---|-2------2---2---|-2------|-2------|-2------|-2------|-2------|-2------|


E|--------|--------|--------|--------|--------|--------|--------|--------|--------|
B|--------|--------|--------|--------|--------|--------|--------|--------|--------|
G|-4------|-4------|-4------|-4------|-4------|-4------|-4------|-4------|-4------|
D|-4------|-4------|-4------|-4------|-4------|-4------|-4------|-4------|-4------|
A|-2------|-2------|-2------|-2------|-2------|-2------|-2------|-2------|-2------|
E|-2------|-2------|-2------|-2------|-2------|-2------|-2------|-2------|-2------|


E|--------|--------|--------|--------|--------|--------|--------|--------|-------------|
B|--------|--------|--------|--------|--------|--------|--------|--------|-------------|
G|-4------|-4------|-4------|-4------|-4------|-4------|-4------|-4------|-4-----------|
D|-4------|-4------|-4------|-4------|-4------|-4------|-4------|-4------|-4-----------|
A|-2------|-2------|-2------|-2------|-2------|-2------|-2------|-2------|-2-----14----|
E|-2------|-2------|-2------|-2------|-2------|-2------|-2------|-2------|-2-----------|


E|---------------------------|---------------------------|---------------------------|
B|---------------------------|---------------------------|-3------------3------------|
G|-4------------4------------|-4------------4------------|-0------------0------------|
D|-4------------4------------|-4------------4------------|-0------------0------------|
A|-2----2---2---2----2---2---|-2----2---2---2----0---0---|---------------------------|
E|---------------------------|-------------------0---0---|-3----3---3---3----3---3---|


E|---------------------------|---------------------------|---------------------------|
B|---------------------------|---------------------------|---------------------------|
G|-2------------2------------|-4------------4------------|-4------------4------------|
D|-2------------2------------|-4------------4------------|-4------------4------------|
A|-0----0---0---0----0---0---|-2----2---2---2----2---2---|-2----2---2---2----0---0---|
E|---------------------------|---------------------------|-------------------0---0---|


E|---------------------------|---------------------|---------------------------|---------------------------|
B|---------------------------|---------------------|---------------------------|---------------------------|
G|--------------1------------|-4-------------------|-4------------4------------|-4------------4------------|
D|-2------------2------------|-4-------------------|-4------------4------------|-4------------4------------|
A|-2------------2------------|-2----5----4----0----|-2----2---2---2----2---2---|-2----2---2---2----0---0---|
E|-0----0---0---0----0---0---|---------------------|---------------------------|-------------------0---0---|


E|---------------------------|---------------------------|---------------------------|
B|-3------------3------------|---------------------------|---------------------------|
G|-0------------0------------|-2------------2------------|-4------------4------------|
D|-0------------0------------|-2------------2------------|-4------------4------------|
A|---------------------------|-0----0---0---0----0---0---|-2----2---2---2----2---2---|
E|-3----3---3---3----3---3---|---------------------------|---------------------------|


E|---------------------------|---------------------------------|--------|--------|
B|---------------------------|---------------------------------|--------|--------|
G|-4------------4------------|-1---1---1---1---1---1---1---1---|--------|-4------|
D|-4------------4------------|-2---2---2---2---2---2---2---2---|--------|-4------|
A|-2----2---2---2----0---0---|-2---2---2---2---2---2---2---2---|--------|-2------|
E|-------------------0---0---|-0---0---0---0---0---0---0---0---|--------|-2------|


E|----------------|----------------|----------------|--------|----------------|----------------|
B|----------------|-3--------------|----------------|--------|----------------|----------------|
G|-4--------------|-0--------------|-2--------------|-4------|-4--------------|----------------|
D|-4--------------|-0--------------|-2--------------|-4------|-4--------------|-2--------------|
A|-2------2---2---|--------3---3---|-0------2---2---|-2------|-2------2---2---|-2------2---2---|
E|-2------2---2---|-3------3---3---|--------2---2---|-2------|-2------2---2---|-0------2---2---|


E|----------------|--------|----------------|----------------|----------------|--------|
B|----------------|--------|----------------|-3--------------|----------------|--------|
G|-3--------------|-4------|-4--------------|-0--------------|-2--------------|-4------|
D|-4--------------|-4------|-4--------------|-0--------------|-2--------------|-4------|
A|-4------2---2---|-2------|-2------2---2---|--------3---3---|-0------2---2---|-2------|
E|-2------2---2---|-2------|-2------2---2---|-3------3---3---|--------2---2---|-2------|


E|----------------|----------------|----------------|--------|--------|-------------|
B|----------------|----------------|----------------|--------|--------|-------------|
G|-4--------------|----------------|-3--------------|-4------|-4------|-4-----4-----|
D|-4--------------|-2--------------|-4--------------|-4------|-4------|-4-----4-----|
A|-2------2---2---|-2------2---2---|-4------2---2---|-2------|-2------|-2-----2-----|
E|-2------2---2---|-0------2---2---|-2------2---2---|--------|--------|-------------|





Track 5: Gtr5

E|--------|--------|--------|--------|--------|--------|--------|--------|--------|
B|--------|--------|--------|--------|--------|--------|--------|--------|--------|
G|--------|--------|--------|--------|--------|--------|--------|--------|--------|
D|--------|--------|--------|--------|--------|--------|--------|--------|--------|
A|--------|--------|--------|--------|--------|--------|--------|--------|--------|
E|--------|--------|--------|--------|--------|--------|--------|--------|--------|


E|--------|--------|--------|--------|--------|--------|--------|--------|--------|
B|--------|--------|--------|--------|--------|--------|--------|--------|--------|
G|--------|--------|--------|--------|--------|--------|--------|--------|--------|
D|--------|--------|--------|--------|--------|--------|--------|--------|--------|
A|--------|--------|--------|--------|--------|--------|--------|--------|--------|
E|--------|--------|--------|--------|--------|--------|--------|--------|--------|


E|--------|--------|--------|--------|--------|--------|--------|--------|--------|
B|--------|--------|--------|--------|--------|--------|--------|--------|--------|
G|--------|--------|--------|--------|--------|--------|--------|--------|--------|
D|--------|--------|--------|--------|--------|--------|--------|--------|--------|
A|--------|--------|--------|--------|--------|--------|--------|--------|--------|
E|--------|--------|--------|--------|--------|--------|--------|--------|--------|


E|--------|--------|--------|--------|--------|--------|--------|--------|--------|
B|--------|--------|--------|--------|--------|--------|--------|--------|--------|
G|--------|--------|--------|--------|--------|--------|--------|--------|--------|
D|--------|--------|--------|--------|--------|--------|--------|--------|--------|
A|--------|--------|--------|--------|--------|--------|--------|--------|--------|
E|--------|--------|--------|--------|--------|--------|--------|--------|--------|


E|--------|--------|--------|--------|--------|--------|--------|--------|--------|
B|--------|--------|--------|--------|--------|--------|--------|--------|--------|
G|--------|--------|--------|--------|--------|--------|--------|--------|--------|
D|--------|--------|--------|--------|--------|--------|--------|--------|--------|
A|--------|--------|--------|--------|--------|--------|--------|--------|--------|
E|--------|--------|--------|--------|--------|--------|--------|--------|--------|


E|--------|--------|--------|--------|--------|--------|--------|--------|--------|
B|--------|--------|--------|--------|--------|--------|--------|--------|--------|
G|--------|--------|--------|--------|--------|--------|--------|-4------|-4------|
D|--------|--------|--------|--------|--------|--------|--------|-4------|-4------|
A|--------|--------|--------|--------|--------|--------|--------|-2------|-2------|
E|--------|--------|--------|--------|--------|--------|--------|-2------|-2------|


E|--------|-------------|--------|--------|--------|--------|--------|--------|--------|
B|--------|-------------|--------|--------|--------|--------|--------|--------|--------|
G|-4------|-4-----------|--------|--------|--------|--------|--------|--------|--------|
D|-4------|-4-----------|--------|--------|--------|--------|--------|--------|--------|
A|-2------|-2-----------|--------|--------|--------|--------|--------|--------|--------|
E|-2------|-2-----14----|--------|--------|--------|--------|--------|--------|--------|


E|--------|--------|--------|--------|--------|--------|--------|--------|--------|
B|--------|--------|--------|--------|--------|--------|--------|--------|--------|
G|--------|--------|--------|--------|--------|--------|--------|--------|--------|
D|--------|--------|--------|--------|--------|--------|--------|--------|--------|
A|--------|--------|--------|--------|--------|--------|--------|--------|--------|
E|--------|--------|--------|--------|--------|--------|--------|--------|--------|


E|--------|--------|--------|--------|--------|--------|--------|--------|--------|
B|--------|--------|--------|--------|--------|--------|--------|--------|--------|
G|--------|--------|--------|--------|--------|--------|--------|--------|--------|
D|--------|--------|--------|--------|--------|--------|--------|--------|--------|
A|--------|--------|--------|--------|--------|--------|--------|--------|--------|
E|--------|--------|--------|--------|--------|--------|--------|--------|--------|


E|--------|--------|--------|--------|--------|--------|--------|--------|--------|
B|--------|--------|--------|--------|--------|--------|--------|--------|--------|
G|--------|--------|--------|--------|--------|--------|--------|--------|--------|
D|--------|--------|--------|--------|--------|--------|--------|--------|--------|
A|--------|--------|--------|--------|--------|--------|--------|--------|--------|
E|--------|--------|--------|--------|--------|--------|--------|--------|--------|


E|--------|--------|--------|--------|--------|-------------|--------|--------|--------|
B|--------|--------|--------|--------|--------|-------------|--------|--------|--------|
G|--------|--------|-4------|-4------|-4------|-4-----------|--------|--------|--------|
D|--------|--------|-4------|-4------|-4------|-4-----------|--------|--------|--------|
A|--------|--------|-2------|-2------|-2------|-2-----------|--------|--------|--------|
E|--------|--------|-2------|-2------|-2------|-2-----14----|--------|--------|--------|


E|--------|--------|--------|--------|--------|--------|--------|--------|--------|
B|--------|--------|--------|--------|--------|--------|--------|--------|--------|
G|--------|--------|--------|--------|--------|--------|--------|--------|--------|
D|--------|--------|--------|--------|--------|--------|--------|--------|--------|
A|--------|--------|--------|--------|--------|--------|--------|--------|--------|
E|--------|--------|--------|--------|--------|--------|--------|--------|--------|


E|--------|--------|--------|--------|--------|--------|--------|--------|--------|
B|--------|--------|--------|--------|--------|--------|--------|--------|--------|
G|--------|--------|--------|--------|--------|--------|--------|--------|--------|
D|--------|--------|--------|--------|--------|--------|--------|--------|--------|
A|--------|--------|--------|--------|--------|--------|--------|--------|--------|
E|--------|--------|--------|--------|--------|--------|--------|--------|--------|


E|--------|--------|--------|--------|--------|--------|--------|--------|--------|
B|--------|--------|--------|--------|--------|--------|--------|--------|--------|
G|--------|--------|--------|--------|--------|--------|--------|--------|--------|
D|--------|--------|--------|--------|--------|--------|--------|--------|--------|
A|--------|--------|--------|--------|--------|--------|--------|--------|--------|
E|--------|--------|--------|--------|--------|--------|--------|--------|--------|


E|--------|--------|--------|--------|--------|--------|--------|--------|--------|
B|--------|--------|--------|--------|--------|--------|--------|--------|--------|
G|--------|--------|--------|--------|--------|--------|--------|--------|--------|
D|--------|--------|--------|--------|--------|--------|--------|--------|--------|
A|--------|--------|--------|--------|--------|--------|--------|--------|--------|
E|--------|--------|--------|--------|--------|--------|--------|--------|--------|


E|--------|--------|--------|--------|--------|--------|--------|--------|--------|
B|--------|--------|--------|--------|--------|--------|--------|--------|--------|
G|--------|--------|--------|--------|--------|--------|--------|--------|--------|
D|--------|--------|--------|--------|--------|--------|--------|--------|--------|
A|--------|--------|--------|--------|--------|--------|--------|--------|--------|
E|--------|--------|--------|--------|--------|--------|--------|--------|--------|


E|--------|--------|--------|--------|--------|--------|--------|--------|--------|
B|--------|--------|--------|--------|--------|--------|--------|--------|--------|
G|--------|--------|--------|--------|--------|--------|--------|--------|--------|
D|--------|--------|--------|--------|--------|--------|--------|--------|--------|
A|--------|--------|--------|--------|--------|--------|--------|--------|--------|
E|--------|--------|--------|--------|--------|--------|--------|--------|--------|


E|--------|--------|--------|--------|--------|--------|--------|--------|--------|
B|--------|--------|--------|--------|--------|--------|--------|--------|--------|
G|--------|--------|--------|--------|--------|--------|--------|--------|--------|
D|--------|--------|--------|--------|--------|--------|--------|--------|--------|
A|--------|--------|--------|--------|--------|--------|--------|--------|--------|
E|--------|--------|--------|--------|--------|--------|--------|--------|--------|


E|--------|--------|--------|--------|--------|--------|--------|--------|--------|
B|--------|--------|--------|--------|--------|--------|--------|--------|--------|
G|--------|--------|--------|--------|--------|--------|--------|--------|--------|
D|--------|--------|--------|--------|--------|--------|--------|--------|--------|
A|--------|--------|--------|--------|--------|--------|--------|--------|--------|
E|--------|--------|--------|--------|--------|--------|--------|--------|--------|


E|--------|--------|--------|--------|--------|--------|--------|--------|--------|
B|--------|--------|--------|--------|--------|--------|--------|--------|--------|
G|--------|--------|--------|--------|--------|--------|--------|--------|--------|
D|--------|--------|--------|--------|--------|--------|--------|--------|--------|
A|--------|--------|--------|--------|--------|--------|--------|--------|--------|
E|--------|--------|--------|--------|--------|--------|--------|--------|--------|


E|--------|--------|--------|--------|--------|--------|--------|
B|--------|--------|--------|--------|--------|--------|--------|
G|--------|--------|--------|--------|--------|--------|--------|
D|--------|--------|--------|--------|--------|--------|--------|
A|--------|--------|--------|--------|--------|--------|--------|
E|--------|--------|--------|--------|--------|--------|--------|





Track 6: Gtr1

E|--------|--------|--------|--------|--------|--------|--------|--------|--------|
B|--------|--------|--------|--------|--------|--------|--------|--------|--------|
G|--------|--------|--------|--------|--------|--------|--------|--------|--------|
D|--------|--------|--------|--------|--------|--------|--------|--------|--------|
A|--------|--------|--------|--------|--------|--------|--------|--------|--------|
E|--------|--------|--------|--------|--------|--------|--------|--------|--------|


E|--------|--------|--------|--------|--------|--------|--------|--------|--------|
B|--------|--------|--------|--------|--------|--------|--------|--------|--------|
G|--------|--------|--------|--------|--------|--------|--------|--------|--------|
D|--------|--------|--------|--------|--------|--------|--------|--------|--------|
A|--------|--------|--------|--------|--------|--------|--------|--------|--------|
E|--------|--------|--------|--------|--------|--------|--------|--------|--------|


E|--------|--------|--------|--------|--------|--------|--------|--------|--------|
B|--------|--------|--------|--------|--------|--------|--------|--------|--------|
G|--------|--------|--------|--------|--------|--------|--------|--------|--------|
D|--------|--------|--------|--------|--------|--------|--------|--------|--------|
A|--------|--------|--------|--------|--------|--------|--------|--------|--------|
E|--------|--------|--------|--------|--------|--------|--------|--------|--------|


E|--------|--------|--------|--------|--------|--------|--------|--------|--------|
B|--------|--------|--------|--------|--------|--------|--------|--------|--------|
G|--------|--------|--------|--------|--------|--------|--------|--------|--------|
D|--------|--------|--------|--------|--------|--------|--------|--------|--------|
A|--------|--------|--------|--------|--------|--------|--------|--------|--------|
E|--------|--------|--------|--------|--------|--------|--------|--------|--------|


E|--------|--------|--------|--------|--------|--------|--------|--------|--------|
B|--------|--------|--------|--------|--------|--------|--------|--------|--------|
G|--------|--------|--------|--------|--------|--------|--------|--------|--------|
D|--------|--------|--------|--------|--------|--------|--------|--------|--------|
A|--------|--------|--------|--------|--------|--------|--------|--------|--------|
E|--------|--------|--------|--------|--------|--------|--------|--------|--------|


E|--------|--------|--------|--------|--------|--------|--------|--------|--------|
B|--------|--------|--------|--------|--------|--------|--------|--------|--------|
G|--------|--------|--------|--------|--------|--------|--------|--------|--------|
D|--------|--------|--------|--------|--------|--------|--------|--------|--------|
A|--------|--------|--------|--------|--------|--------|--------|--------|--------|
E|--------|--------|--------|--------|--------|--------|--------|--------|--------|


E|--------|--------|--------|--------|--------|--------|--------|--------|--------|
B|--------|--------|--------|--------|--------|--------|--------|--------|--------|
G|--------|--------|--------|--------|--------|--------|--------|--------|--------|
D|--------|--------|--------|--------|--------|--------|--------|--------|--------|
A|--------|--------|--------|--------|--------|--------|--------|--------|--------|
E|--------|--------|--------|--------|--------|--------|--------|--------|--------|


E|--------|--------|--------|--------|--------|--------|--------|--------|--------|
B|--------|--------|--------|--------|--------|--------|--------|--------|--------|
G|--------|--------|--------|--------|--------|--------|--------|--------|--------|
D|--------|--------|--------|--------|--------|--------|--------|--------|--------|
A|--------|--------|--------|--------|--------|--------|--------|--------|--------|
E|--------|--------|--------|--------|--------|--------|--------|--------|--------|


E|------0----0---0---0---0---|-0----0----0---0---0----|------3----3---3---3----|------0----0---0---0---0---|
B|------3----3---3---3---3---|-3----3----3---3---3----|------3----3---3---3----|------2----2---2---2---2---|
G|-4----4----4---4---4---4---|-4----4----4---4---4----|------0----0---0---0----|------2----2---2---2---2---|
D|-4----4----4---4---4---4---|-4----4----4---4---4----|------0----0---0---0----|------2----2---2---2---2---|
A|-2----2----2---2---2---2---|-2----2----2---2---2----|------2----2---2---2----|-0----0----0---0---0---0---|
E|---------------------------|------------------------|-3----3----3---3---3----|---------------------------|


E|------0----0---0---0---0---|-0----0----0---0---0----|------3----3---3---3----|------0----0---0---0---0---|
B|------3----3---3---3---3---|-3----3----3---3---3----|------3----3---3---3----|------2----2---2---2---2---|
G|-4----4----4---4---4---4---|-4----4----4---4---4----|------0----0---0---0----|------2----2---2---2---2---|
D|-4----4----4---4---4---4---|-4----4----4---4---4----|------0----0---0---0----|------2----2---2---2---2---|
A|-2----2----2---2---2---2---|-2----2----2---2---2----|------2----2---2---2----|-0----0----0---0---0---0---|
E|---------------------------|------------------------|-3----3----3---3---3----|---------------------------|


E|--------|--------|--------|--------|--------|--------|--------|--------|--------|
B|--------|--------|--------|--------|--------|--------|--------|--------|--------|
G|--------|--------|--------|--------|--------|--------|--------|--------|--------|
D|--------|--------|--------|--------|--------|--------|--------|--------|--------|
A|--------|--------|--------|--------|--------|--------|--------|--------|--------|
E|--------|--------|--------|--------|--------|--------|--------|--------|--------|


E|--------|--------|--------|--------|--------|--------|--------|--------|--------|
B|--------|--------|--------|--------|--------|--------|--------|--------|--------|
G|--------|--------|--------|--------|--------|--------|--------|--------|--------|
D|--------|--------|--------|--------|--------|--------|--------|--------|--------|
A|--------|--------|--------|--------|--------|--------|--------|--------|--------|
E|--------|--------|--------|--------|--------|--------|--------|--------|--------|


E|--------|--------|--------|--------|--------|--------|--------|--------|--------|
B|--------|--------|--------|--------|--------|--------|--------|--------|--------|
G|--------|--------|--------|--------|--------|--------|--------|--------|--------|
D|--------|--------|--------|--------|--------|--------|--------|--------|--------|
A|--------|--------|--------|--------|--------|--------|--------|--------|--------|
E|--------|--------|--------|--------|--------|--------|--------|--------|--------|


E|--------|--------|--------|--------|--------|--------|--------|--------|--------|
B|--------|--------|--------|--------|--------|--------|--------|--------|--------|
G|--------|--------|--------|--------|--------|--------|--------|--------|--------|
D|--------|--------|--------|--------|--------|--------|--------|--------|--------|
A|--------|--------|--------|--------|--------|--------|--------|--------|--------|
E|--------|--------|--------|--------|--------|--------|--------|--------|--------|


E|--------|--------|--------|--------|--------|--------|--------|--------|--------|
B|--------|--------|--------|--------|--------|--------|--------|--------|--------|
G|--------|--------|--------|--------|--------|--------|--------|--------|--------|
D|--------|--------|--------|--------|--------|--------|--------|--------|--------|
A|--------|--------|--------|--------|--------|--------|--------|--------|--------|
E|--------|--------|--------|--------|--------|--------|--------|--------|--------|


E|--------|--------|--------|--------|--------|--------|--------|--------|--------|
B|--------|--------|--------|--------|--------|--------|--------|--------|--------|
G|--------|--------|--------|--------|--------|--------|--------|--------|--------|
D|--------|--------|--------|--------|--------|--------|--------|--------|--------|
A|--------|--------|--------|--------|--------|--------|--------|--------|--------|
E|--------|--------|--------|--------|--------|--------|--------|--------|--------|


E|--------|--------|--------|--------|--------|--------|--------|--------|--------|
B|--------|--------|--------|--------|--------|--------|--------|--------|--------|
G|--------|--------|--------|--------|--------|--------|--------|--------|--------|
D|--------|--------|--------|--------|--------|--------|--------|--------|--------|
A|--------|--------|--------|--------|--------|--------|--------|--------|--------|
E|--------|--------|--------|--------|--------|--------|--------|--------|--------|


E|--------|--------|--------|--------|--------|--------|--------|--------|--------|
B|--------|--------|--------|--------|--------|--------|--------|--------|--------|
G|--------|--------|--------|--------|--------|--------|--------|--------|--------|
D|--------|--------|--------|--------|--------|--------|--------|--------|--------|
A|--------|--------|--------|--------|--------|--------|--------|--------|--------|
E|--------|--------|--------|--------|--------|--------|--------|--------|--------|


E|--------|--------|--------|--------|--------|--------|--------|--------|--------|
B|--------|--------|--------|--------|--------|--------|--------|--------|--------|
G|--------|--------|--------|--------|--------|--------|--------|--------|--------|
D|--------|--------|--------|--------|--------|--------|--------|--------|--------|
A|--------|--------|--------|--------|--------|--------|--------|--------|--------|
E|--------|--------|--------|--------|--------|--------|--------|--------|--------|


E|--------|--------|--------|--------|--------|--------|--------|--------|--------|
B|--------|--------|--------|--------|--------|--------|--------|--------|--------|
G|--------|--------|--------|--------|--------|--------|--------|--------|--------|
D|--------|--------|--------|--------|--------|--------|--------|--------|--------|
A|--------|--------|--------|--------|--------|--------|--------|--------|--------|
E|--------|--------|--------|--------|--------|--------|--------|--------|--------|


E|--------|--------|--------|--------|--------|--------|--------|--------|--------|
B|--------|--------|--------|--------|--------|--------|--------|--------|--------|
G|--------|--------|--------|--------|--------|--------|--------|--------|--------|
D|--------|--------|--------|--------|--------|--------|--------|--------|--------|
A|--------|--------|--------|--------|--------|--------|--------|--------|--------|
E|--------|--------|--------|--------|--------|--------|--------|--------|--------|


E|--------|--------|--------|--------|--------|--------|--------|--------|
B|--------|--------|--------|--------|--------|--------|--------|--------|
G|--------|--------|--------|--------|--------|--------|--------|--------|
D|--------|--------|--------|--------|--------|--------|--------|--------|
A|--------|--------|--------|--------|--------|--------|--------|--------|
E|--------|--------|--------|--------|--------|--------|--------|--------|





Track 7: Gtr1

E|--------|--------|--------|--------|--------|--------|--------|--------|--------|
B|--------|--------|--------|--------|--------|--------|--------|--------|--------|
G|--------|--------|--------|--------|--------|--------|--------|--------|--------|
D|--------|--------|--------|--------|--------|--------|--------|--------|--------|
A|--------|--------|--------|--------|--------|--------|--------|--------|--------|
E|--------|--------|--------|--------|--------|--------|--------|--------|--------|


E|--------|--------|--------|--------|--------|--------|--------|--------|--------|
B|--------|--------|--------|--------|--------|--------|--------|--------|--------|
G|--------|--------|--------|--------|--------|--------|--------|--------|--------|
D|--------|--------|--------|--------|--------|--------|--------|--------|--------|
A|--------|--------|--------|--------|--------|--------|--------|--------|--------|
E|--------|--------|--------|--------|--------|--------|--------|--------|--------|


E|--------|--------|--------|--------|--------|--------|--------|--------|--------|
B|--------|--------|--------|--------|--------|--------|--------|--------|--------|
G|--------|--------|--------|--------|--------|--------|--------|--------|--------|
D|--------|--------|--------|--------|--------|--------|--------|--------|--------|
A|--------|--------|--------|--------|--------|--------|--------|--------|--------|
E|--------|--------|--------|--------|--------|--------|--------|--------|--------|


E|--------|--------|--------|--------|--------|--------|--------|--------|--------|
B|--------|--------|--------|--------|--------|--------|--------|--------|--------|
G|--------|--------|--------|--------|--------|--------|--------|--------|--------|
D|--------|--------|--------|--------|--------|--------|--------|--------|--------|
A|--------|--------|--------|--------|--------|--------|--------|--------|--------|
E|--------|--------|--------|--------|--------|--------|--------|--------|--------|


E|--------|--------|--------|--------|--------|--------|--------|--------|--------|
B|--------|--------|--------|--------|--------|--------|--------|--------|--------|
G|--------|--------|--------|--------|--------|--------|--------|--------|--------|
D|--------|--------|--------|--------|--------|--------|--------|--------|--------|
A|--------|--------|--------|--------|--------|--------|--------|--------|--------|
E|--------|--------|--------|--------|--------|--------|--------|--------|--------|


E|--------|--------|--------|--------|--------|--------|--------|--------|--------|
B|--------|--------|--------|--------|--------|--------|--------|--------|--------|
G|--------|--------|--------|--------|--------|--------|--------|--------|--------|
D|--------|--------|--------|--------|--------|--------|--------|--------|--------|
A|--------|--------|--------|--------|--------|--------|--------|--------|--------|
E|--------|--------|--------|--------|--------|--------|--------|--------|--------|


E|--------|--------|--------|--------|--------|--------|--------|--------|--------|
B|--------|--------|--------|--------|--------|--------|--------|--------|--------|
G|--------|--------|--------|--------|--------|--------|--------|--------|--------|
D|--------|--------|--------|--------|--------|--------|--------|--------|--------|
A|--------|--------|--------|--------|--------|--------|--------|--------|--------|
E|--------|--------|--------|--------|--------|--------|--------|--------|--------|


E|--------|--------|--------|--------|--------|--------|--------|--------|--------|
B|--------|--------|--------|--------|--------|--------|--------|--------|--------|
G|--------|--------|--------|--------|--------|--------|--------|--------|--------|
D|--------|--------|--------|--------|--------|--------|--------|--------|--------|
A|--------|--------|--------|--------|--------|--------|--------|--------|--------|
E|--------|--------|--------|--------|--------|--------|--------|--------|--------|


E|--------|--------|--------|--------|--------|--------|--------|--------|--------|
B|--------|--------|--------|--------|--------|--------|--------|--------|--------|
G|-4------|-4------|-4------|-4------|-4------|-4------|-4------|-4------|--------|
D|-4------|-4------|-4------|-4------|-4------|-4------|-4------|-4------|--------|
A|-2------|-2------|-2------|-2------|-2------|-2------|-2------|-2------|--------|
E|-2------|-2------|-2------|-2------|-2------|-2------|-2------|-2------|--------|


E|--------|--------|--------|--------|--------|--------|--------|--------|--------|
B|--------|--------|--------|--------|--------|--------|--------|--------|--------|
G|--------|--------|--------|--------|--------|--------|--------|--------|--------|
D|--------|--------|--------|--------|--------|--------|--------|--------|--------|
A|--------|--------|--------|--------|--------|--------|--------|--------|--------|
E|--------|--------|--------|--------|--------|--------|--------|--------|--------|


E|--------|--------|--------|--------|--------|--------|--------|--------|--------|
B|--------|--------|--------|--------|--------|--------|--------|--------|--------|
G|--------|--------|--------|--------|--------|--------|--------|--------|--------|
D|--------|--------|--------|--------|--------|--------|--------|--------|--------|
A|--------|--------|--------|--------|--------|--------|--------|--------|--------|
E|--------|--------|--------|--------|--------|--------|--------|--------|--------|


E|--------|--------|--------|--------|--------|--------|--------|--------|--------|
B|--------|--------|--------|--------|--------|--------|--------|--------|--------|
G|--------|--------|--------|--------|--------|--------|--------|--------|--------|
D|--------|--------|--------|--------|--------|--------|--------|--------|--------|
A|--------|--------|--------|--------|--------|--------|--------|--------|--------|
E|--------|--------|--------|--------|--------|--------|--------|--------|--------|


E|--------|--------|--------|--------|--------|--------|--------|--------|--------|
B|--------|--------|--------|--------|--------|--------|--------|--------|--------|
G|--------|--------|--------|--------|--------|--------|--------|--------|--------|
D|--------|--------|--------|--------|--------|--------|--------|--------|--------|
A|--------|--------|--------|--------|--------|--------|--------|--------|--------|
E|--------|--------|--------|--------|--------|--------|--------|--------|--------|


E|--------|--------|--------|--------|--------|--------|--------|--------|--------|
B|--------|--------|--------|--------|--------|--------|--------|--------|--------|
G|--------|--------|--------|--------|--------|--------|--------|--------|--------|
D|--------|--------|--------|--------|--------|--------|--------|--------|--------|
A|--------|--------|--------|--------|--------|--------|--------|--------|--------|
E|--------|--------|--------|--------|--------|--------|--------|--------|--------|


E|--------|--------|--------|--------|--------|--------|--------|--------|--------|
B|--------|--------|--------|--------|--------|--------|--------|--------|--------|
G|--------|--------|--------|--------|--------|--------|--------|--------|--------|
D|--------|--------|--------|--------|--------|--------|--------|--------|--------|
A|--------|--------|--------|--------|--------|--------|--------|--------|--------|
E|--------|--------|--------|--------|--------|--------|--------|--------|--------|


E|--------|--------|--------|--------|--------|--------|--------|--------|--------|
B|--------|--------|--------|--------|--------|--------|--------|--------|--------|
G|--------|--------|--------|--------|--------|--------|--------|--------|--------|
D|--------|--------|--------|--------|--------|--------|--------|--------|--------|
A|--------|--------|--------|--------|--------|--------|--------|--------|--------|
E|--------|--------|--------|--------|--------|--------|--------|--------|--------|


E|--------|--------|--------|--------|--------|--------|--------|--------|--------|
B|--------|--------|--------|--------|--------|--------|--------|--------|--------|
G|--------|--------|--------|--------|--------|--------|--------|--------|--------|
D|--------|--------|--------|--------|--------|--------|--------|--------|--------|
A|--------|--------|--------|--------|--------|--------|--------|--------|--------|
E|--------|--------|--------|--------|--------|--------|--------|--------|--------|


E|--------|--------|--------|--------|--------|--------|--------|--------|--------|
B|--------|--------|--------|--------|--------|--------|--------|--------|--------|
G|--------|--------|--------|--------|--------|--------|--------|--------|--------|
D|--------|--------|--------|--------|--------|--------|--------|--------|--------|
A|--------|--------|--------|--------|--------|--------|--------|--------|--------|
E|--------|--------|--------|--------|--------|--------|--------|--------|--------|


E|--------|--------|--------|--------|--------|--------|--------|--------|--------|
B|--------|--------|--------|--------|--------|--------|--------|--------|--------|
G|--------|--------|--------|--------|--------|--------|--------|--------|--------|
D|--------|--------|--------|--------|--------|--------|--------|--------|--------|
A|--------|--------|--------|--------|--------|--------|--------|--------|--------|
E|--------|--------|--------|--------|--------|--------|--------|--------|--------|


E|--------|--------|--------|--------|--------|--------|--------|--------|--------|
B|--------|--------|--------|--------|--------|--------|--------|--------|--------|
G|--------|--------|--------|--------|--------|--------|--------|--------|--------|
D|--------|--------|--------|--------|--------|--------|--------|--------|--------|
A|--------|--------|--------|--------|--------|--------|--------|--------|--------|
E|--------|--------|--------|--------|--------|--------|--------|--------|--------|


E|--------|--------|--------|--------|--------|--------|--------|
B|--------|--------|--------|--------|--------|--------|--------|
G|--------|--------|--------|--------|--------|--------|--------|
D|--------|--------|--------|--------|--------|--------|--------|
A|--------|--------|--------|--------|--------|--------|--------|
E|--------|--------|--------|--------|--------|--------|--------|





Track 8: Gtr4

E|--------|--------|--------|--------|--------|--------|--------|--------|--------|
B|--------|--------|--------|--------|--------|--------|--------|--------|--------|
G|--------|--------|--------|--------|--------|--------|--------|--------|--------|
D|--------|--------|--------|--------|--------|--------|--------|--------|--------|
A|--------|--------|--------|--------|--------|--------|--------|--------|--------|
E|--------|--------|--------|--------|--------|--------|--------|--------|--------|


E|--------|--------|--------|--------|--------|--------|--------|--------|--------|
B|--------|--------|--------|--------|--------|--------|--------|--------|--------|
G|--------|--------|--------|--------|--------|--------|--------|--------|--------|
D|--------|--------|--------|--------|--------|--------|--------|--------|--------|
A|--------|--------|--------|--------|--------|--------|--------|--------|--------|
E|--------|--------|--------|--------|--------|--------|--------|--------|--------|


E|--------|--------|--------|--------|--------|--------|--------|--------|--------|
B|--------|--------|--------|--------|--------|--------|--------|--------|--------|
G|--------|--------|--------|--------|--------|--------|--------|--------|--------|
D|--------|--------|--------|--------|--------|--------|--------|--------|--------|
A|--------|--------|--------|--------|--------|--------|--------|--------|--------|
E|--------|--------|--------|--------|--------|--------|--------|--------|--------|


E|--------|--------|--------|--------|--------|--------|--------|--------|--------|
B|--------|--------|--------|--------|--------|--------|--------|--------|--------|
G|--------|--------|--------|--------|--------|--------|--------|--------|--------|
D|--------|--------|--------|--------|--------|--------|--------|--------|--------|
A|--------|--------|--------|--------|--------|--------|--------|--------|--------|
E|--------|--------|--------|--------|--------|--------|--------|--------|--------|


E|--------|--------|--------|--------|--------|--------|--------|--------|--------|
B|--------|--------|--------|--------|--------|--------|--------|--------|--------|
G|--------|--------|--------|--------|--------|--------|--------|--------|--------|
D|--------|--------|--------|--------|--------|--------|--------|--------|--------|
A|--------|--------|--------|--------|--------|--------|--------|--------|--------|
E|--------|--------|--------|--------|--------|--------|--------|--------|--------|


E|--------|--------|--------|--------|--------|--------|--------|--------|--------|
B|--------|--------|--------|--------|--------|--------|--------|--------|--------|
G|--------|--------|--------|--------|--------|--------|--------|--------|--------|
D|--------|--------|--------|--------|--------|--------|--------|--------|--------|
A|--------|--------|--------|--------|--------|--------|--------|--------|--------|
E|--------|--------|--------|--------|--------|--------|--------|--------|--------|


E|--------|--------|--------|--------|--------|--------|--------|--------|--------|
B|--------|--------|--------|--------|--------|--------|--------|--------|--------|
G|--------|--------|--------|--------|--------|--------|--------|--------|--------|
D|--------|--------|--------|--------|--------|--------|--------|--------|--------|
A|--------|--------|--------|--------|--------|--------|--------|--------|--------|
E|--------|--------|--------|--------|--------|--------|--------|--------|--------|


E|--------|--------|--------|--------|--------|--------|--------|--------|--------|
B|--------|--------|--------|--------|--------|--------|--------|--------|--------|
G|--------|--------|--------|--------|--------|--------|--------|--------|--------|
D|--------|--------|--------|--------|--------|--------|--------|--------|--------|
A|--------|--------|--------|--------|--------|--------|--------|--------|--------|
E|--------|--------|--------|--------|--------|--------|--------|--------|--------|


E|--------|--------|--------|--------|--------|--------|--------|--------|--------|
B|--------|--------|--------|--------|--------|--------|--------|--------|--------|
G|--------|--------|--------|--------|--------|--------|--------|--------|-4------|
D|--------|--------|--------|--------|--------|--------|--------|--------|-4------|
A|--------|--------|--------|--------|--------|--------|--------|--------|-2------|
E|--------|--------|--------|--------|--------|--------|--------|--------|-2------|


E|--------|--------|--------|--------|--------|--------|--------|--------|--------|
B|--------|--------|--------|--------|--------|--------|--------|--------|--------|
G|-4------|-4------|-4------|-4------|-4------|-4------|-4------|--------|--------|
D|-4------|-4------|-4------|-4------|-4------|-4------|-4------|--------|--------|
A|-2------|-2------|-2------|-2------|-2------|-2------|-2------|--------|--------|
E|-2------|-2------|-2------|-2------|-2------|-2------|-2------|--------|--------|


E|--------|--------|--------|--------|--------|--------|--------|--------|--------|
B|--------|--------|--------|--------|--------|--------|--------|--------|--------|
G|--------|--------|--------|--------|--------|--------|--------|--------|--------|
D|--------|--------|--------|--------|--------|--------|--------|--------|--------|
A|--------|--------|--------|--------|--------|--------|--------|--------|--------|
E|--------|--------|--------|--------|--------|--------|--------|--------|--------|


E|--------|--------|--------|--------|--------|--------|--------|--------|--------|
B|--------|--------|--------|--------|--------|--------|--------|--------|--------|
G|--------|--------|--------|--------|--------|--------|--------|--------|--------|
D|--------|--------|--------|--------|--------|--------|--------|--------|--------|
A|--------|--------|--------|--------|--------|--------|--------|--------|--------|
E|--------|--------|--------|--------|--------|--------|--------|--------|--------|


E|--------|--------|--------|--------|--------|--------|--------|--------|--------|
B|--------|--------|--------|--------|--------|--------|--------|--------|--------|
G|--------|--------|--------|--------|--------|--------|--------|--------|--------|
D|--------|--------|--------|--------|--------|--------|--------|--------|--------|
A|--------|--------|--------|--------|--------|--------|--------|--------|--------|
E|--------|--------|--------|--------|--------|--------|--------|--------|--------|


E|--------|--------|--------|--------|--------|--------|--------|--------|--------|
B|--------|--------|--------|--------|--------|--------|--------|--------|--------|
G|--------|--------|--------|--------|--------|--------|--------|--------|--------|
D|--------|--------|--------|--------|--------|--------|--------|--------|--------|
A|--------|--------|--------|--------|--------|--------|--------|--------|--------|
E|--------|--------|--------|--------|--------|--------|--------|--------|--------|


E|--------|--------|--------|--------|--------|--------|--------|--------|--------|
B|--------|--------|--------|--------|--------|--------|--------|--------|--------|
G|--------|--------|--------|--------|--------|--------|--------|--------|--------|
D|--------|--------|--------|--------|--------|--------|--------|--------|--------|
A|--------|--------|--------|--------|--------|--------|--------|--------|--------|
E|--------|--------|--------|--------|--------|--------|--------|--------|--------|


E|--------|--------|--------|--------|--------|--------|--------|--------|--------|
B|--------|--------|--------|--------|--------|--------|--------|--------|--------|
G|--------|--------|--------|--------|--------|--------|--------|--------|--------|
D|--------|--------|--------|--------|--------|--------|--------|--------|--------|
A|--------|--------|--------|--------|--------|--------|--------|--------|--------|
E|--------|--------|--------|--------|--------|--------|--------|--------|--------|


E|--------|--------|--------|--------|--------|--------|--------|--------|--------|
B|--------|--------|--------|--------|--------|--------|--------|--------|--------|
G|--------|--------|--------|--------|--------|--------|--------|--------|--------|
D|--------|--------|--------|--------|--------|--------|--------|--------|--------|
A|--------|--------|--------|--------|--------|--------|--------|--------|--------|
E|--------|--------|--------|--------|--------|--------|--------|--------|--------|


E|--------|--------|--------|--------|--------|--------|--------|--------|--------|
B|--------|--------|--------|--------|--------|--------|--------|--------|--------|
G|--------|--------|--------|--------|--------|--------|--------|--------|--------|
D|--------|--------|--------|--------|--------|--------|--------|--------|--------|
A|--------|--------|--------|--------|--------|--------|--------|--------|--------|
E|--------|--------|--------|--------|--------|--------|--------|--------|--------|


E|--------|--------|--------|--------|--------|--------|--------|--------|--------|
B|--------|--------|--------|--------|--------|--------|--------|--------|--------|
G|--------|--------|--------|--------|--------|--------|--------|--------|--------|
D|--------|--------|--------|--------|--------|--------|--------|--------|--------|
A|--------|--------|--------|--------|--------|--------|--------|--------|--------|
E|--------|--------|--------|--------|--------|--------|--------|--------|--------|


E|--------|--------|--------|--------|--------|--------|--------|--------|--------|
B|--------|--------|--------|--------|--------|--------|--------|--------|--------|
G|--------|--------|--------|--------|--------|--------|--------|--------|--------|
D|--------|--------|--------|--------|--------|--------|--------|--------|--------|
A|--------|--------|--------|--------|--------|--------|--------|--------|--------|
E|--------|--------|--------|--------|--------|--------|--------|--------|--------|


E|--------|--------|--------|--------|--------|--------|--------|
B|--------|--------|--------|--------|--------|--------|--------|
G|--------|--------|--------|--------|--------|--------|--------|
D|--------|--------|--------|--------|--------|--------|--------|
A|--------|--------|--------|--------|--------|--------|--------|
E|--------|--------|--------|--------|--------|--------|--------|





Track 9: Gtr6 SOLO

E|--------|--------|--------|--------|--------|--------|--------|--------|--------|
B|--------|--------|--------|--------|--------|--------|--------|--------|--------|
G|--------|--------|--------|--------|--------|--------|--------|--------|--------|
D|--------|--------|--------|--------|--------|--------|--------|--------|--------|
A|--------|--------|--------|--------|--------|--------|--------|--------|--------|
E|--------|--------|--------|--------|--------|--------|--------|--------|--------|


E|--------|--------|--------|--------|--------|--------|--------|--------|--------|
B|--------|--------|--------|--------|--------|--------|--------|--------|--------|
G|--------|--------|--------|--------|--------|--------|--------|--------|--------|
D|--------|--------|--------|--------|--------|--------|--------|--------|--------|
A|--------|--------|--------|--------|--------|--------|--------|--------|--------|
E|--------|--------|--------|--------|--------|--------|--------|--------|--------|


E|--------|--------|--------|--------|--------|--------|--------|--------|--------|
B|--------|--------|--------|--------|--------|--------|--------|--------|--------|
G|--------|--------|--------|--------|--------|--------|--------|--------|--------|
D|--------|--------|--------|--------|--------|--------|--------|--------|--------|
A|--------|--------|--------|--------|--------|--------|--------|--------|--------|
E|--------|--------|--------|--------|--------|--------|--------|--------|--------|


E|--------|--------|--------|--------|--------|--------|--------|--------|--------|
B|--------|--------|--------|--------|--------|--------|--------|--------|--------|
G|--------|--------|--------|--------|--------|--------|--------|--------|--------|
D|--------|--------|--------|--------|--------|--------|--------|--------|--------|
A|--------|--------|--------|--------|--------|--------|--------|--------|--------|
E|--------|--------|--------|--------|--------|--------|--------|--------|--------|


E|--------|--------|--------|--------|--------|--------|--------|--------|--------|
B|--------|--------|--------|--------|--------|--------|--------|--------|--------|
G|--------|--------|--------|--------|--------|--------|--------|--------|--------|
D|--------|--------|--------|--------|--------|--------|--------|--------|--------|
A|--------|--------|--------|--------|--------|--------|--------|--------|--------|
E|--------|--------|--------|--------|--------|--------|--------|--------|--------|


E|--------|--------|--------|--------|--------|--------|--------|--------|--------|
B|--------|--------|--------|--------|--------|--------|--------|--------|--------|
G|--------|--------|--------|--------|--------|--------|--------|--------|--------|
D|--------|--------|--------|--------|--------|--------|--------|--------|--------|
A|--------|--------|--------|--------|--------|--------|--------|--------|--------|
E|--------|--------|--------|--------|--------|--------|--------|--------|--------|


E|--------|--------|--------|--------|--------|--------|--------|--------|--------|
B|--------|--------|--------|--------|--------|--------|--------|--------|--------|
G|--------|--------|--------|--------|--------|--------|--------|--------|--------|
D|--------|--------|--------|--------|--------|--------|--------|--------|--------|
A|--------|--------|--------|--------|--------|--------|--------|--------|--------|
E|--------|--------|--------|--------|--------|--------|--------|--------|--------|


E|--------|--------|--------|--------|--------|--------|--------|--------|--------|
B|--------|--------|--------|--------|--------|--------|--------|--------|--------|
G|--------|--------|--------|--------|--------|--------|--------|--------|--------|
D|--------|--------|--------|--------|--------|--------|--------|--------|--------|
A|--------|--------|--------|--------|--------|--------|--------|--------|--------|
E|--------|--------|--------|--------|--------|--------|--------|--------|--------|


E|--------|--------|--------|--------|--------|--------|--------|--------|--------|
B|--------|--------|--------|--------|--------|--------|--------|--------|--------|
G|--------|--------|--------|--------|--------|--------|--------|--------|--------|
D|--------|--------|--------|--------|--------|--------|--------|--------|--------|
A|--------|--------|--------|--------|--------|--------|--------|--------|--------|
E|--------|--------|--------|--------|--------|--------|--------|--------|--------|


E|--------|--------|--------|--------|--------|--------|--------|--------|--------|
B|--------|--------|--------|--------|--------|--------|--------|--------|--------|
G|--------|--------|--------|--------|--------|--------|--------|--------|--------|
D|--------|--------|--------|--------|--------|--------|--------|--------|--------|
A|--------|--------|--------|--------|--------|--------|--------|--------|--------|
E|--------|--------|--------|--------|--------|--------|--------|--------|--------|


E|--------|--------|--------|--------|--------|--------|--------|--------|--------|
B|--------|--------|--------|--------|--------|--------|--------|--------|--------|
G|--------|--------|--------|--------|--------|--------|--------|--------|--------|
D|--------|--------|--------|--------|--------|--------|--------|--------|--------|
A|--------|--------|--------|--------|--------|--------|--------|--------|--------|
E|--------|--------|--------|--------|--------|--------|--------|--------|--------|


E|--------|--------|--------|--------|--------|--------|--------|--------|--------|
B|--------|--------|--------|--------|--------|--------|--------|--------|--------|
G|--------|--------|--------|--------|--------|--------|--------|--------|--------|
D|--------|--------|--------|--------|--------|--------|--------|--------|--------|
A|--------|--------|--------|--------|--------|--------|--------|--------|--------|
E|--------|--------|--------|--------|--------|--------|--------|--------|--------|


E|--------|--------|--------|-------------|------------------------|---------------------|
B|--------|--------|--------|-------------|------------------------|---------------------|
G|--------|--------|--------|-------------|------------------------|---------------------|
D|--------|--------|--------|-------------|------------------------|---------------------|
A|--------|--------|--------|-------16----|----------4---4----5----|-5---4-----5----4----|
E|--------|--------|--------|-------------|-7----7-----------------|---------------------|


E|---------------------|---------------------|---------------------------|------------------------|
B|---------------------|---------------------|---------------------------|------------------------|
G|---------------------|---------------------|---------------------------|------------------------|
D|---------------------|---------------------|---------------------------|------------------------|
A|-7-----5---5----4----|-4---5-----4---------|---------------------------|------------------------|
E|---------------------|----------------5----|-7----7---5---5---5---7----|-7---5----5---7----7----|


E|---------------------------------|---------------------------------|------------------------|
B|---------------------------------|---------------------------------|------------------------|
G|---------------------------------|---------------------------------|------------------------|
D|---------------------------------|---------------------------------|------------------------|
A|-5---7---5---7---5---7---5---7---|-4---5---4---5---4---5---4---0---|----------4---4----5----|
E|---------------------------------|---------------------------------|-7----7-----------------|


E|---------------------|------------------------|---------------------|---------------------------|
B|---------------------|------------------------|---------------------|---------------------------|
G|---------------------|------------------------|---------------------|---------------------------|
D|---------------------|------------------------|---------------------|---------------------------|
A|-5---4-----5----4----|-7----7---5---5----4----|-4---5-----4---------|---------------------------|
E|---------------------|------------------------|----------------5----|-7----7---5---5---5---7----|


E|------------------------|---------------------------------|---------------------------------|
B|------------------------|---------------------------------|---------------------------------|
G|------------------------|---------------------------------|---------------------------------|
D|------------------------|---------------------------------|---------------------------------|
A|------------------------|-5---7---5---7---5---7---5---7---|-4---5---4---5---4---5---4---0---|
E|-7---5----7---7---------|---------------------------------|---------------------------------|


E|--------|--------|--------|--------|--------|--------|--------|--------|--------|
B|--------|--------|--------|--------|--------|--------|--------|--------|--------|
G|--------|--------|--------|--------|--------|--------|--------|--------|--------|
D|--------|--------|--------|--------|--------|--------|--------|--------|--------|
A|--------|--------|--------|--------|--------|--------|--------|--------|--------|
E|--------|--------|--------|--------|--------|--------|--------|--------|--------|


E|--------|--------|--------|--------|--------|--------|--------|--------|--------|
B|--------|--------|--------|--------|--------|--------|--------|--------|--------|
G|--------|--------|--------|--------|--------|--------|--------|--------|--------|
D|--------|--------|--------|--------|--------|--------|--------|--------|--------|
A|--------|--------|--------|--------|--------|--------|--------|--------|--------|
E|--------|--------|--------|--------|--------|--------|--------|--------|--------|


E|--------|--------|--------|--------|--------|--------|--------|--------|--------|
B|--------|--------|--------|--------|--------|--------|--------|--------|--------|
G|--------|--------|--------|--------|--------|--------|--------|--------|--------|
D|--------|--------|--------|--------|--------|--------|--------|--------|--------|
A|--------|--------|--------|--------|--------|--------|--------|--------|--------|
E|--------|--------|--------|--------|--------|--------|--------|--------|--------|


E|--------|--------|--------|--------|--------|--------|--------|--------|--------|
B|--------|--------|--------|--------|--------|--------|--------|--------|--------|
G|--------|--------|--------|--------|--------|--------|--------|--------|--------|
D|--------|--------|--------|--------|--------|--------|--------|--------|--------|
A|--------|--------|--------|--------|--------|--------|--------|--------|--------|
E|--------|--------|--------|--------|--------|--------|--------|--------|--------|


E|--------|--------|--------|-------------|---------------------|---------------------|
B|--------|--------|--------|-------------|---------------------|---------------------|
G|--------|--------|--------|-------------|---------------------|---------------------|
D|--------|--------|--------|-------------|---------------------|---------------------|
A|--------|--------|--------|-------14----|-------4---4----5----|-5---4-----5----4----|
E|--------|--------|--------|-------------|-7-------------------|---------------------|


E|---------------------|---------------------|---------------------------|------------------------|
B|---------------------|---------------------|---------------------------|------------------------|
G|---------------------|---------------------|---------------------------|------------------------|
D|---------------------|---------------------|---------------------------|------------------------|
A|-7-----5---5----4----|-4---5-----4---------|---------------------------|------------------------|
E|---------------------|----------------5----|-7----7---5---5---5---7----|-7---5----5---7----7----|


E|---------------------------------|---------------------------------|------------------------|
B|---------------------------------|---------------------------------|------------------------|
G|---------------------------------|---------------------------------|------------------------|
D|---------------------------------|---------------------------------|------------------------|
A|-5---7---5---7---5---7---5---7---|-4---5---4---5---4---5---4---0---|----------4---4----5----|
E|---------------------------------|---------------------------------|-7----7-----------------|


E|---------------------|---------------------|------------------------|------------------------|
B|---------------------|---------------------|------------------------|------------------------|
G|---------------------|---------------------|------------------------|------------------------|
D|---------------------|---------------------|------------------------|------------------------|
A|-5---4-----5----4----|-9-----7---7----5----|-5---4-----5---4--------|------------------------|
E|---------------------|---------------------|-------------------5----|-7----7---5---5----7----|


E|---------------------|---------------------------------|---------------------------------|
B|---------------------|---------------------------------|---------------------------------|
G|---------------------|---------------------------------|---------------------------------|
D|---------------------|---------------------------------|---------------------------------|
A|---------------------|-5---7---5---7---5---7---5---7---|-4---5---4---5---4---5---4---0---|
E|-7---5-----7----7----|---------------------------------|---------------------------------|


E|--------|--------|--------|
B|--------|--------|--------|
G|--------|--------|--------|
D|--------|--------|--------|
A|--------|--------|--------|
E|--------|--------|--------|





Track 10: Gtr1

E|--------|--------|--------|--------|--------|--------|--------|--------|--------|
B|--------|--------|--------|--------|--------|--------|--------|--------|--------|
G|--------|--------|--------|--------|--------|--------|--------|--------|--------|
D|--------|--------|--------|--------|--------|--------|--------|--------|--------|
A|--------|--------|--------|--------|--------|--------|--------|--------|--------|
E|--------|--------|--------|--------|--------|--------|--------|--------|--------|


E|--------|--------|--------|--------|--------|--------|--------|--------|--------|
B|--------|--------|--------|--------|--------|--------|--------|--------|--------|
G|--------|--------|--------|--------|--------|--------|--------|--------|--------|
D|--------|--------|--------|--------|--------|--------|--------|--------|--------|
A|--------|--------|--------|--------|--------|--------|--------|--------|--------|
E|--------|--------|--------|--------|--------|--------|--------|--------|--------|


E|--------|--------|--------|--------|--------|--------|--------|--------|--------|
B|--------|--------|--------|--------|--------|--------|--------|--------|--------|
G|--------|--------|--------|--------|--------|--------|--------|--------|--------|
D|--------|--------|--------|--------|--------|--------|--------|--------|--------|
A|--------|--------|--------|--------|--------|--------|--------|--------|--------|
E|--------|--------|--------|--------|--------|--------|--------|--------|--------|


E|--------|--------|--------|--------|--------|--------|--------|--------|--------|
B|--------|--------|--------|--------|--------|--------|--------|--------|--------|
G|--------|--------|--------|--------|--------|--------|--------|--------|--------|
D|--------|--------|--------|--------|--------|--------|--------|--------|--------|
A|--------|--------|--------|--------|--------|--------|--------|--------|--------|
E|--------|--------|--------|--------|--------|--------|--------|--------|--------|


E|--------|--------|--------|--------|--------|--------|--------|--------|--------|
B|--------|--------|--------|--------|--------|--------|--------|--------|--------|
G|--------|--------|--------|--------|--------|--------|--------|--------|--------|
D|--------|--------|--------|--------|--------|--------|--------|--------|--------|
A|--------|--------|--------|--------|--------|--------|--------|--------|--------|
E|--------|--------|--------|--------|--------|--------|--------|--------|--------|


E|--------|--------|--------|--------|--------|--------|--------|--------|--------|
B|--------|--------|--------|--------|--------|--------|--------|--------|--------|
G|--------|--------|--------|--------|--------|--------|--------|--------|--------|
D|--------|--------|--------|--------|--------|--------|--------|--------|--------|
A|--------|--------|--------|--------|--------|--------|--------|--------|--------|
E|--------|--------|--------|--------|--------|--------|--------|--------|--------|


E|--------|--------|--------|--------|--------|--------|--------|--------|--------|
B|--------|--------|--------|--------|--------|--------|--------|--------|--------|
G|--------|--------|--------|--------|--------|--------|--------|--------|--------|
D|--------|--------|--------|--------|--------|--------|--------|--------|--------|
A|--------|--------|--------|--------|--------|--------|--------|--------|--------|
E|--------|--------|--------|--------|--------|--------|--------|--------|--------|


E|--------|--------|--------|--------|--------|--------|--------|--------|--------|
B|--------|--------|--------|--------|--------|--------|--------|--------|--------|
G|--------|--------|--------|--------|--------|--------|--------|--------|--------|
D|--------|--------|--------|--------|--------|--------|--------|--------|--------|
A|--------|--------|--------|--------|--------|--------|--------|--------|--------|
E|--------|--------|--------|--------|--------|--------|--------|--------|--------|


E|--------|--------|--------|--------|--------|--------|--------|--------|--------|
B|--------|--------|--------|--------|--------|--------|--------|--------|--------|
G|--------|--------|--------|--------|--------|--------|--------|--------|--------|
D|--------|--------|--------|--------|--------|--------|--------|--------|--------|
A|--------|--------|--------|--------|--------|--------|--------|--------|--------|
E|--------|--------|--------|--------|--------|--------|--------|--------|--------|


E|--------|--------|--------|--------|--------|--------|--------|--------|--------|
B|--------|--------|--------|--------|--------|--------|--------|--------|--------|
G|--------|--------|--------|--------|--------|--------|--------|--------|--------|
D|--------|--------|--------|--------|--------|--------|--------|--------|--------|
A|--------|--------|--------|--------|--------|--------|--------|--------|--------|
E|--------|--------|--------|--------|--------|--------|--------|--------|--------|


E|--------|--------|--------|--------|--------|--------|--------|--------|--------|
B|--------|--------|--------|--------|--------|--------|--------|--------|--------|
G|--------|--------|--------|--------|--------|--------|--------|--------|--------|
D|--------|--------|--------|--------|--------|--------|--------|--------|--------|
A|--------|--------|--------|--------|--------|--------|--------|--------|--------|
E|--------|--------|--------|--------|--------|--------|--------|--------|--------|


E|--------|--------|--------|--------|--------|--------|--------|--------|--------|
B|--------|--------|--------|--------|--------|--------|--------|--------|--------|
G|--------|--------|--------|--------|--------|--------|--------|--------|--------|
D|--------|--------|--------|--------|--------|--------|--------|--------|--------|
A|--------|--------|--------|--------|--------|--------|--------|--------|--------|
E|--------|--------|--------|--------|--------|--------|--------|--------|--------|


E|--------|--------|--------|--------|--------|--------|--------|--------|--------|
B|--------|--------|--------|--------|--------|--------|--------|--------|--------|
G|--------|--------|--------|--------|--------|--------|--------|--------|--------|
D|--------|--------|--------|--------|--------|--------|--------|--------|--------|
A|--------|--------|--------|--------|--------|--------|--------|--------|--------|
E|--------|--------|--------|--------|--------|--------|--------|--------|--------|


E|--------|--------|--------|--------|--------|--------|--------|--------|--------|
B|--------|--------|--------|--------|--------|--------|--------|--------|--------|
G|--------|--------|--------|--------|--------|--------|--------|--------|--------|
D|--------|--------|--------|--------|--------|--------|--------|--------|--------|
A|--------|--------|--------|--------|--------|--------|--------|--------|--------|
E|--------|--------|--------|--------|--------|--------|--------|--------|--------|


E|--------|--------|--------|--------|--------|--------|--------|--------|--------|
B|--------|--------|--------|--------|--------|--------|--------|--------|--------|
G|--------|--------|--------|--------|--------|--------|--------|--------|--------|
D|--------|--------|--------|--------|--------|--------|--------|--------|--------|
A|--------|--------|--------|--------|--------|--------|--------|--------|--------|
E|--------|--------|--------|--------|--------|--------|--------|--------|--------|


E|--------|--------|--------|--------|--------|--------|--------|--------|--------|
B|--------|--------|--------|--------|--------|--------|--------|--------|--------|
G|--------|--------|--------|--------|--------|--------|--------|--------|--------|
D|--------|--------|--------|--------|--------|--------|--------|--------|--------|
A|--------|--------|--------|--------|--------|--------|--------|--------|--------|
E|--------|--------|--------|--------|--------|--------|--------|--------|--------|


E|--------|--------|--------|--------|--------|--------|--------|--------|--------|
B|--------|--------|--------|--------|--------|--------|--------|--------|--------|
G|--------|--------|--------|--------|--------|--------|--------|--------|--------|
D|--------|--------|--------|--------|--------|--------|--------|--------|--------|
A|--------|--------|--------|--------|--------|--------|--------|--------|--------|
E|--------|--------|--------|--------|--------|--------|--------|--------|--------|


E|--------|--------|--------|--------|--------|--------|--------|--------|--------|
B|--------|--------|--------|--------|--------|--------|--------|--------|--------|
G|--------|--------|--------|--------|--------|--------|--------|--------|--------|
D|--------|--------|--------|--------|--------|--------|--------|--------|--------|
A|--------|--------|--------|--------|--------|--------|--------|--------|--------|
E|--------|--------|--------|--------|--------|--------|--------|--------|--------|


E|--------|--------|--------|--------|--------|---------------------------------|--------|
B|--------|--------|--------|--------|--------|---------------------------------|--------|
G|--------|--------|--------|--------|--------|-3---3---3---3---3---3---3-------|--------|
D|--------|--------|--------|--------|--------|-4---4---4---4---4---4---4-------|--------|
A|--------|--------|--------|--------|--------|-4---4---4---4---4---4---4---0---|--------|
E|--------|--------|--------|--------|--------|-2---2---2---2---2---2---2---0---|--------|


E|--------|--------|--------|--------|--------|--------|--------|--------|--------|
B|--------|--------|--------|--------|--------|--------|--------|--------|--------|
G|--------|--------|--------|--------|--------|--------|--------|--------|--------|
D|--------|--------|--------|--------|--------|--------|--------|--------|--------|
A|--------|--------|--------|--------|--------|--------|--------|--------|--------|
E|--------|--------|--------|--------|--------|--------|--------|--------|--------|


E|--------|--------|--------|--------|--------|--------|--------|--------|--------|
B|--------|--------|--------|--------|--------|--------|--------|--------|--------|
G|--------|--------|--------|--------|--------|--------|--------|--------|--------|
D|--------|--------|--------|--------|--------|--------|--------|--------|--------|
A|--------|--------|--------|--------|--------|--------|--------|--------|--------|
E|--------|--------|--------|--------|--------|--------|--------|--------|--------|





Track 11: Gtr1

E|--------|--------|--------|--------|--------|--------|--------|--------|--------|
B|--------|--------|--------|--------|--------|--------|--------|--------|--------|
G|--------|--------|--------|--------|--------|--------|--------|--------|--------|
D|--------|--------|--------|--------|--------|--------|--------|--------|--------|
A|--------|--------|--------|--------|--------|--------|--------|--------|--------|
E|--------|--------|--------|--------|--------|--------|--------|--------|--------|


E|--------|--------|--------|--------|--------|--------|--------|--------|--------|
B|--------|--------|--------|--------|--------|--------|--------|--------|--------|
G|--------|--------|--------|--------|--------|--------|--------|--------|--------|
D|--------|--------|--------|--------|--------|--------|--------|--------|--------|
A|--------|--------|--------|--------|--------|--------|--------|--------|--------|
E|--------|--------|--------|--------|--------|--------|--------|--------|--------|


E|--------|--------|--------|--------|--------|--------|--------|--------|--------|
B|--------|--------|--------|--------|--------|--------|--------|--------|--------|
G|--------|--------|--------|--------|--------|--------|--------|--------|--------|
D|--------|--------|--------|--------|--------|--------|--------|--------|--------|
A|--------|--------|--------|--------|--------|--------|--------|--------|--------|
E|--------|--------|--------|--------|--------|--------|--------|--------|--------|


E|--------|--------|--------|--------|--------|--------|--------|--------|--------|
B|--------|--------|--------|--------|--------|--------|--------|--------|--------|
G|--------|--------|--------|--------|--------|--------|--------|--------|--------|
D|--------|--------|--------|--------|--------|--------|--------|--------|--------|
A|--------|--------|--------|--------|--------|--------|--------|--------|--------|
E|--------|--------|--------|--------|--------|--------|--------|--------|--------|


E|--------|--------|--------|--------|--------|--------|--------|--------|--------|
B|--------|--------|--------|--------|--------|--------|--------|--------|--------|
G|--------|--------|--------|--------|--------|--------|--------|--------|--------|
D|--------|--------|--------|--------|--------|--------|--------|--------|--------|
A|--------|--------|--------|--------|--------|--------|--------|--------|--------|
E|--------|--------|--------|--------|--------|--------|--------|--------|--------|


E|--------|--------|--------|--------|--------|--------|--------|--------|--------|
B|--------|--------|--------|--------|--------|--------|--------|--------|--------|
G|--------|--------|--------|--------|--------|--------|--------|--------|--------|
D|--------|--------|--------|--------|--------|--------|--------|--------|--------|
A|--------|--------|--------|--------|--------|--------|--------|--------|--------|
E|--------|--------|--------|--------|--------|--------|--------|--------|--------|


E|--------|--------|--------|--------|--------|--------|--------|--------|--------|
B|--------|--------|--------|--------|--------|--------|--------|--------|--------|
G|--------|--------|--------|--------|--------|--------|--------|--------|--------|
D|--------|--------|--------|--------|--------|--------|--------|--------|--------|
A|--------|--------|--------|--------|--------|--------|--------|--------|--------|
E|--------|--------|--------|--------|--------|--------|--------|--------|--------|


E|--------|--------|--------|--------|--------|--------|--------|--------|--------|
B|--------|--------|--------|--------|--------|--------|--------|--------|--------|
G|--------|--------|--------|--------|--------|--------|--------|--------|--------|
D|--------|--------|--------|--------|--------|--------|--------|--------|--------|
A|--------|--------|--------|--------|--------|--------|--------|--------|--------|
E|--------|--------|--------|--------|--------|--------|--------|--------|--------|


E|--------|--------|--------|--------|--------|--------|--------|--------|--------|
B|--------|--------|--------|--------|--------|--------|--------|--------|--------|
G|--------|--------|--------|--------|--------|--------|--------|--------|--------|
D|--------|--------|--------|--------|--------|--------|--------|--------|--------|
A|--------|--------|--------|--------|--------|--------|--------|--------|--------|
E|--------|--------|--------|--------|--------|--------|--------|--------|--------|


E|--------|--------|--------|--------|--------|--------|--------|--------|--------|
B|--------|--------|--------|--------|--------|--------|--------|--------|--------|
G|--------|--------|--------|--------|--------|--------|--------|--------|--------|
D|--------|--------|--------|--------|--------|--------|--------|--------|--------|
A|--------|--------|--------|--------|--------|--------|--------|--------|--------|
E|--------|--------|--------|--------|--------|--------|--------|--------|--------|


E|--------|--------|--------|--------|--------|--------|--------|--------|--------|
B|--------|--------|--------|--------|--------|--------|--------|--------|--------|
G|--------|--------|--------|--------|--------|--------|--------|--------|--------|
D|--------|--------|--------|--------|--------|--------|--------|--------|--------|
A|--------|--------|--------|--------|--------|--------|--------|--------|--------|
E|--------|--------|--------|--------|--------|--------|--------|--------|--------|


E|--------|--------|--------|--------|--------|--------|--------|--------|--------|
B|--------|--------|--------|--------|--------|--------|--------|--------|--------|
G|--------|--------|--------|--------|--------|--------|--------|--------|--------|
D|--------|--------|--------|--------|--------|--------|--------|--------|--------|
A|--------|--------|--------|--------|--------|--------|--------|--------|--------|
E|--------|--------|--------|--------|--------|--------|--------|--------|--------|


E|--------|--------|--------|--------|--------|--------|--------|--------|--------|
B|--------|--------|--------|--------|--------|--------|--------|--------|--------|
G|--------|--------|--------|--------|--------|--------|--------|--------|--------|
D|--------|--------|--------|--------|--------|--------|--------|--------|--------|
A|--------|--------|--------|--------|--------|--------|--------|--------|--------|
E|--------|--------|--------|--------|--------|--------|--------|--------|--------|


E|--------|--------|--------|--------|--------|--------|--------|--------|--------|
B|--------|--------|--------|--------|--------|--------|--------|--------|--------|
G|--------|--------|--------|--------|--------|--------|--------|--------|--------|
D|--------|--------|--------|--------|--------|--------|--------|--------|--------|
A|--------|--------|--------|--------|--------|--------|--------|--------|--------|
E|--------|--------|--------|--------|--------|--------|--------|--------|--------|


E|--------|--------|--------|--------|--------|--------|--------|--------|--------|
B|--------|--------|--------|--------|--------|--------|--------|--------|--------|
G|--------|--------|--------|--------|--------|--------|--------|--------|--------|
D|--------|--------|--------|--------|--------|--------|--------|--------|--------|
A|--------|--------|--------|--------|--------|--------|--------|--------|--------|
E|--------|--------|--------|--------|--------|--------|--------|--------|--------|


E|--------|--------|--------|--------|--------|--------|--------|--------|--------|
B|--------|--------|--------|--------|--------|--------|--------|--------|--------|
G|--------|--------|--------|--------|--------|--------|--------|--------|--------|
D|--------|--------|--------|--------|--------|--------|--------|--------|--------|
A|--------|--------|--------|--------|--------|--------|--------|--------|--------|
E|--------|--------|--------|--------|--------|--------|--------|--------|--------|


E|--------|--------|--------|--------|--------|--------|--------|--------|--------|
B|--------|--------|--------|--------|--------|--------|--------|--------|--------|
G|--------|--------|--------|--------|--------|--------|--------|--------|--------|
D|--------|--------|--------|--------|--------|--------|--------|--------|--------|
A|--------|--------|--------|--------|--------|--------|--------|--------|--------|
E|--------|--------|--------|--------|--------|--------|--------|--------|--------|


E|--------|--------|--------|--------|--------|--------|--------|--------|--------|
B|--------|--------|--------|--------|--------|--------|--------|--------|--------|
G|--------|--------|--------|--------|--------|--------|--------|--------|--------|
D|--------|--------|--------|--------|--------|--------|--------|--------|--------|
A|--------|--------|--------|--------|--------|--------|--------|--------|--------|
E|--------|--------|--------|--------|--------|--------|--------|--------|--------|


E|--------|--------|--------|--------|--------|--------|--------|--------|--------|
B|--------|--------|--------|--------|--------|--------|--------|--------|--------|
G|--------|--------|--------|--------|--------|--------|--------|--------|--------|
D|--------|--------|--------|--------|--------|--------|--------|--------|--------|
A|--------|--------|--------|--------|--------|--------|--------|--------|--------|
E|--------|--------|--------|--------|--------|--------|--------|--------|--------|


E|--------|--------|--------|--------|--------|--------|--------|--------|--------|
B|--------|--------|--------|--------|--------|--------|--------|--------|--------|
G|--------|--------|--------|--------|--------|--------|--------|--------|--------|
D|--------|--------|--------|--------|--------|--------|--------|--------|--------|
A|--------|--------|--------|--------|--------|--------|--------|--------|--------|
E|--------|--------|--------|--------|--------|--------|--------|--------|--------|


E|--------|--------|--------|--------|--------|--------|--------|
B|--------|--------|--------|--------|--------|--------|--------|
G|--------|--------|--------|--------|--------|--------|--------|
D|--------|--------|--------|--------|--------|--------|--------|
A|--------|--------|--------|--------|--------|--------|--------|
E|--------|--------|--------|--------|--------|--------|--------|





Track 12: Untitled

G|--------|--------|--------|--------|--------|--------|--------|--------|--------|
D|--------|--------|--------|--------|--------|--------|--------|--------|--------|
A|--------|--------|--------|--------|--------|--------|--------|--------|-2------|
E|--------|--------|--------|--------|--------|--------|--------|--------|--------|


G|--------|--------|--------|--------|--------|--------|--------|--------|--------|
D|--------|--------|--------|--------|--------|--------|--------|--------|--------|
A|-2------|--------|-0------|-2------|-2------|--------|-0------|-2------|-2------|
E|--------|-3------|--------|--------|--------|-3------|--------|--------|--------|


G|--------|--------|--------|--------|--------|--------|--------|--------|--------|
D|--------|--------|--------|--------|--------|--------|--------|--------|--------|
A|--------|-0------|-2------|-2------|--------|-0------|-2------|-2------|--------|
E|-3------|--------|--------|--------|-3------|--------|--------|--------|-3------|


G|--------|--------|--------|--------|--------|------------------------|------------------------|
D|--------|--------|--------|--------|--------|------------------------|------------------------|
A|-0------|-2------|-2------|--------|-0------|-2----2----2---2---2----|-2----2----2---2---0----|
E|--------|--------|--------|-3------|--------|------------------------|------------------------|


G|---------------------|---------------------|------------------------|------------------------|
D|---------------------|---------------------|------------------------|------------------------|
A|---------------------|-0----0----0----0----|-2----2----2---2---2----|-2----2----2---2---0----|
E|-3----3----3----3----|---------------------|------------------------|------------------------|


G|---------------------|---------------------|--------|--------|--------|--------|
D|---------------------|---------------------|--------|--------|--------|--------|
A|---------------------|-0----0----0----0----|-2------|-2------|--------|-0------|
E|-3----3----3----3----|---------------------|--------|--------|-3------|--------|


G|--------|--------|--------|--------|--------|--------|--------|--------|--------|
D|--------|--------|--------|--------|--------|--------|--------|--------|--------|
A|-2------|-2------|--------|-0------|-2------|-2------|--------|-0------|-2------|
E|--------|--------|-3------|--------|--------|--------|-3------|--------|--------|


G|--------|--------|--------|------------------------|------------------------|---------------------|
D|--------|--------|--------|------------------------|------------------------|---------------------|
A|-2------|--------|-0------|-2----2----2---2---2----|-2----2----2---2---2----|---------------------|
E|--------|-3------|--------|------------------------|------------------------|-3----3----3----3----|


G|---------------------|------------------------|------------------------|---------------------------|
D|---------------------|------------------------|------------------------|---------------------------|
A|-0----0----0----0----|-2----2----2---2---2----|-2----2----2---2---2----|---------------------------|
E|---------------------|------------------------|------------------------|-0----0---0---0----0---0---|


G|---------------------|------------------------|------------------------|---------------------|
D|---------------------|------------------------|------------------------|---------------------|
A|---------------------|-2----2----2---2---2----|-2----2----2---2---2----|---------------------|
E|-2----2----2----2----|------------------------|------------------------|-3----3----3----3----|


G|---------------------|------------------------|------------------------|---------------------------|
D|---------------------|------------------------|------------------------|---------------------------|
A|-0----0----0----0----|-2----2----2---2---2----|-2----2----2---2---2----|---------------------------|
E|---------------------|------------------------|------------------------|-0----0---0---0----0---0---|


G|---------------------|------------------------|------------------------|---------------------|
D|---------------------|------------------------|------------------------|---------------------|
A|---------------------|-2----2----2---2---2----|-2----2----2---2---0----|---------------------|
E|-2----2----2----2----|------------------------|------------------------|-3----3----3----3----|


G|---------------------|------------------------|------------------------|---------------------|
D|---------------------|------------------------|------------------------|---------------------|
A|-0----0----0----0----|-2----2----2---2---2----|-2----2----2---2---0----|---------------------|
E|---------------------|------------------------|------------------------|-3----3----3----3----|


G|---------------------|--------|--------|--------|--------|--------|--------|--------|
D|---------------------|--------|--------|--------|--------|--------|--------|--------|
A|-0----0----0----0----|-2------|-2------|--------|-0------|-2------|-2------|--------|
E|---------------------|--------|--------|-3------|--------|--------|--------|-3------|


G|--------|--------|--------|--------|--------|--------|--------|--------|--------|
D|--------|--------|--------|--------|--------|--------|--------|--------|--------|
A|-0------|-2------|-2------|--------|-0------|-2------|-2------|--------|-0------|
E|--------|--------|--------|-3------|--------|--------|--------|-3------|--------|


G|------------------------|------------------------|---------------------|---------------------|
D|------------------------|------------------------|---------------------|---------------------|
A|-2----2----2---2---2----|-2----2----2---2---2----|---------------------|-0----0----0----0----|
E|------------------------|------------------------|-3----3----3----3----|---------------------|


G|------------------------|------------------------|---------------------------|---------------------|
D|------------------------|------------------------|---------------------------|---------------------|
A|-2----2----2---2---2----|-2----2----2---2---2----|---------------------------|---------------------|
E|------------------------|------------------------|-0----0---0---0----0---0---|-2----2----2----2----|


G|------------------------|------------------------|---------------------|---------------------|
D|------------------------|------------------------|---------------------|---------------------|
A|-2----2----2---2---2----|-2----2----2---2---2----|---------------------|-0----0----0----0----|
E|------------------------|------------------------|-3----3----3----3----|---------------------|


G|------------------------|------------------------|---------------------------|---------------------|
D|------------------------|------------------------|---------------------------|---------------------|
A|-2----2----2---2---2----|-2----2----2---2---2----|---------------------------|---------------------|
E|------------------------|------------------------|-0----0---0---0----0---0---|-2----2----2----2----|


G|--------|--------|--------|--------|--------|--------|--------|--------|--------|
D|--------|--------|--------|--------|--------|--------|--------|--------|--------|
A|-2------|-2------|--------|-0------|-2------|-2------|--------|-0------|-2------|
E|--------|--------|-3------|--------|--------|--------|-3------|--------|--------|


G|--------|--------|--------|--------|--------|--------|--------|---------------------|
D|--------|--------|--------|--------|--------|--------|--------|---------------------|
A|-2------|--------|-0------|-2------|-2------|--------|-0------|-2----2----2----2----|
E|--------|-3------|--------|--------|--------|-3------|--------|---------------------|


G|---------------------|---------------------|---------------------|---------------------|
D|---------------------|---------------------|---------------------|---------------------|
A|-2----2----2----2----|-0----0----0----0----|---------------------|-2----2----2----2----|
E|---------------------|---------------------|-3----3----3----3----|---------------------|


G|---------------------|---------------------|---------------------|---------------------|
D|---------------------|---------------------|---------------------|---------------------|
A|-2----2----2----2----|-0----0----0----0----|---------------------|-2----2----2----2----|
E|---------------------|---------------------|-3----3----3----3----|---------------------|


G|---------------------|---------------------|---------------------|---------------------|
D|---------------------|---------------------|---------------------|---------------------|
A|-2----2----2----2----|-0----0----0----0----|---------------------|-2----2----2----2----|
E|---------------------|---------------------|-3----3----3----3----|---------------------|


G|---------------------|---------------------|---------------------|---------------------|
D|---------------------|---------------------|---------------------|---------------------|
A|-2----2----2----2----|-0----0----0----0----|---------------------|-2----2----2----2----|
E|---------------------|---------------------|-3----3----3----3----|---------------------|


G|---------------------|---------------------|---------------------|---------------------|
D|---------------------|---------------------|---------------------|---------------------|
A|-2----2----2----2----|-0----0----0----0----|---------------------|-2----2----2----2----|
E|---------------------|---------------------|-3----3----3----3----|---------------------|


G|---------------------|---------------------|---------------------|------------------------|
D|---------------------|---------------------|---------------------|------------------------|
A|-2----2----2----2----|-0----0----0----0----|---------------------|-2----2----2---2---2----|
E|---------------------|---------------------|-3----3----3----3----|------------------------|


G|------------------------|---------------------|---------------------|------------------------|
D|------------------------|---------------------|---------------------|------------------------|
A|-2----2----2---2---2----|---------------------|-0----0----0----0----|-2----2----2---2---2----|
E|------------------------|-3----3----3----3----|---------------------|------------------------|


G|------------------------|---------------------------|---------------------|------------------------|
D|------------------------|---------------------------|---------------------|------------------------|
A|-2----2----2---2---2----|---------------------------|---------------------|-2----2----2---2---2----|
E|------------------------|-0----0---0---0----0---0---|-2----2----2----2----|------------------------|


G|------------------------|---------------------|---------------------|------------------------|
D|------------------------|---------------------|---------------------|------------------------|
A|-2----2----2---2---2----|---------------------|-0----0----0----0----|-2----2----2---2---2----|
E|------------------------|-3----3----3----3----|---------------------|------------------------|


G|------------------------|---------------------------|---------------------|--------|
D|------------------------|---------------------------|---------------------|--------|
A|-2----2----2---2---2----|---------------------------|---------------------|-2------|
E|------------------------|-0----0---0---0----0---0---|-2----2----2----2----|--------|


G|--------|--------|--------|--------|--------|--------|--------|--------|--------|
D|--------|--------|--------|--------|--------|--------|--------|--------|--------|
A|-2------|--------|-0------|-2------|-2------|--------|-0------|-2------|-2------|
E|--------|-3------|--------|--------|--------|-3------|--------|--------|--------|


G|--------|--------|--------|--------|--------|--------|--------|--------|-------------|
D|--------|--------|--------|--------|--------|--------|--------|--------|-------------|
A|--------|-0------|-2------|-2------|--------|-0------|-2------|-2------|-2-----2-----|
E|-3------|--------|--------|--------|-3------|--------|--------|--------|-------------|