Site menu:

    

Browse: 0-9 A B C D E F G H I J K L N O P Q R S T U V W X Y Z

3 doors down - here without you:



Title: Here Without You
Artist: 
Album: Away From the Sun
Author: 3 Doors Down


Track 1: Lead Guitar

E|------------------------------|---------------------------------|------------------------------|
B|--------------1-----------0---|---------0-------1---------------|------------------------------|
G|----------2-------2-----------|-2-------------------2-----------|------------------------------|
D|------2---------------2-------|-----2-------2-----------2-------|-------------3----------------|
A|-0----------------------------|---------------------------------|-----0---3-------3---0--------|
E|------------------------------|-----------------------------3---|-1-----------------------3----|


E|---------------------------|------------------------------|---------------------------------|
B|--------------0------------|--------------1-----------0---|---------0-------1---------------|
G|-------------------0-------|----------2-------2-----------|-2-------------------2-----------|
D|---------0-------------0---|------2---------------2-------|-----2-------2-----------2-------|
A|-----2---------------------|-0----------------------------|-----------------------------0---|
E|-3-------------------------|------------------------------|---------------------------------|


E|------------------------------|---------------------------|------------------------------|
B|--------------0-----------1---|---------0-------1---3-----|--------------1-----------0---|
G|------------------0-----------|-0-----------0-------------|----------2-------2-----------|
D|----------0-----------0-------|-----0---------------------|------2---------------2-------|
A|------2-----------------------|---------------------------|-0----------------------------|
E|-3----------------------------|---------------------------|------------------------------|


E|---------------------------------|------------------------------|------------------------------|
B|---------0-------1---------------|------------------------------|-----------------0------------|
G|-2-------------------2-----------|------------------------------|---------0------------0-------|
D|-----2-------2-----------2-------|-------------3----------------|-------------0------------0---|
A|---------------------------------|-----0---3-------3---0--------|-----2------------------------|
E|-----------------------------3---|-1-----------------------3----|-3----------------------------|


E|------------------------------|---------------------------------|------------------------------|
B|--------------1-----------0---|---------0-------1---------------|--------------0-----------1---|
G|----------2-------2-----------|-2-------------------2-----------|------------------0-----------|
D|------2---------------2-------|-----2-------2-----------2-------|----------0-----------0-------|
A|-0----------------------------|-----------------------------0---|------2-----------------------|
E|------------------------------|---------------------------------|-3----------------------------|


E|---------------------------|------------------------------|---------------------------------|
B|---------0-------1---3-----|--------------1-----------0---|---------0-------1---------------|
G|-0-----------0-------------|----------2-------2-----------|-2-------------------2-----------|
D|-----0---------------------|------2---------------2-------|-----2-------2-----------2-------|
A|---------------------------|-0----------------------------|---------------------------------|
E|---------------------------|------------------------------|-----------------------------3---|


E|------------------------------|------------------------------|------------------------------|
B|------------------------------|-----------------0------------|--------------1-----------0---|
G|------------------------------|---------0------------0-------|----------2-------2-----------|
D|-------------3----------------|-------------0------------0---|------2---------------2-------|
A|-----0---3-------3---0--------|-----2------------------------|-0----------------------------|
E|-1-----------------------3----|-3----------------------------|------------------------------|


E|---------------------------------|------------------------------|---------------------------|
B|---------0-------1---------------|--------------0-----------1---|---------0-------1---3-----|
G|-2-------------------2-----------|------------------0-----------|-0-----------0-------------|
D|-----2-------2-----------2-------|----------0-----------0-------|-----0---------------------|
A|-----------------------------0---|------2-----------------------|---------------------------|
E|---------------------------------|-3----------------------------|---------------------------|


E|------------------------------|---------------------------------|------------------------------|
B|--------------1-----------0---|---------0-------1---------------|------------------------------|
G|----------2-------2-----------|-2-------------------2-----------|------------------------------|
D|------2---------------2-------|-----2-------2-----------2-------|-------------3----------------|
A|-0----------------------------|---------------------------------|-----0---3-------3---0--------|
E|------------------------------|-----------------------------3---|-1-----------------------3----|


E|------------------------------|--------------------------0---|-0--------0---1---0-----------|
B|-----------------0------------|--------------3---------------|------3---------------3---1---|
G|---------0------------0-------|----------0-------0-----------|------------------------------|
D|-------------0------------0---|------2---------------2-------|------------------------------|
A|-----2------------------------|-3----------------------------|------------------------------|
E|-3----------------------------|------------------------------|------------------------------|


E|--------------------------3---|-3-------1-------0------------|------------------------------|
B|-1------------0---------------|-------------------------3----|--------------1-----------3---|
G|------------------0-----------|------------------------------|----------2-------2-----------|
D|----------0-----------0-------|-----0-------0-------0--------|------2---------------2-------|
A|------2-----------------------|------------------------------|-0----------------------------|
E|-3----------------------------|------------------------------|------------------------------|


E|------------------------------|------------------------------|------------------------------|
B|-3-------1----3---1---0-------|------------------------------|-----------------0------------|
G|-----2--------------------2---|------------------------------|---------0------------0-------|
D|------------------------------|-------------3----------------|-------------0------------0---|
A|------------------------------|-----0---3-------3---0--------|-----2------------------------|
E|------------------------------|-1-----------------------3----|-3----------------------------|


E|--------------------------0---|-0--------0---1---0-----------|--------------------------3---|
B|--------------3---------------|------3---------------3---1---|-1------------0---------------|
G|----------0-------0-----------|------------------------------|------------------0-----------|
D|------2---------------2-------|------------------------------|----------0-----------0-------|
A|-3----------------------------|------------------------------|------2-----------------------|
E|------------------------------|------------------------------|-3----------------------------|


E|-3-------1-------0------------|------------------------------|------------------------------|
B|-------------------------3----|--------------1-----------3---|-3-------1----3---1---0-------|
G|------------------------------|----------2-------2-----------|-----2--------------------2---|
D|-----0-------0-------0--------|------2---------------2-------|------------------------------|
A|------------------------------|-0----------------------------|------------------------------|
E|------------------------------|------------------------------|------------------------------|


E|------------------------------|------------------------------|------------------------------|
B|------------------------------|-----------------0------------|--------------1-----------0---|
G|------------------------------|---------0------------0-------|----------2-------2-----------|
D|-------------3----------------|-------------0------------0---|------2---------------2-------|
A|-----0---3-------3---0--------|-----2------------------------|-0----------------------------|
E|-1-----------------------3----|-3----------------------------|------------------------------|


E|---------------------------------|------------------------------|---------------------------|
B|---------0-------1---------------|--------------0-----------1---|---------0-------1---3-----|
G|-2-------------------2-----------|------------------0-----------|-0-----------0-------------|
D|-----2-------2-----------2-------|----------0-----------0-------|-----0---------------------|
A|-----------------------------0---|------2-----------------------|---------------------------|
E|---------------------------------|-3----------------------------|---------------------------|


E|------------------------------|---------------------------------|------------------------------|
B|--------------1-----------0---|---------0-------1---------------|------------------------------|
G|----------2-------2-----------|-2-------------------2-----------|------------------------------|
D|------2---------------2-------|-----2-------2-----------2-------|-------------3----------------|
A|-0----------------------------|---------------------------------|-----0---3-------3---0--------|
E|------------------------------|-----------------------------3---|-1-----------------------3----|


E|------------------------------|------------------------------|---------------------------------|
B|-----------------0------------|--------------1-----------0---|---------0-------1---------------|
G|---------0------------0-------|----------2-------2-----------|-2-------------------2-----------|
D|-------------0------------0---|------2---------------2-------|-----2-------2-----------2-------|
A|-----2------------------------|-0----------------------------|-----------------------------0---|
E|-3----------------------------|------------------------------|---------------------------------|


E|------------------------------|---------------------------|------------------------------|
B|--------------0-----------1---|---------0-------1---3-----|--------------1-----------0---|
G|------------------0-----------|-0-----------0-------------|----------2-------2-----------|
D|----------0-----------0-------|-----0---------------------|------2---------------2-------|
A|------2-----------------------|---------------------------|-0----------------------------|
E|-3----------------------------|---------------------------|------------------------------|


E|---------------------------------|------------------------------|------------------------------|
B|---------0-------1---------------|------------------------------|-----------------0------------|
G|-2-------------------2-----------|------------------------------|---------0------------0-------|
D|-----2-------2-----------2-------|-------------3----------------|-------------0------------0---|
A|-----------------------------0---|-----0---3-------3---0--------|-----2------------------------|
E|---------------------------------|-1-----------------------3----|-3----------------------------|


E|------------------------------|---------------------------------|------------------------------|
B|--------------1-----------0---|---------0-------1---------------|--------------0-----------1---|
G|----------2-------2-----------|-2-------------------2-----------|------------------0-----------|
D|------2---------------2-------|-----2-------2-----------2-------|----------0-----------0-------|
A|-0----------------------------|-----------------------------0---|------2-----------------------|
E|------------------------------|---------------------------------|-3----------------------------|


E|---------------------------|------------------------------|---------------------------------|
B|---------0-------1---3-----|--------------1-----------0---|---------0-------1---------------|
G|-0-----------0-------------|----------2-------2-----------|-2-------------------2-----------|
D|-----0---------------------|------2---------------2-------|-----2-------2-----------2-------|
A|---------------------------|-0----------------------------|---------------------------------|
E|---------------------------|------------------------------|-----------------------------3---|


E|------------------------------|------------------------------|--------------------------0---|
B|------------------------------|-----------------0------------|--------------3---------------|
G|------------------------------|---------0------------0-------|----------0-------0-----------|
D|-------------3----------------|-------------0------------0---|------2---------------2-------|
A|-----0---3-------3---0--------|-----2------------------------|-3----------------------------|
E|-1-----------------------3----|-3----------------------------|------------------------------|


E|-0--------0---1---0-----------|--------------------------3---|-3-------1-------0------------|
B|------3---------------3---1---|-1------------0---------------|-------------------------3----|
G|------------------------------|------------------0-----------|------------------------------|
D|------------------------------|----------0-----------0-------|-----0-------0-------0--------|
A|------------------------------|------2-----------------------|------------------------------|
E|------------------------------|-3----------------------------|------------------------------|


E|------------------------------|------------------------------|------------------------------|
B|--------------1-----------3---|---------1----3---1---0-------|------------------------------|
G|----------2-------2-----------|-2------------------------2---|------------------------------|
D|------2---------------2-------|-----2------------------------|-------------3----------------|
A|-0----------------------------|------------------------------|-----0---3-------3---0--------|
E|------------------------------|------------------------------|-1-----------------------3----|


E|------------------------------|--------------------------0---|-0--------0---1---0-----------|
B|-----------------0------------|--------------3---------------|------3---------------3---1---|
G|---------0------------0-------|----------0-------0-----------|------------------------------|
D|-------------0------------0---|------2---------------2-------|------------------------------|
A|-----2------------------------|-3----------------------------|------------------------------|
E|-3----------------------------|------------------------------|------------------------------|


E|--------------------------3---|-3-------1-------0------------|------------------------------|
B|-1------------0---------------|-------------------------3----|--------------1-----------3---|
G|------------------0-----------|------------------------------|----------2-------2-----------|
D|----------0-----------0-------|-----0-------0-------0--------|------2---------------2-------|
A|------2-----------------------|------------------------------|-0----------------------------|
E|-3----------------------------|------------------------------|------------------------------|


E|------------------------------|------------------------------|------------------------------|
B|---------1----3---1---0-------|------------------------------|-----------------0------------|
G|-2------------------------2---|------------------------------|---------0------------0-------|
D|-----2------------------------|-------------3----------------|-------------0------------0---|
A|------------------------------|-----0---3-------3---0--------|-----2------------------------|
E|------------------------------|-1-----------------------3----|-3----------------------------|


E|--------------------|------------------------|-2-----2----2---2---|-2---2----2----2---2----|
B|-3-----3----3---3---|-3---3----3----3---3----|-3-----3----3---3---|-3---3----3----3---3----|
G|-4-----4----4---4---|-4---4----4----4---4----|-2-----2----2---2---|-2---2----2----2---2----|
D|-4-----4----4---4---|-4---4----4----4---4----|-0-----0----0---0---|-0---0----0----0---0----|
A|-2-----2----2---2---|-2---2----2----2---2----|--------------------|------------------------|
E|--------------------|------------------------|--------------------|------------------------|


E|-0-----0----0---0---|-0---0----0----0---0----|-3-----3----3---3---|-3---3----3----3---3----|
B|-2-----2----2---2---|-2---2----2----2---2----|-0-----0----0---0---|-0---0----0----0---0----|
G|-2-----2----2---2---|-2---2----2----2---2----|-0-----0----0---0---|-0---0----0----0---0----|
D|-2-----2----2---2---|-2---2----2----2---2----|-0-----0----0---0---|-0---0----0----0---0----|
A|-0-----0----0---0---|-0---0----0----0---0----|-2-----2----2---2---|-2---2----2----2---2----|
E|--------------------|------------------------|-3-----3----3---3---|-3---3----3----3---3----|


E|--------------------|------------------------|-2-----2----2---2---|-2---2----2----2---2----|
B|-3-----3----3---3---|-3---3----3----3---3----|-3-----3----3---3---|-3---3----3----3---3----|
G|-4-----4----4---4---|-4---4----4----4---4----|-2-----2----2---2---|-2---2----2----2---2----|
D|-4-----4----4---4---|-4---4----4----4---4----|-0-----0----0---0---|-0---0----0----0---0----|
A|-2-----2----2---2---|-2---2----2----2---2----|--------------------|------------------------|
E|--------------------|------------------------|--------------------|------------------------|


E|-0-----0----0---0---|-0---0----0----0---0----|-3-----3----3---3---|-3---3----3----3---3----|
B|-2-----2----2---2---|-2---2----2----2---2----|-0-----0----0---0---|-0---0----0----0---0----|
G|-2-----2----2---2---|-2---2----2----2---2----|-0-----0----0---0---|-0---0----0----0---0----|
D|-2-----2----2---2---|-2---2----2----2---2----|-0-----0----0---0---|-0---0----0----0---0----|
A|-0-----0----0---0---|-0---0----0----0---0----|-2-----2----2---2---|-2---2----2----2---2----|
E|--------------------|------------------------|-3-----3----3---3---|-3---3----3----3---3----|


E|-3-----3----3---3---|-3---3----3----3---3----|--------------------------0---|-0--------0---1---0-----------|
B|-0-----0----0---0---|-0---0----0----0---0----|--------------3---------------|------3---------------3---1---|
G|-0-----0----0---0---|-0---0----0----0---0----|----------0-------0-----------|------------------------------|
D|-0-----0----0---0---|-0---0----0----0---0----|------2---------------2-------|------------------------------|
A|-2-----2----2---2---|-2---2----2----2---2----|-3----------------------------|------------------------------|
E|-3-----3----3---3---|-3---3----3----3---3----|------------------------------|------------------------------|


E|--------------------------3---|-3-------1-------0------------|------------------------------|
B|-1------------0---------------|-------------------------3----|--------------1-----------3---|
G|------------------0-----------|------------------------------|----------2-------2-----------|
D|----------0-----------0-------|-----0-------0-------0--------|------2---------------2-------|
A|------2-----------------------|------------------------------|-0----------------------------|
E|-3----------------------------|------------------------------|------------------------------|


E|------------------------------|------------------------------|------------------------------|
B|---------1----3---1---0-------|------------------------------|-----------------0------------|
G|-2------------------------2---|------------------------------|---------0------------0-------|
D|-----2------------------------|-------------3----------------|-------------0------------0---|
A|------------------------------|-----0---3-------3---0--------|-----2------------------------|
E|------------------------------|-1-----------------------3----|-3----------------------------|


E|--------------------------0---|-0--------0---1---0-----------|--------------------------3---|
B|--------------3---------------|------3---------------3---1---|-1------------0---------------|
G|----------0-------0-----------|------------------------------|------------------0-----------|
D|------2---------------2-------|------------------------------|----------0-----------0-------|
A|-3----------------------------|------------------------------|------2-----------------------|
E|------------------------------|------------------------------|-3----------------------------|


E|-3-------1-------0------------|------------------------------|------------------------------|
B|-------------------------3----|--------------1-----------3---|---------1----3---1---0-------|
G|------------------------------|----------2-------2-----------|-2------------------------2---|
D|-----0-------0-------0--------|------2---------------2-------|-----2------------------------|
A|------------------------------|-0----------------------------|------------------------------|
E|------------------------------|------------------------------|------------------------------|


E|------------------------------|------------------------------|--------------------------0---|
B|------------------------------|-----------------0------------|--------------3---------------|
G|------------------------------|---------0------------0-------|----------0-------0-----------|
D|-------------3----------------|-------------0------------0---|------2---------------2-------|
A|-----0---3-------3---0--------|-----2------------------------|-3----------------------------|
E|-1-----------------------3----|-3----------------------------|------------------------------|


E|-0--------0---1---0-----------|--------------------------3---|-3-------1-------0------------|
B|------3---------------3---1---|-1------------0---------------|-------------------------3----|
G|------------------------------|------------------0-----------|------------------------------|
D|------------------------------|----------0-----------0-------|-----0-------0-------0--------|
A|------------------------------|------2-----------------------|------------------------------|
E|------------------------------|-3----------------------------|------------------------------|


E|------------------------------|------------------------------|------------------------------|
B|--------------1-----------3---|---------1----3---1---0-------|------------------------------|
G|----------2-------2-----------|-2------------------------2---|------------------------------|
D|------2---------------2-------|-----2------------------------|-------------3----------------|
A|-0----------------------------|------------------------------|-----0---3-------3---0--------|
E|------------------------------|------------------------------|-1-----------------------3----|


E|------------------------------|--------------------------0---|-0--------0---1---0-----------|
B|-----------------0------------|--------------3---------------|------3---------------3---1---|
G|---------0------------0-------|----------0-------0-----------|------------------------------|
D|-------------0------------0---|------2---------------2-------|------------------------------|
A|-----2------------------------|-3----------------------------|------------------------------|
E|-3----------------------------|------------------------------|------------------------------|


E|--------------------------3---|-3-------1-------0------------|------------------------------|
B|-1------------0---------------|-------------------------3----|--------------1-----------3---|
G|------------------0-----------|------------------------------|----------2-------2-----------|
D|----------0-----------0-------|-----0-------0-------0--------|------2---------------2-------|
A|------2-----------------------|------------------------------|-0----------------------------|
E|-3----------------------------|------------------------------|------------------------------|


E|------------------------------|------------------------------|------------------------------|
B|---------1----3---1---0-------|------------------------------|-----------------0------------|
G|-2------------------------2---|------------------------------|---------0------------0-------|
D|-----2------------------------|-------------3----------------|-------------0------------0---|
A|------------------------------|-----0---3-------3---0--------|-----2------------------------|
E|------------------------------|-1-----------------------3----|-3----------------------------|


E|-0------|-0------|
B|-1------|-1------|
G|-2------|-2------|
D|-2------|-2------|
A|-0------|-0------|
E|--------|--------|





Track 2: 1st Violin arranged for guitar

E|--------|--------|--------|--------|--------|--------|--------|--------|--------|
B|--------|--------|--------|--------|--------|--------|--------|--------|--------|
G|--------|--------|--------|--------|--------|--------|--------|--------|--------|
D|--------|--------|--------|--------|--------|--------|--------|--------|--------|
A|--------|--------|--------|--------|--------|--------|--------|--------|--------|
E|--------|--------|--------|--------|--------|--------|--------|--------|--------|


E|--------|--------|--------|--------|--------|--------|--------|--------|--------|
B|--------|--------|--------|--------|--------|--------|--------|--------|--------|
G|--------|--------|--------|--------|--------|--------|--------|--------|--------|
D|--------|--------|--------|--------|--------|--------|--------|--------|--------|
A|--------|--------|--------|--------|--------|--------|--------|--------|--------|
E|--------|--------|--------|--------|--------|--------|--------|--------|--------|


E|--------|--------|--------|--------|--------|--------|--------|--------|--------|
B|--------|--------|--------|--------|--------|--------|--------|--------|--------|
G|--------|--------|--------|--------|--------|--------|--------|--------|--------|
D|--------|--------|--------|--------|--------|--------|--------|--------|--------|
A|--------|--------|--------|--------|--------|--------|--------|--------|--------|
E|--------|--------|--------|--------|--------|--------|--------|--------|--------|


E|--------|--------|--------|--------|--------|--------|--------|------------------|
B|--------|--------|--------|--------|--------|--------|--------|------------------|
G|--------|--------|--------|--------|--------|--------|--------|------------------|
D|--------|-6------|-6------|--------|--------|-8------|-8------|-6-----6-----1----|
A|--------|--------|--------|-6------|-6------|--------|--------|------------------|
E|--------|--------|--------|--------|--------|--------|--------|------------------|


E|--------|--------|--------|--------|--------|--------|--------|------------------|
B|--------|--------|--------|--------|--------|--------|--------|------------------|
G|--------|--------|--------|--------|--------|--------|--------|------------------|
D|-1------|-6------|-6------|--------|--------|-8------|-8------|-6-----6-----1----|
A|--------|--------|--------|-6------|-6------|--------|--------|------------------|
E|--------|--------|--------|--------|--------|--------|--------|------------------|


E|--------|--------|-------------|------------|---------------------|-------------|
B|--------|--------|-------------|------------|---------------------|-------------|
G|--------|--------|-------------|--------13--|-13---11---10--------|-------------|
D|-1------|-11-----|-13----15----|-13---------|----------------13---|-8-----11----|
A|--------|--------|-------------|------------|---------------------|-------------|
E|--------|--------|-------------|------------|---------------------|-------------|


E|---------------------------|------------------|--------|--------|-------------|------------|
B|---------------------------|------------------|--------|--------|-------------|------------|
G|---------------------------|------------------|--------|--------|-------------|--------13--|
D|-13---11---13--11--8---6---|-4-----4-----1----|-1------|-11-----|-13----15----|-13---------|
A|---------------------------|------------------|--------|--------|-------------|------------|
E|---------------------------|------------------|--------|--------|-------------|------------|


E|---------------------|-------9-----8---|-8----8----6---------|------------------|
B|---------------------|-----------------|----------------9----|-7-----7----------|
G|-13---11---10--------|-----------------|---------------------|-------------8----|
D|----------------13---|-8---------------|---------------------|------------------|
A|---------------------|-----------------|---------------------|------------------|
E|---------------------|-----------------|---------------------|------------------|


E|--------|--------|-------------|------------|---------------------|--------|--------|
B|--------|--------|-------------|------------|---------------------|--------|--------|
G|-8------|--------|-------------|--------13--|-13---11---10--------|--------|--------|
D|--------|-11-----|-13----15----|-13---------|----------------13---|--------|--------|
A|--------|--------|-------------|------------|---------------------|--------|--------|
E|--------|--------|-------------|------------|---------------------|--------|--------|


E|--------|--------|--------|--------|--------16--|-16---14---13--------|--------|
B|--------|--------|--------|--------|------------|----------------16---|-11-----|
G|--------|--------|--------|--------|------------|---------------------|--------|
D|--------|--------|-6------|-6------|------------|---------------------|--------|
A|--------|--------|--------|--------|-6----------|---------------------|--------|
E|--------|--------|--------|--------|------------|---------------------|--------|


E|-------------|------------------|--------|--------|--------|--------16--|-16---14---13--------|
B|-------------|------------------|--------|--------|--------|------------|----------------16---|
G|-------------|------------------|--------|--------|--------|------------|---------------------|
D|-6-----8-----|-6-----6-----1----|-1------|-6------|-6------|------------|---------------------|
A|-------------|------------------|--------|--------|--------|-6----------|---------------------|
E|-------------|------------------|--------|--------|--------|------------|---------------------|


E|--------|-------------|------------------|--------|--------|--------|--------|--------|
B|-11-----|-------------|------------------|--------|--------|--------|--------|--------|
G|--------|-------------|------------------|--------|--------|--------|--------|--------|
D|--------|-6-----8-----|-6-----6-----1----|-1------|--------|--------|--------|--------|
A|--------|-------------|------------------|--------|--------|--------|--------|--------|
E|--------|-------------|------------------|--------|--------|--------|--------|--------|


E|--------|--------|--------|--------|--------|--------|--------|--------|--------|
B|--------|--------|--------|--------|--------|--------|--------|--------|--------|
G|--------|--------|--------|--------|--------|--------|--------|--------|--------|
D|--------|--------|--------|--------|--------|--------|--------|--------|--------|
A|--------|--------|--------|--------|--------|--------|--------|--------|--------|
E|--------|--------|--------|--------|--------|--------|--------|--------|--------|


E|--------|--------|--------|--------|--------|--------|--------|------------|---------------------|
B|--------|--------|--------|--------|--------|--------|--------|------------|---------------------|
G|--------|--------|--------|--------|--------|--------|--------|--------13--|-13---11---10--------|
D|--------|--------|--------|--------|--------|-6------|-6------|------------|----------------13---|
A|--------|--------|--------|--------|--------|--------|--------|-6----------|---------------------|
E|--------|--------|--------|--------|--------|--------|--------|------------|---------------------|


E|-----------------|---------------------------|------------------|--------|--------|
B|-----------------|---------------------------|------------------|--------|--------|
G|-----------------|---------------------------|------------------|--------|--------|
D|-8-----11----13--|-13---11---13--11--10--8---|-6-----6-----1----|-1------|-6------|
A|-----------------|---------------------------|------------------|--------|--------|
E|-----------------|---------------------------|------------------|--------|--------|


E|--------|------------|---------------------|-----------------|---------------------------|
B|--------|------------|---------------------|-----------------|---------------------------|
G|--------|--------13--|-13---11---10--------|-----------------|---------------------------|
D|-6------|------------|----------------13---|-8-----11----13--|-13---11---13--11--10--8---|
A|--------|-6----------|---------------------|-----------------|---------------------------|
E|--------|------------|---------------------|-----------------|---------------------------|


E|------------------|--------|--------|--------|------------|---------------------|
B|------------------|--------|--------|--------|------------|---------------------|
G|------------------|--------|--------|--------|--------13--|-13---11---10--------|
D|-6-----6-----1----|-1------|-6------|-6------|------------|----------------13---|
A|------------------|--------|--------|--------|-6----------|---------------------|
E|------------------|--------|--------|--------|------------|---------------------|


E|-----------------|---------------------------|------------------|--------|--------|
B|-----------------|---------------------------|------------------|--------|--------|
G|-----------------|---------------------------|------------------|--------|--------|
D|-8-----11----13--|-13---11---13--11--10--8---|-6-----6-----1----|-1------|-6------|
A|-----------------|---------------------------|------------------|--------|--------|
E|-----------------|---------------------------|------------------|--------|--------|


E|--------|------------|---------------------|-----------------|---------------------------|
B|--------|------------|---------------------|-----------------|---------------------------|
G|--------|--------13--|-13---11---10--------|-----------------|---------------------------|
D|-6------|------------|----------------13---|-8-----11----13--|-13---11---13--11--10--8---|
A|--------|-6----------|---------------------|-----------------|---------------------------|
E|--------|------------|---------------------|-----------------|---------------------------|


E|------------------|--------|--------|--------|
B|------------------|--------|--------|--------|
G|------------------|--------|--------|--------|
D|-6-----6-----1----|-1------|--------|--------|
A|------------------|--------|--------|--------|
E|------------------|--------|--------|--------|





Track 3: 2nd Guitar

E|--------|--------|--------|--------|--------|--------|--------|--------|--------|
B|--------|--------|--------|--------|--------|--------|--------|--------|--------|
G|--------|--------|--------|--------|--------|--------|--------|--------|--------|
D|--------|--------|--------|--------|--------|--------|--------|--------|--------|
A|--------|--------|--------|--------|--------|--------|--------|--------|--------|
E|--------|--------|--------|--------|--------|--------|--------|--------|--------|


E|--------|--------|--------|--------|--------|--------|--------|--------|--------|
B|--------|--------|--------|--------|--------|--------|--------|--------|--------|
G|--------|--------|--------|--------|--------|--------|--------|--------|--------|
D|--------|--------|--------|--------|--------|--------|--------|--------|--------|
A|--------|--------|--------|--------|--------|--------|--------|--------|--------|
E|--------|--------|--------|--------|--------|--------|--------|--------|--------|


E|--------|--------|--------|--------|--------|--------|--------|--------|--------|
B|--------|--------|--------|--------|--------|--------|--------|--------|--------|
G|--------|--------|--------|--------|--------|--------|--------|--------|--------|
D|--------|--------|--------|--------|--------|--------|--------|--------|--------|
A|--------|--------|--------|--------|--------|--------|--------|--------|--------|
E|--------|--------|--------|--------|--------|--------|--------|--------|--------|


E|--------|--------|--------|--------|--------|--------|--------|--------|--------|
B|--------|--------|--------|--------|--------|--------|--------|--------|--------|
G|--------|--------|--------|--------|--------|--------|--------|--------|--------|
D|--------|--------|--------|--------|--------|--------|--------|--------|--------|
A|--------|--------|--------|--------|--------|--------|--------|--------|--------|
E|--------|--------|--------|--------|--------|--------|--------|--------|--------|


E|--------|--------|--------|--------|--------|--------|--------|--------|--------|
B|--------|--------|--------|--------|--------|--------|--------|--------|--------|
G|--------|--------|--------|--------|--------|--------|--------|--------|-2------|
D|--------|--------|--------|--------|--------|--------|--------|--------|-2------|
A|--------|--------|--------|--------|--------|--------|--------|--------|-0------|
E|--------|--------|--------|--------|--------|--------|--------|--------|--------|


E|--------|--------|--------|--------|--------|------------------|--------|--------|
B|--------|--------|--------|--------|--------|------------------|--------|--------|
G|-2------|--------|--------|-2------|-2------|------------------|--------|-2------|
D|-2------|-5------|-5------|-2------|-2------|-3-----3-----0----|-0------|-2------|
A|-0------|-5------|-5------|-0------|-0------|-3-----3-----2----|-2------|-0------|
E|--------|-3------|-3------|--------|--------|-1-----1-----3----|-3------|--------|


E|--------|--------|--------|-----------------|-----------------|------------------|
B|--------|--------|--------|-----------------|-----------------|------------------|
G|-2------|--------|--------|-2---------------|-----------------|------------------|
D|-2------|-5------|-5------|-2-----10----12--|-12---12---14----|-10----10---------|
A|-0------|-5------|-5------|-0---------------|-----------------|-------------10---|
E|--------|-3------|-3------|-----------------|-----------------|------------------|


E|--------|--------|--------|--------|--------|-----------------|-----------------|
B|--------|--------|--------|--------|--------|-----------------|-----------------|
G|--------|-2------|-2------|-0------|-0------|-2---------------|-----------------|
D|--------|-2------|-2------|-0------|-0------|-2-----10----12--|-12---12---14----|
A|-10-----|-0------|-0------|-2------|-2------|-0---------------|-----------------|
E|--------|--------|--------|-3------|-3------|-----------------|-----------------|


E|------------------|--------|--------|--------|--------|--------|--------|--------|
B|------------------|--------|--------|--------|--------|--------|--------|--------|
G|------------------|--------|--------|--------|--------|--------|--------|--------|
D|-10----10---------|--------|--------|--------|--------|--------|--------|--------|
A|-------------10---|-10-----|--------|--------|--------|--------|--------|--------|
E|------------------|--------|--------|--------|--------|--------|--------|--------|


E|--------|--------|--------|--------|--------|--------|--------|--------|--------|
B|--------|--------|--------|--------|--------|--------|--------|--------|--------|
G|--------|--------|--------|--------|--------|--------|--------|--------|--------|
D|--------|--------|--------|--------|--------|--------|--------|--------|--------|
A|--------|--------|--------|--------|--------|--------|--------|--------|--------|
E|--------|--------|--------|--------|--------|--------|--------|--------|--------|


E|--------|--------|--------|--------|--------|--------|--------|--------|--------|
B|--------|--------|--------|--------|--------|--------|--------|--------|--------|
G|--------|--------|--------|--------|--------|--------|--------|--------|--------|
D|--------|--------|--------|--------|--------|--------|--------|--------|--------|
A|--------|--------|--------|--------|--------|--------|--------|--------|--------|
E|--------|--------|--------|--------|--------|--------|--------|--------|--------|


E|--------|--------|--------|--------|--------|--------|--------|--------|--------|
B|--------|--------|--------|--------|--------|--------|--------|--------|--------|
G|--------|--------|--------|--------|--------|--------|--------|--------|--------|
D|--------|--------|--------|--------|--------|--------|--------|--------|--------|
A|--------|--------|--------|--------|--------|--------|--------|--------|--------|
E|--------|--------|--------|--------|--------|--------|--------|--------|--------|


E|--------|--------|--------|--------|--------|--------|--------|--------|--------|
B|--------|--------|--------|--------|--------|--------|--------|--------|--------|
G|--------|-0------|-0------|--------|--------|--------|--------|--------|--------|
D|--------|-2------|-2------|-0------|-0------|--------|--------|--------|--------|
A|--------|-3------|-3------|-2------|-2------|--------|--------|--------|--------|
E|--------|--------|--------|-3------|-3------|--------|--------|--------|--------|


E|--------|--------|--------|--------|--------|--------|--------|--------|--------|
B|--------|--------|--------|--------|--------|--------|--------|--------|--------|
G|--------|--------|--------|--------|--------|--------|--------|--------|--------|
D|--------|--------|--------|--------|--------|--------|--------|--------|--------|
A|--------|--------|--------|--------|--------|--------|--------|--------|--------|
E|--------|--------|--------|--------|--------|--------|--------|--------|--------|


E|--------|--------|--------|--------|--------|--------|--------|--------|--------|
B|--------|--------|--------|--------|--------|--------|--------|--------|--------|
G|--------|--------|--------|--------|--------|--------|--------|--------|--------|
D|--------|--------|--------|--------|--------|--------|--------|--------|--------|
A|--------|--------|--------|--------|--------|--------|--------|--------|--------|
E|--------|--------|--------|--------|--------|--------|--------|--------|--------|


E|--------|--------|--------|--------|--------|--------|-0------|-0------|
B|--------|--------|--------|--------|--------|--------|-1------|-1------|
G|--------|--------|--------|--------|--------|--------|-2------|-2------|
D|--------|--------|--------|--------|--------|--------|-2------|-2------|
A|--------|--------|--------|--------|--------|--------|-0------|-0------|
E|--------|--------|--------|--------|--------|--------|--------|--------|





Track 4: 2nd Violin arranged for guitar

E|--------|--------|--------|--------|--------|--------|--------|--------|--------|
B|--------|--------|--------|--------|--------|--------|--------|--------|--------|
G|--------|--------|--------|--------|--------|--------|--------|--------|--------|
D|--------|--------|--------|--------|--------|--------|--------|--------|--------|
A|--------|--------|--------|--------|--------|--------|--------|--------|--------|
E|--------|--------|--------|--------|--------|--------|--------|--------|--------|


E|--------|--------|--------|--------|--------|--------|--------|--------|--------|
B|--------|--------|--------|--------|--------|--------|--------|--------|--------|
G|--------|--------|--------|--------|--------|--------|--------|--------|--------|
D|--------|--------|--------|--------|--------|--------|--------|--------|--------|
A|--------|--------|--------|--------|--------|--------|--------|--------|--------|
E|--------|--------|--------|--------|--------|--------|--------|--------|--------|


E|--------|--------|--------|--------|--------|--------|--------|--------|--------|
B|--------|--------|--------|--------|--------|--------|--------|--------|--------|
G|--------|--------|--------|--------|--------|--------|--------|--------|--------|
D|--------|--------|--------|--------|--------|--------|--------|--------|--------|
A|--------|--------|--------|--------|--------|--------|--------|--------|--------|
E|--------|--------|--------|--------|--------|--------|--------|--------|--------|


E|--------|--------|--------|--------|--------|--------|--------|--------|--------|
B|--------|--------|--------|--------|--------|--------|--------|--------|--------|
G|--------|--------|--------|--------|--------|--------|--------|--------|--------|
D|--------|--------|--------|--------|--------|--------|--------|--------|--------|
A|--------|--------|--------|--------|--------|--------|--------|--------|--------|
E|--------|--------|--------|--------|--------|--------|--------|--------|--------|


E|--------|--------|--------|--------|--------|--------|--------|--------|--------|
B|--------|--------|--------|--------|--------|--------|--------|--------|--------|
G|--------|--------|--------|--------|--------|--------|--------|--------|--------|
D|--------|--------|--------|--------|--------|--------|--------|--------|--------|
A|--------|--------|--------|--------|--------|--------|--------|--------|--------|
E|--------|--------|--------|--------|--------|--------|--------|--------|--------|


E|--------|--------|--------|--------|--------|--------|--------|--------|--------|
B|--------|--------|--------|--------|--------|--------|--------|--------|--------|
G|--------|--------|--------|--------|--------|--------|--------|--------|--------|
D|--------|--------|--------|--------|--------|--------|--------|--------|--------|
A|--------|--------|--------|--------|--------|--------|--------|--------|--------|
E|--------|--------|--------|--------|--------|--------|--------|--------|--------|


E|--------|--------|--------|--------|--------|--------|--------|--------|--------|
B|--------|--------|--------|--------|--------|--------|--------|--------|--------|
G|--------|--------|--------|--------|--------|--------|--------|--------|--------|
D|--------|--------|--------|--------|--------|--------|--------|--------|--------|
A|--------|--------|--------|--------|--------|--------|--------|--------|--------|
E|--------|--------|--------|--------|--------|--------|--------|--------|--------|


E|--------|-------9-----8---|-8----8----6---------|------------------|--------|--------|
B|--------|-----------------|----------------9----|-7-----7----------|--------|--------|
G|--------|-----------------|---------------------|-------------8----|-8------|--------|
D|--------|-8---------------|---------------------|------------------|--------|--------|
A|--------|-----------------|---------------------|------------------|--------|--------|
E|--------|-----------------|---------------------|------------------|--------|--------|


E|--------|--------|--------|--------|--------|--------|--------|--------|--------|
B|--------|--------|--------|--------|--------|--------|--------|--------|--------|
G|--------|--------|--------|--------|--------|--------|--------|--------|--------|
D|--------|--------|--------|--------|--------|--------|--------|--------|--------|
A|--------|--------|--------|--------|--------|--------|--------|--------|--------|
E|--------|--------|--------|--------|--------|--------|--------|--------|--------|


E|--------|--------|--------|--------|--------|--------|--------|--------|--------|
B|--------|--------|--------|--------|--------|--------|--------|--------|--------|
G|--------|--------|--------|--------|--------|--------|--------|--------|--------|
D|--------|--------|--------|--------|--------|--------|--------|--------|--------|
A|--------|--------|--------|--------|--------|--------|--------|--------|--------|
E|--------|--------|--------|--------|--------|--------|--------|--------|--------|


E|--------|--------|--------|--------|--------|--------|--------|--------|--------|
B|--------|--------|--------|--------|--------|--------|--------|--------|--------|
G|--------|--------|--------|--------|--------|--------|--------|--------|--------|
D|--------|--------|--------|--------|--------|--------|--------|--------|--------|
A|--------|--------|--------|--------|--------|--------|--------|--------|--------|
E|--------|--------|--------|--------|--------|--------|--------|--------|--------|


E|--------|--------|--------|--------|--------|--------|--------|--------|--------|
B|--------|--------|--------|--------|--------|--------|--------|--------|--------|
G|--------|--------|--------|--------|--------|--------|--------|--------|--------|
D|--------|--------|--------|--------|--------|--------|--------|--------|--------|
A|--------|--------|--------|--------|--------|--------|--------|--------|--------|
E|--------|--------|--------|--------|--------|--------|--------|--------|--------|


E|--------|--------|--------|--------|--------|--------|--------|--------|--------|
B|--------|--------|--------|--------|--------|--------|--------|--------|--------|
G|--------|--------|--------|--------|--------|--------|--------|--------|--------|
D|--------|--------|--------|--------|--------|--------|--------|--------|--------|
A|--------|--------|--------|--------|--------|--------|--------|--------|--------|
E|--------|--------|--------|--------|--------|--------|--------|--------|--------|


E|--------|--------|--------|--------|--------|--------|--------|--------|--------|
B|--------|--------|--------|--------|--------|--------|--------|--------|--------|
G|--------|--------|--------|--------|--------|--------|--------|--------|--------|
D|--------|--------|--------|--------|--------|--------|--------|--------|--------|
A|--------|--------|--------|--------|--------|--------|--------|--------|--------|
E|--------|--------|--------|--------|--------|--------|--------|--------|--------|


E|--------|--------|--------|--------|--------|--------|--------|--------|--------|
B|--------|--------|--------|--------|--------|--------|--------|--------|--------|
G|--------|--------|--------|--------|--------|--------|--------|--------|--------|
D|--------|--------|--------|--------|--------|--------|--------|--------|--------|
A|--------|--------|--------|--------|--------|--------|--------|--------|--------|
E|--------|--------|--------|--------|--------|--------|--------|--------|--------|


E|--------|--------|--------|--------|
B|--------|--------|--------|--------|
G|--------|--------|--------|--------|
D|--------|--------|--------|--------|
A|--------|--------|--------|--------|
E|--------|--------|--------|--------|





Track 5: Lead Guitar

E|--------|--------|--------|--------|--------|--------|--------|--------|--------|
B|--------|--------|--------|--------|--------|--------|--------|--------|--------|
G|--------|--------|--------|--------|--------|--------|--------|--------|--------|
D|--------|--------|--------|--------|--------|--------|--------|--------|--------|
A|--------|--------|--------|--------|--------|--------|--------|--------|--------|
E|--------|--------|--------|--------|--------|--------|--------|--------|--------|


E|--------|--------|--------|--------|--------|--------|--------|--------|--------|
B|--------|--------|--------|--------|--------|--------|--------|--------|--------|
G|--------|--------|--------|--------|--------|--------|--------|--------|--------|
D|--------|--------|--------|--------|--------|--------|--------|--------|--------|
A|--------|--------|--------|--------|--------|--------|--------|--------|--------|
E|--------|--------|--------|--------|--------|--------|--------|--------|--------|


E|--------|--------|--------|--------|--------|--------|--------|--------|--------|
B|--------|--------|--------|--------|--------|--------|--------|--------|--------|
G|--------|--------|--------|--------|--------|--------|--------|--------|--------|
D|--------|--------|--------|--------|--------|--------|--------|--------|--------|
A|--------|--------|--------|--------|--------|--------|--------|--------|--------|
E|--------|--------|--------|--------|--------|--------|--------|--------|--------|


E|--------|--------|--------|--------|--------|--------|--------|--------|--------|
B|--------|--------|--------|--------|--------|--------|--------|--------|--------|
G|--------|--------|--------|--------|--------|--------|--------|--------|--------|
D|--------|--------|--------|--------|--------|--------|--------|--------|--------|
A|--------|--------|--------|--------|--------|--------|--------|--------|--------|
E|--------|--------|--------|--------|--------|--------|--------|--------|--------|


E|--------|--------|--------|--------|--------|--------|--------|--------|--------|
B|--------|--------|--------|--------|--------|--------|--------|--------|--------|
G|--------|--------|--------|--------|--------|--------|--------|--------|--------|
D|--------|--------|--------|--------|--------|--------|--------|--------|--------|
A|--------|--------|--------|--------|--------|--------|--------|--------|--------|
E|--------|--------|--------|--------|--------|--------|--------|--------|--------|


E|--------|--------|--------|--------|--------|--------|--------|--------|--------|
B|--------|--------|--------|--------|--------|--------|--------|--------|--------|
G|--------|--------|--------|--------|--------|--------|--------|--------|--------|
D|--------|--------|--------|--------|--------|--------|--------|--------|--------|
A|--------|--------|--------|--------|--------|--------|--------|--------|--------|
E|--------|--------|--------|--------|--------|--------|--------|--------|--------|


E|--------|--------|--------|--------|--------|--------|--------|--------|--------|
B|--------|--------|--------|--------|--------|--------|--------|--------|--------|
G|--------|--------|--------|--------|--------|--------|--------|--------|--------|
D|--------|--------|--------|--------|--------|--------|--------|--------|--------|
A|--------|--------|--------|--------|--------|--------|--------|--------|--------|
E|--------|--------|--------|--------|--------|--------|--------|--------|--------|


E|--------|--------|--------|--------|--------|--------|--------|--------|--------|
B|--------|--------|--------|--------|--------|--------|--------|--------|--------|
G|--------|--------|--------|--------|--------|--------|--------|--------|--------|
D|--------|--------|--------|--------|--------|--------|--------|--------|--------|
A|--------|--------|--------|--------|--------|--------|--------|--------|--------|
E|--------|--------|--------|--------|--------|--------|--------|--------|--------|


E|--------|--------|--------|--------|--------|--------|--------|--------|--------|
B|--------|--------|--------|--------|--------|--------|--------|--------|--------|
G|--------|--------|--------|--------|--------|--------|--------|--------|--------|
D|--------|--------|--------|--------|--------|--------|--------|--------|--------|
A|--------|--------|--------|--------|--------|--------|--------|--------|--------|
E|--------|--------|--------|--------|--------|--------|--------|--------|--------|


E|--------|--------|--------|--------|--------|--------|--------|--------|--------|
B|--------|--------|--------|--------|--------|--------|--------|--------|--------|
G|--------|--------|--------|--------|--------|--------|--------|--------|--------|
D|--------|--------|--------|--------|--------|--------|--------|--------|--------|
A|--------|--------|--------|--------|--------|--------|--------|--------|--------|
E|--------|--------|--------|--------|--------|--------|--------|--------|--------|


E|--------|--------|--------|--------|--------|--------|--------|--------|--------|
B|--------|--------|--------|--------|--------|--------|--------|--------|--------|
G|--------|--------|--------|--------|--------|--------|--------|--------|--------|
D|--------|--------|--------|--------|--------|--------|--------|--------|--------|
A|--------|--------|--------|--------|--------|--------|--------|--------|--------|
E|--------|--------|--------|--------|--------|--------|--------|--------|--------|


E|--------|--------|--------|--------|--------|--------|--------|--------|--------|
B|--------|--------|--------|--------|--------|--------|--------|--------|--------|
G|--------|--------|--------|--------|--------|--------|--------|-2------|-2------|
D|--------|--------|--------|--------|--------|--------|--------|-2------|-2------|
A|--------|--------|--------|--------|--------|--------|--------|-0------|-0------|
E|--------|--------|--------|--------|--------|--------|--------|--------|--------|


E|------------------|--------|--------|--------|--------|--------|--------|--------|
B|------------------|--------|--------|--------|--------|--------|--------|--------|
G|------------------|--------|-0------|-0------|--------|--------|--------|--------|
D|-3-----3-----0----|-0------|-2------|-2------|-0------|-0------|--------|--------|
A|-3-----3-----2----|-2------|-3------|-3------|-2------|-2------|--------|--------|
E|-1-----1-----3----|-3------|--------|--------|-3------|-3------|--------|--------|


E|--------|--------|--------|--------|--------|--------|--------|--------|--------|
B|--------|--------|--------|--------|--------|--------|--------|--------|--------|
G|--------|--------|--------|--------|--------|--------|--------|--------|--------|
D|--------|--------|--------|--------|--------|--------|--------|--------|--------|
A|--------|--------|--------|--------|--------|--------|--------|--------|--------|
E|--------|--------|--------|--------|--------|--------|--------|--------|--------|


E|--------|--------|--------|--------|--------|--------|--------|--------|--------|
B|--------|--------|--------|--------|--------|--------|--------|--------|--------|
G|--------|--------|--------|--------|--------|--------|--------|--------|--------|
D|--------|--------|--------|--------|--------|--------|--------|--------|--------|
A|--------|--------|--------|--------|--------|--------|--------|--------|--------|
E|--------|--------|--------|--------|--------|--------|--------|--------|--------|


E|--------|--------|
B|--------|--------|
G|--------|--------|
D|--------|--------|
A|--------|--------|
E|--------|--------|





Track 6: Lead Guitar

E|--------|--------|--------|--------|--------|--------|--------|--------|--------|
B|--------|--------|--------|--------|--------|--------|--------|--------|--------|
G|--------|--------|--------|--------|--------|--------|--------|--------|--------|
D|--------|--------|--------|--------|--------|--------|--------|--------|--------|
A|--------|--------|--------|--------|--------|--------|--------|--------|--------|
E|--------|--------|--------|--------|--------|--------|--------|--------|--------|


E|--------|--------|--------|--------|--------|--------|--------|--------|--------|
B|--------|--------|--------|--------|--------|--------|--------|--------|--------|
G|--------|--------|--------|--------|--------|--------|--------|--------|--------|
D|--------|--------|--------|--------|--------|--------|--------|--------|--------|
A|--------|--------|--------|--------|--------|--------|--------|--------|--------|
E|--------|--------|--------|--------|--------|--------|--------|--------|--------|


E|--------|--------|--------|--------|--------|--------|--------|--------|--------|
B|--------|--------|--------|--------|--------|--------|--------|--------|--------|
G|--------|--------|--------|--------|--------|--------|--------|--------|--------|
D|--------|--------|--------|--------|--------|--------|--------|--------|--------|
A|--------|--------|--------|--------|--------|--------|--------|--------|--------|
E|--------|--------|--------|--------|--------|--------|--------|--------|--------|


E|--------|--------|--------|--------|--------|--------|--------|--------|--------|
B|--------|--------|--------|--------|--------|--------|--------|--------|--------|
G|--------|--------|--------|--------|--------|--------|--------|--------|--------|
D|--------|--------|--------|--------|--------|--------|--------|--------|--------|
A|--------|--------|--------|--------|--------|--------|--------|--------|--------|
E|--------|--------|--------|--------|--------|--------|--------|--------|--------|


E|--------|--------|--------|--------|--------|--------|--------|--------|--------|
B|--------|--------|--------|--------|--------|--------|--------|--------|--------|
G|--------|--------|--------|--------|--------|--------|--------|--------|--------|
D|--------|--------|--------|--------|--------|--------|--------|--------|--------|
A|--------|--------|--------|--------|--------|--------|--------|--------|--------|
E|--------|--------|--------|--------|--------|--------|--------|--------|--------|


E|--------|--------|--------|--------|--------|--------|--------|--------|--------|
B|--------|--------|--------|--------|--------|--------|--------|--------|--------|
G|--------|--------|--------|--------|--------|--------|--------|--------|--------|
D|--------|--------|--------|--------|--------|--------|--------|--------|--------|
A|--------|--------|--------|--------|--------|--------|--------|--------|--------|
E|--------|--------|--------|--------|--------|--------|--------|--------|--------|


E|--------|--------|--------|--------|--------|--------|--------|--------|--------|
B|--------|--------|--------|--------|--------|--------|--------|--------|--------|
G|--------|--------|--------|--------|--------|--------|--------|--------|--------|
D|--------|--------|--------|--------|--------|--------|--------|--------|--------|
A|--------|--------|--------|--------|--------|--------|--------|--------|--------|
E|--------|--------|--------|--------|--------|--------|--------|--------|--------|


E|--------|--------|--------|--------|--------|--------|--------|--------|--------|
B|--------|--------|--------|--------|--------|--------|--------|--------|--------|
G|--------|--------|--------|--------|--------|--------|--------|--------|--------|
D|--------|--------|--------|--------|--------|--------|--------|--------|--------|
A|--------|--------|--------|--------|--------|--------|--------|--------|--------|
E|--------|--------|--------|--------|--------|--------|--------|--------|--------|


E|--------|--------|--------|--------|--------|--------|--------|--------|--------|
B|--------|--------|--------|--------|--------|--------|--------|--------|--------|
G|--------|--------|--------|--------|--------|--------|--------|--------|--------|
D|--------|--------|--------|--------|--------|--------|--------|--------|--------|
A|--------|--------|--------|--------|--------|--------|--------|--------|--------|
E|--------|--------|--------|--------|--------|--------|--------|--------|--------|


E|--------|--------|--------|--------|--------|--------|--------|--------|--------|
B|--------|--------|--------|--------|--------|--------|--------|--------|--------|
G|--------|--------|--------|--------|--------|--------|--------|--------|--------|
D|--------|--------|--------|--------|--------|--------|--------|--------|--------|
A|--------|--------|--------|--------|--------|--------|--------|--------|--------|
E|--------|--------|--------|--------|--------|--------|--------|--------|--------|


E|--------|--------|--------|--------|--------|--------|--------|--------|--------|
B|--------|--------|--------|--------|--------|--------|--------|--------|--------|
G|--------|--------|--------|--------|--------|--------|--------|--------|--------|
D|--------|--------|--------|--------|--------|--------|--------|--------|--------|
A|--------|--------|--------|--------|--------|--------|--------|--------|--------|
E|--------|--------|--------|--------|--------|--------|--------|--------|--------|


E|--------|--------|--------|--------|--------|--------|--------|--------|--------|
B|--------|--------|--------|--------|--------|--------|--------|--------|--------|
G|--------|--------|--------|--------|--------|--------|--------|--------|--------|
D|--------|--------|--------|--------|--------|--------|--------|--------|--------|
A|--------|--------|--------|--------|--------|--------|--------|--------|--------|
E|--------|--------|--------|--------|--------|--------|--------|--------|--------|


E|--------|--------|--------|--------|--------|--------|--------|--------|------------------|
B|--------|--------|--------|--------|--------|--------|--------|--------|------------------|
G|--------|--------|--------|--------|--------|--------|-2------|-2------|------------------|
D|--------|--------|--------|--------|--------|--------|-2------|-2------|-3-----3-----0----|
A|--------|--------|--------|--------|--------|--------|-0------|-0------|-3-----3-----2----|
E|--------|--------|--------|--------|--------|--------|--------|--------|-1-----1-----3----|


E|--------|--------|--------|--------|--------|--------|--------|--------|--------|
B|--------|--------|--------|--------|--------|--------|--------|--------|--------|
G|--------|-0------|-0------|--------|--------|--------|--------|--------|--------|
D|-0------|-2------|-2------|-0------|-0------|--------|--------|--------|--------|
A|-2------|-3------|-3------|-2------|-2------|--------|--------|--------|--------|
E|-3------|--------|--------|-3------|-3------|--------|--------|--------|--------|


E|--------|--------|--------|--------|--------|--------|--------|--------|--------|
B|--------|--------|--------|--------|--------|--------|--------|--------|--------|
G|--------|--------|--------|--------|--------|--------|--------|--------|--------|
D|--------|--------|--------|--------|--------|--------|--------|--------|--------|
A|--------|--------|--------|--------|--------|--------|--------|--------|--------|
E|--------|--------|--------|--------|--------|--------|--------|--------|--------|


E|--------|
B|--------|
G|--------|
D|--------|
A|--------|
E|--------|





Track 7: Lead Guitar

E|--------|--------|--------|--------|--------|--------|--------|--------|--------|
B|--------|--------|--------|--------|--------|--------|--------|--------|--------|
G|--------|--------|--------|--------|--------|--------|--------|--------|--------|
D|--------|--------|--------|--------|--------|--------|--------|--------|--------|
A|--------|--------|--------|--------|--------|--------|--------|--------|--------|
E|--------|--------|--------|--------|--------|--------|--------|--------|--------|


E|--------|--------|--------|--------|--------|--------|--------|--------|--------|
B|--------|--------|--------|--------|--------|--------|--------|--------|--------|
G|--------|--------|--------|--------|--------|--------|--------|--------|--------|
D|--------|--------|--------|--------|--------|--------|--------|--------|--------|
A|--------|--------|--------|--------|--------|--------|--------|--------|--------|
E|--------|--------|--------|--------|--------|--------|--------|--------|--------|


E|--------|--------|--------|--------|--------|--------|--------|--------|--------|
B|--------|--------|--------|--------|--------|--------|--------|--------|--------|
G|--------|--------|--------|--------|--------|--------|--------|--------|--------|
D|--------|--------|--------|--------|--------|--------|--------|--------|--------|
A|--------|--------|--------|--------|--------|--------|--------|--------|--------|
E|--------|--------|--------|--------|--------|--------|--------|--------|--------|


E|--------|--------|--------|--------|--------|--------|--------|--------|--------|
B|--------|--------|--------|--------|--------|--------|--------|--------|--------|
G|--------|--------|--------|--------|--------|--------|--------|--------|--------|
D|--------|--------|--------|--------|--------|--------|--------|--------|--------|
A|--------|--------|--------|--------|--------|--------|--------|--------|--------|
E|--------|--------|--------|--------|--------|--------|--------|--------|--------|


E|--------|--------|--------|--------|--------|--------|--------|--------|--------|
B|--------|--------|--------|--------|--------|--------|--------|--------|--------|
G|--------|--------|--------|--------|--------|--------|--------|--------|--------|
D|--------|--------|--------|--------|--------|--------|--------|--------|--------|
A|--------|--------|--------|--------|--------|--------|--------|--------|--------|
E|--------|--------|--------|--------|--------|--------|--------|--------|--------|


E|--------|--------|--------|--------|--------|--------|--------|--------|--------|
B|--------|--------|--------|--------|--------|--------|--------|--------|--------|
G|--------|--------|--------|--------|--------|--------|--------|--------|--------|
D|--------|--------|--------|--------|--------|--------|--------|--------|--------|
A|--------|--------|--------|--------|--------|--------|--------|--------|--------|
E|--------|--------|--------|--------|--------|--------|--------|--------|--------|


E|--------|--------|--------|--------|--------|--------|--------|--------|--------|
B|--------|--------|--------|--------|--------|--------|--------|--------|--------|
G|--------|--------|--------|--------|--------|--------|--------|--------|--------|
D|--------|--------|--------|--------|--------|--------|--------|--------|--------|
A|--------|--------|--------|--------|--------|--------|--------|--------|--------|
E|--------|--------|--------|--------|--------|--------|--------|--------|--------|


E|--------|--------|--------|--------|--------|--------|--------|--------|--------|
B|--------|--------|--------|--------|--------|--------|--------|--------|--------|
G|--------|--------|--------|--------|--------|--------|--------|--------|--------|
D|--------|--------|--------|--------|--------|--------|--------|--------|--------|
A|--------|--------|--------|--------|--------|--------|--------|--------|--------|
E|--------|--------|--------|--------|--------|--------|--------|--------|--------|


E|--------|--------|--------|--------|--------|--------|--------|--------|--------|
B|--------|--------|--------|--------|--------|--------|--------|--------|--------|
G|--------|--------|--------|--------|--------|--------|--------|--------|--------|
D|--------|--------|--------|--------|--------|--------|--------|--------|--------|
A|--------|--------|--------|--------|--------|--------|--------|--------|--------|
E|--------|--------|--------|--------|--------|--------|--------|--------|--------|


E|--------|--------|--------|--------|--------|--------|--------|--------|--------|
B|--------|--------|--------|--------|--------|--------|--------|--------|--------|
G|--------|--------|--------|--------|--------|--------|--------|--------|--------|
D|--------|--------|--------|--------|--------|--------|--------|--------|--------|
A|--------|--------|--------|--------|--------|--------|--------|--------|--------|
E|--------|--------|--------|--------|--------|--------|--------|--------|--------|


E|--------|--------|--------|--------|--------|--------|--------|--------|--------|
B|--------|--------|--------|--------|--------|--------|--------|--------|--------|
G|--------|--------|--------|--------|--------|--------|--------|--------|--------|
D|--------|--------|--------|--------|--------|--------|--------|--------|--------|
A|--------|--------|--------|--------|--------|--------|--------|--------|--------|
E|--------|--------|--------|--------|--------|--------|--------|--------|--------|


E|--------|--------|--------|--------|--------|--------|--------|--------|--------|
B|--------|--------|--------|--------|--------|--------|--------|--------|--------|
G|--------|--------|--------|--------|--------|--------|--------|--------|--------|
D|--------|--------|--------|--------|--------|--------|--------|--------|--------|
A|--------|--------|--------|--------|--------|--------|--------|--------|--------|
E|--------|--------|--------|--------|--------|--------|--------|--------|--------|


E|--------|--------|--------|--------|--------|--------|--------|--------|--------|
B|--------|--------|--------|--------|--------|--------|--------|--------|--------|
G|--------|--------|--------|--------|--------|--------|--------|--------|--------|
D|--------|--------|--------|--------|--------|--------|--------|--------|--------|
A|--------|--------|--------|--------|--------|--------|--------|--------|--------|
E|--------|--------|--------|--------|--------|--------|--------|--------|--------|


E|--------|--------|--------|--------|--------|--------|--------|------------------|
B|--------|--------|--------|--------|--------|--------|--------|------------------|
G|--------|--------|--------|--------|--------|-2------|-2------|------------------|
D|--------|--------|--------|--------|--------|-2------|-2------|-3-----3-----0----|
A|--------|--------|--------|--------|--------|-0------|-0------|-3-----3-----2----|
E|--------|--------|--------|--------|--------|--------|--------|-1-----1-----3----|


E|--------|--------|--------|--------|--------|--------|--------|--------|--------|
B|--------|--------|--------|--------|--------|--------|--------|--------|--------|
G|--------|-0------|-0------|--------|--------|--------|--------|--------|--------|
D|-0------|-2------|-2------|-0------|-0------|--------|--------|--------|--------|
A|-2------|-3------|-3------|-2------|-2------|--------|--------|--------|--------|
E|-3------|--------|--------|-3------|-3------|--------|--------|--------|--------|


E|--------|--------|
B|--------|--------|
G|--------|--------|
D|--------|--------|
A|--------|--------|
E|--------|--------|





Track 8: Lead Guitar

E|--------|--------|--------|--------|--------|--------|--------|--------|--------|
B|--------|--------|--------|--------|--------|--------|--------|--------|--------|
G|--------|--------|--------|--------|--------|--------|--------|--------|--------|
D|--------|--------|--------|--------|--------|--------|--------|--------|--------|
A|--------|--------|--------|--------|--------|--------|--------|--------|--------|
E|--------|--------|--------|--------|--------|--------|--------|--------|--------|


E|--------|--------|--------|--------|--------|--------|--------|--------|--------|
B|--------|--------|--------|--------|--------|--------|--------|--------|--------|
G|--------|--------|--------|--------|--------|--------|--------|--------|--------|
D|--------|--------|--------|--------|--------|--------|--------|--------|--------|
A|--------|--------|--------|--------|--------|--------|--------|--------|--------|
E|--------|--------|--------|--------|--------|--------|--------|--------|--------|


E|--------|--------|--------|--------|--------|--------|--------|--------|--------|
B|--------|--------|--------|--------|--------|--------|--------|--------|--------|
G|--------|--------|--------|--------|--------|--------|--------|--------|--------|
D|--------|--------|--------|--------|--------|--------|--------|--------|--------|
A|--------|--------|--------|--------|--------|--------|--------|--------|--------|
E|--------|--------|--------|--------|--------|--------|--------|--------|--------|


E|--------|--------|--------|--------|--------|--------|--------|--------|--------|
B|--------|--------|--------|--------|--------|--------|--------|--------|--------|
G|--------|--------|--------|--------|--------|--------|--------|--------|--------|
D|--------|--------|--------|--------|--------|--------|--------|--------|--------|
A|--------|--------|--------|--------|--------|--------|--------|--------|--------|
E|--------|--------|--------|--------|--------|--------|--------|--------|--------|


E|--------|--------|--------|--------|--------|--------|--------|--------|--------|
B|--------|--------|--------|--------|--------|--------|--------|--------|--------|
G|--------|--------|--------|--------|--------|--------|--------|--------|--------|
D|--------|--------|--------|--------|--------|--------|--------|--------|--------|
A|--------|--------|--------|--------|--------|--------|--------|--------|--------|
E|--------|--------|--------|--------|--------|--------|--------|--------|--------|


E|--------|--------|--------|--------|--------|--------|--------|--------|--------|
B|--------|--------|--------|--------|--------|--------|--------|--------|--------|
G|--------|--------|--------|--------|--------|--------|--------|--------|--------|
D|--------|--------|--------|--------|--------|--------|--------|--------|--------|
A|--------|--------|--------|--------|--------|--------|--------|--------|--------|
E|--------|--------|--------|--------|--------|--------|--------|--------|--------|


E|--------|--------|--------|--------|--------|--------|--------|--------|--------|
B|--------|--------|--------|--------|--------|--------|--------|--------|--------|
G|--------|--------|--------|--------|--------|--------|--------|--------|--------|
D|--------|--------|--------|--------|--------|--------|--------|--------|--------|
A|--------|--------|--------|--------|--------|--------|--------|--------|--------|
E|--------|--------|--------|--------|--------|--------|--------|--------|--------|


E|--------|--------|--------|--------|--------|--------|--------|--------|--------|
B|--------|--------|--------|--------|--------|--------|--------|--------|--------|
G|--------|--------|--------|--------|--------|--------|--------|--------|--------|
D|--------|--------|--------|--------|--------|--------|--------|--------|--------|
A|--------|--------|--------|--------|--------|--------|--------|--------|--------|
E|--------|--------|--------|--------|--------|--------|--------|--------|--------|


E|--------|--------|--------|--------|--------|--------|--------|--------|--------|
B|--------|--------|--------|--------|--------|--------|--------|--------|--------|
G|--------|--------|--------|--------|--------|--------|--------|--------|--------|
D|--------|--------|--------|--------|--------|--------|--------|--------|--------|
A|--------|--------|--------|--------|--------|--------|--------|--------|--------|
E|--------|--------|--------|--------|--------|--------|--------|--------|--------|


E|--------|--------|--------|--------|--------|--------|--------|--------|--------|
B|--------|--------|--------|--------|--------|--------|--------|--------|--------|
G|--------|--------|--------|--------|--------|--------|--------|--------|--------|
D|--------|--------|--------|--------|--------|--------|--------|--------|--------|
A|--------|--------|--------|--------|--------|--------|--------|--------|--------|
E|--------|--------|--------|--------|--------|--------|--------|--------|--------|


E|--------|--------|--------|--------|--------|--------|--------|--------|--------|
B|--------|--------|--------|--------|--------|--------|--------|--------|--------|
G|--------|--------|--------|--------|--------|--------|--------|--------|--------|
D|--------|--------|--------|--------|--------|--------|--------|--------|--------|
A|--------|--------|--------|--------|--------|--------|--------|--------|--------|
E|--------|--------|--------|--------|--------|--------|--------|--------|--------|


E|--------|--------|--------|--------|--------|--------|--------|--------|--------|
B|--------|--------|--------|--------|--------|--------|--------|--------|--------|
G|--------|--------|--------|--------|--------|--------|--------|--------|--------|
D|--------|--------|--------|--------|--------|--------|--------|--------|--------|
A|--------|--------|--------|--------|--------|--------|--------|--------|--------|
E|--------|--------|--------|--------|--------|--------|--------|--------|--------|


E|--------|--------|--------|--------|--------|--------|--------|--------|--------|
B|--------|--------|--------|--------|--------|--------|--------|--------|--------|
G|--------|--------|--------|--------|--------|--------|--------|--------|--------|
D|--------|--------|--------|--------|--------|--------|--------|--------|--------|
A|--------|--------|--------|--------|--------|--------|--------|--------|--------|
E|--------|--------|--------|--------|--------|--------|--------|--------|--------|


E|--------|--------|--------|--------|--------|--------|--------|--------|--------|
B|--------|--------|--------|--------|--------|--------|--------|--------|--------|
G|--------|--------|--------|--------|--------|--------|--------|--------|--------|
D|--------|--------|--------|--------|--------|--------|--------|--------|--------|
A|--------|--------|--------|--------|--------|--------|--------|--------|--------|
E|--------|--------|--------|--------|--------|--------|--------|--------|--------|


E|--------|--------|--------|--------|--------|--------|------------------|--------|
B|--------|--------|--------|--------|--------|--------|------------------|--------|
G|--------|--------|--------|--------|-2------|-2------|------------------|--------|
D|--------|--------|--------|--------|-2------|-2------|-3-----3-----0----|-0------|
A|--------|--------|--------|--------|-0------|-0------|-3-----3-----2----|-2------|
E|--------|--------|--------|--------|--------|--------|-1-----1-----3----|-3------|


E|--------|--------|
B|--------|--------|
G|--------|--------|
D|--------|--------|
A|--------|--------|
E|--------|--------|





Track 9: Untitled

G|--------|--------|--------|--------|--------|--------|--------|--------|--------|
D|--------|--------|--------|--------|--------|--------|--------|--------|--------|
A|--------|--------|--------|--------|--------|--------|--------|--------|--------|
E|--------|--------|--------|--------|--------|--------|--------|--------|--------|


G|--------|--------|--------|--------|--------|--------|--------|--------|--------|
D|--------|--------|--------|--------|--------|--------|--------|--------|--------|
A|--------|--------|--------|--------|--------|--------|--------|--------|--------|
E|--------|--------|--------|--------|--------|--------|--------|--------|--------|


G|--------|--------|--------|--------|--------|--------|--------|--------|--------|
D|--------|--------|--------|--------|--------|--------|--------|--------|--------|
A|--------|--------|--------|--------|--------|--------|--------|--------|--------|
E|--------|--------|--------|--------|--------|--------|--------|--------|--------|


G|--------|--------|--------|--------|--------|--------|--------|--------|--------|
D|--------|--------|--------|--------|--------|--------|--------|--------|--------|
A|--------|--------|--------|--------|--------|--------|--------|--------|--------|
E|--------|--------|--------|--------|--------|--------|--------|--------|--------|


G|--------|--------|--------|--------|--------|--------|--------|--------|--------|
D|--------|--------|--------|--------|--------|--------|--------|--------|--------|
A|--------|--------|--------|--------|--------|--------|--------|--------|--------|
E|--------|--------|--------|--------|--------|--------|--------|--------|--------|


G|--------|--------|--------|--------|--------|--------|--------|--------|--------|
D|--------|--------|--------|--------|--------|--------|--------|--------|--------|
A|--------|--------|--------|--------|--------|--------|--------|--------|--------|
E|--------|--------|--------|--------|--------|--------|--------|--------|--------|


G|--------|--------|--------|--------|--------|--------|--------|--------|--------|
D|--------|--------|--------|--------|--------|--------|--------|--------|--------|
A|--------|--------|--------|--------|--------|--------|--------|--------|--------|
E|--------|--------|--------|--------|--------|--------|--------|--------|--------|


G|--------|--------|--------|--------|--------|--------|--------|--------|--------|
D|--------|--------|--------|--------|--------|--------|--------|--------|--------|
A|--------|--------|--------|--------|--------|--------|--------|--------|--------|
E|--------|--------|--------|--------|--------|--------|--------|--------|--------|


G|--------|--------|--------|--------|--------|--------|--------|--------|--------|
D|--------|--------|--------|--------|--------|--------|--------|--------|--------|
A|--------|--------|--------|--------|--------|--------|--------|--------|--------|
E|--------|--------|--------|--------|--------|--------|--------|--------|--------|


G|--------|--------|--------|--------|--------|--------|--------|--------|--------|
D|--------|--------|--------|--------|--------|--------|--------|--------|--------|
A|--------|--------|--------|--------|--------|--------|--------|--------|--------|
E|--------|--------|--------|--------|--------|--------|--------|--------|--------|


G|--------|--------|--------|--------|--------|--------|--------|--------|--------|
D|--------|--------|--------|--------|--------|--------|--------|--------|--------|
A|--------|--------|--------|--------|--------|--------|--------|--------|--------|
E|--------|--------|--------|--------|--------|--------|--------|--------|--------|


G|--------|--------|--------|--------|--------|--------|--------|--------|--------|
D|--------|--------|--------|--------|--------|--------|--------|--------|--------|
A|--------|--------|--------|--------|--------|--------|--------|--------|--------|
E|--------|--------|--------|--------|--------|--------|--------|--------|--------|


G|--------|--------|--------|--------|--------|--------|--------|--------|--------|
D|--------|--------|--------|--------|--------|--------|--------|--------|--------|
A|--------|--------|--------|--------|--------|--------|--------|--------|--------|
E|--------|--------|--------|--------|--------|--------|--------|--------|--------|


G|--------|--------|--------|--------|--------|--------|--------|--------|--------|
D|--------|--------|--------|--------|--------|--------|--------|--------|--------|
A|--------|--------|--------|--------|--------|--------|--------|--------|--------|
E|--------|--------|--------|--------|--------|--------|--------|--------|--------|


G|--------|--------|--------|--------|--------|--------|--------|--------|--------|
D|--------|--------|--------|--------|--------|--------|--------|--------|--------|
A|--------|--------|--------|--------|--------|--------|--------|--------|--------|
E|--------|--------|--------|--------|--------|--------|--------|--------|--------|


G|--------|
D|--------|
A|--------|
E|--------|