Site menu:

    

Browse: 0-9 A B C D E F G H I J K L N O P Q R S T U V W X Y Z

3 doors down - duck run:



Title: Duck & Run
Artist: 
Album: The Better Life
Author: Roberts, Arnold, Harrell, Henderson


Track 1: Acoustic

E|---------------------------------------------|---------------------------------------------|
B|---------------------------------------------|---------------------------------------------|
G|-9---9--9--9--9--9--9---9--9--9--9--9--9--9--|-9---9--9--9--9--9--9---9--9--9--9--9--9--9--|
D|-9---9--9--9--9--9--9---9--9--9--9--9--9--9--|-9---9--9--9--9--9--9---9--9--9--9--9--9--9--|
A|-7---7--7--7--7--7--7---7--7--7--7--7--7--7--|-7---7--7--7--7--7--7---7--7--7--7--7--7--7--|
E|---------------------------------------------|---------------------------------------------|


E|---------------------------------------------|---------------------------------------------|
B|---------------------------------------------|---------------------------------------------|
G|-9---9--9--9--9--9--9---9--9--9--9--9--9--9--|-9---9--9--9--9--9--9---9--9--9--9--9--9--9--|
D|-9---9--9--9--9--9--9---9--9--9--9--9--9--9--|-9---9--9--9--9--9--9---9--9--9--9--9--9--9--|
A|-7---7--7--7--7--7--7---7--7--7--7--7--7--7--|-7---7--7--7--7--7--7---7--7--7--7--7--7--7--|
E|---------------------------------------------|---------------------------------------------|


E|---------------------------------------------|---------------------------------------------|
B|---------------------------------------------|---------------------------------------------|
G|-9---9--9--9--9--9--9---9--9--9--9--9--9--9--|-9---9--9--9--9--9--9---9--9--9--9--9--9--9--|
D|-9---9--9--9--9--9--9---9--9--9--9--9--9--9--|-9---9--9--9--9--9--9---9--9--9--9--9--9--9--|
A|-7---7--7--7--7--7--7---7--7--7--7--7--7--7--|-7---7--7--7--7--7--7---7--7--7--7--7--7--7--|
E|---------------------------------------------|---------------------------------------------|


E|---------------------------------------------|---------------------------------------------|
B|---------------------------------------------|---------------------------------------------|
G|-9---9--9--9--9--9--9---9--9--9--9--9--9--9--|-9---9--9--9--9--9--9---9--9--9--9--9--9--9--|
D|-9---9--9--9--9--9--9---9--9--9--9--9--9--9--|-9---9--9--9--9--9--9---9--9--9--9--9--9--9--|
A|-7---7--7--7--7--7--7---7--7--7--7--7--7--7--|-7---7--7--7--7--7--7---7--7--7--7--7--7--7--|
E|---------------------------------------------|---------------------------------------------|


E|--------|--------|--------|--------|--------|--------|--------|--------|--------|
B|--------|--------|--------|--------|--------|--------|--------|--------|--------|
G|--------|--------|--------|--------|--------|--------|--------|--------|--------|
D|--------|--------|--------|--------|--------|--------|--------|--------|--------|
A|--------|--------|--------|--------|--------|--------|--------|--------|--------|
E|--------|--------|--------|--------|--------|--------|--------|--------|--------|


E|--------|--------|--------|--------|--------|--------|--------|--------|--------|
B|--------|--------|--------|--------|--------|--------|--------|--------|--------|
G|--------|--------|--------|--------|--------|--------|--------|--------|--------|
D|--------|--------|--------|--------|--------|--------|--------|--------|--------|
A|--------|--------|--------|--------|--------|--------|--------|--------|--------|
E|--------|--------|--------|--------|--------|--------|--------|--------|--------|


E|--------|--------|--------|--------|--------|--------|--------|--------|--------|
B|--------|--------|--------|--------|--------|--------|--------|--------|--------|
G|--------|--------|--------|--------|--------|--------|--------|--------|--------|
D|--------|--------|--------|--------|--------|--------|--------|--------|--------|
A|--------|--------|--------|--------|--------|--------|--------|--------|--------|
E|--------|--------|--------|--------|--------|--------|--------|--------|--------|


E|--------|--------|--------|--------|--------|--------|--------|--------|--------|
B|--------|--------|--------|--------|--------|--------|--------|--------|--------|
G|--------|--------|--------|--------|--------|--------|--------|--------|--------|
D|--------|--------|--------|--------|--------|--------|--------|--------|--------|
A|--------|--------|--------|--------|--------|--------|--------|--------|--------|
E|--------|--------|--------|--------|--------|--------|--------|--------|--------|


E|--------|--------|--------|--------|--------|--------|--------|--------|--------|
B|--------|--------|--------|--------|--------|--------|--------|--------|--------|
G|--------|--------|--------|--------|--------|--------|--------|--------|--------|
D|--------|--------|--------|--------|--------|--------|--------|--------|--------|
A|--------|--------|--------|--------|--------|--------|--------|--------|--------|
E|--------|--------|--------|--------|--------|--------|--------|--------|--------|


E|--------|--------|--------|--------|--------|--------|--------|--------|--------|
B|--------|--------|--------|--------|--------|--------|--------|--------|--------|
G|--------|--------|--------|--------|--------|--------|--------|--------|--------|
D|--------|--------|--------|--------|--------|--------|--------|--------|--------|
A|--------|--------|--------|--------|--------|--------|--------|--------|--------|
E|--------|--------|--------|--------|--------|--------|--------|--------|--------|


E|--------|--------|--------|--------|--------|--------|--------|--------|--------|
B|--------|--------|--------|--------|--------|--------|--------|--------|--------|
G|--------|--------|--------|--------|--------|--------|--------|--------|--------|
D|--------|--------|--------|--------|--------|--------|--------|--------|--------|
A|--------|--------|--------|--------|--------|--------|--------|--------|--------|
E|--------|--------|--------|--------|--------|--------|--------|--------|--------|


E|--------|--------|--------|--------|--------|--------|--------|--------|--------|
B|--------|--------|--------|--------|--------|--------|--------|--------|--------|
G|--------|--------|--------|--------|--------|--------|--------|--------|--------|
D|--------|--------|--------|--------|--------|--------|--------|--------|--------|
A|--------|--------|--------|--------|--------|--------|--------|--------|--------|
E|--------|--------|--------|--------|--------|--------|--------|--------|--------|


E|--------|--------|--------|--------|
B|--------|--------|--------|--------|
G|--------|--------|--------|--------|
D|--------|--------|--------|--------|
A|--------|--------|--------|--------|
E|--------|--------|--------|--------|





Track 2: Acoustic 2

E|----------------------------------|--------------------------------|--------------------------------|
B|----------------------------------|--------------------------------|--------------------------------|
G|-------------------12--12-11------|--------------------------------|---------------12--12---11--14--|
D|-14---14-14-14-14-------------14--|-10---10-10-10-9---9----10--12--|-14---14-14-14------------------|
A|----------------------------------|--------------------------------|--------------------------------|
E|----------------------------------|--------------------------------|--------------------------------|


E|--------------------------------|--------------------------------|--------------------------------|
B|--------------------------------|--------------------------------|--------------------------------|
G|--------------------------------|---------------12--12---11------|--------------------------------|
D|-10---10-10-10-9---9----10--12--|-14---14-14-14--------------14--|-10---10-10-10-9---9----10--12--|
A|--------------------------------|--------------------------------|--------------------------------|
E|--------------------------------|--------------------------------|--------------------------------|


E|--------------------------------|--------------------------------|--------|--------|
B|--------------------------------|--------------------------------|--------|--------|
G|---------------12--12---11--14--|--------------------------------|--------|--------|
D|-14---14-14-14------------------|-10---10-10-10-9---9----10--12--|--------|--------|
A|--------------------------------|--------------------------------|--------|--------|
E|--------------------------------|--------------------------------|--------|--------|


E|--------|--------|--------|--------|--------|--------|--------|--------|--------|
B|--------|--------|--------|--------|--------|--------|--------|--------|--------|
G|--------|--------|--------|--------|--------|--------|--------|--------|--------|
D|--------|--------|--------|--------|--------|--------|--------|--------|--------|
A|--------|--------|--------|--------|--------|--------|--------|--------|--------|
E|--------|--------|--------|--------|--------|--------|--------|--------|--------|


E|--------|--------|--------|--------|--------|--------|--------|--------|--------|
B|--------|--------|--------|--------|--------|--------|--------|--------|--------|
G|--------|--------|--------|--------|--------|--------|--------|--------|--------|
D|--------|--------|--------|--------|--------|--------|--------|--------|--------|
A|--------|--------|--------|--------|--------|--------|--------|--------|--------|
E|--------|--------|--------|--------|--------|--------|--------|--------|--------|


E|--------|--------|--------|--------|--------|--------|--------|--------|--------|
B|--------|--------|--------|--------|--------|--------|--------|--------|--------|
G|--------|--------|--------|--------|--------|--------|--------|--------|--------|
D|--------|--------|--------|--------|--------|--------|--------|--------|--------|
A|--------|--------|--------|--------|--------|--------|--------|--------|--------|
E|--------|--------|--------|--------|--------|--------|--------|--------|--------|


E|--------|--------|--------|--------|--------|--------|--------|--------|--------|
B|--------|--------|--------|--------|--------|--------|--------|--------|--------|
G|--------|--------|--------|--------|--------|--------|--------|--------|--------|
D|--------|--------|--------|--------|--------|--------|--------|--------|--------|
A|--------|--------|--------|--------|--------|--------|--------|--------|--------|
E|--------|--------|--------|--------|--------|--------|--------|--------|--------|


E|--------|--------|--------|--------|--------|--------|--------|--------|--------|
B|--------|--------|--------|--------|--------|--------|--------|--------|--------|
G|--------|--------|--------|--------|--------|--------|--------|--------|--------|
D|--------|--------|--------|--------|--------|--------|--------|--------|--------|
A|--------|--------|--------|--------|--------|--------|--------|--------|--------|
E|--------|--------|--------|--------|--------|--------|--------|--------|--------|


E|--------|--------|--------|--------|--------|--------|--------|--------|--------|
B|--------|--------|--------|--------|--------|--------|--------|--------|--------|
G|--------|--------|--------|--------|--------|--------|--------|--------|--------|
D|--------|--------|--------|--------|--------|--------|--------|--------|--------|
A|--------|--------|--------|--------|--------|--------|--------|--------|--------|
E|--------|--------|--------|--------|--------|--------|--------|--------|--------|


E|--------|--------|--------|--------|--------|--------|--------|--------|--------|
B|--------|--------|--------|--------|--------|--------|--------|--------|--------|
G|--------|--------|--------|--------|--------|--------|--------|--------|--------|
D|--------|--------|--------|--------|--------|--------|--------|--------|--------|
A|--------|--------|--------|--------|--------|--------|--------|--------|--------|
E|--------|--------|--------|--------|--------|--------|--------|--------|--------|


E|--------|--------|--------|--------|--------|--------|--------|--------|--------|
B|--------|--------|--------|--------|--------|--------|--------|--------|--------|
G|--------|--------|--------|--------|--------|--------|--------|--------|--------|
D|--------|--------|--------|--------|--------|--------|--------|--------|--------|
A|--------|--------|--------|--------|--------|--------|--------|--------|--------|
E|--------|--------|--------|--------|--------|--------|--------|--------|--------|


E|--------|--------|
B|--------|--------|
G|--------|--------|
D|--------|--------|
A|--------|--------|
E|--------|--------|





Track 3: Distortion

E|--------|--------|--------|--------|--------|--------|--------|--------|---------------------------------------------|
B|--------|--------|--------|--------|--------|--------|--------|--------|---------------------------------------------|
G|--------|--------|--------|--------|--------|--------|--------|--------|---------------------------------------------|
D|--------|--------|--------|--------|--------|--------|--------|--------|-0--2----------------------------------------|
A|--------|--------|--------|--------|--------|--------|--------|--------|----------------------3-----2--------2---3---|
E|--------|--------|--------|--------|--------|--------|--------|--------|-------0--0--0--0--0-----0-----0--0----------|


E|-----------------------------------------------|---------------------------------------------|
B|-----------------------------------------------|---------------------------------------------|
G|-----------------------------------------------|---------------------------------------------|
D|-0--2------------------------------------------|-0--2----------------------------------------|
A|----------------------3-----2--------2--3--2---|----------------------3-----2--------2---3---|
E|-------0--0--0--0--0-----0-----0--0------------|-------0--0--0--0--0-----0-----0--0----------|


E|-----------------------------------------------|---------------------------------------------|
B|-----------------------------------------------|---------------------------------------------|
G|-----------------------------------------------|---------------------------------------------|
D|-0--2------------------------------------------|-0--2----------------------------------------|
A|----------------------3-----2--------2--3--2---|----------------------3-----2--------2---3---|
E|-------0--0--0--0--0-----0-----0--0------------|-------0--0--0--0--0-----0-----0--0----------|


E|-----------------------------------------------|---------------------------------------------|
B|-----------------------------------------------|---------------------------------------------|
G|-----------------------------------------------|---------------------------------------------|
D|-0--2------------------------------------------|-0--2----------------------------------------|
A|----------------------3-----2--------2--3--2---|----------------------3-----2--------2---3---|
E|-------0--0--0--0--0-----0-----0--0------------|-------0--0--0--0--0-----0-----0--0----------|


E|-----------------------------------------------|---------------------------------------------|
B|-----------------------------------------------|---------------------------------------------|
G|-----------------------------------------------|---------------------------------------------|
D|-0--2------------------------------------------|-0--2----------------------------------------|
A|----------------------3-----2--------2--3--2---|----------------------3-----2--------2---3---|
E|-------0--0--0--0--0-----0-----0--0------------|-------0--0--0--0--0-----0-----0--0----------|


E|-----------------------------------------------|---------------------------------------------|
B|-----------------------------------------------|---------------------------------------------|
G|-----------------------------------------------|---------------------------------------------|
D|-0--2------------------------------------------|-0--2----------------------------------------|
A|----------------------3-----2--------2--3--2---|----------------------3-----2--------2---3---|
E|-------0--0--0--0--0-----0-----0--0------------|-------0--0--0--0--0-----0-----0--0----------|


E|-----------------------------------------------|------------------------------|------------------------------|
B|-----------------------------------------------|------------------------------|------------------------------|
G|-----------------------------------------------|-9----9---9--12--12---11--9---|-5----5---5--4---4----5---7---|
D|-0--2------------------------------------------|-9----9---9--12--12---11--9---|-5----5---5--4---4----5---7---|
A|----------------------3-----2--------2--3--2---|-7----7---7--10--10---9---7---|-3----3---3--2---2----3---5---|
E|-------0--0--0--0--0-----0-----0--0------------|------------------------------|------------------------------|


E|------------------------------|------------------------------|-----------------------------------------|
B|------------------------------|------------------------------|-----------------------------------------|
G|-9----9---9--12--12---11--9---|-5----5---5--4---4----5---7---|-----------------------------------------|
D|-9----9---9--12--12---11--9---|-5----5---5--4---4----5---7---|-9------4------5------2------4-----5-----|
A|-7----7---7--10--10---9---7---|-3----3---3--2---2----3---5---|-7------2------3------0------2-----3-----|
E|------------------------------|------------------------------|-----0------0------0------0-----0-----0--|


E|---------------------------------------|-----------------------------------------|
B|---------------------------------------|-----------------------------------------|
G|---------------------------------------|-----------------------------------------|
D|-9------4------5------2------4--5--4---|-9------4------5------2------4-----5-----|
A|-7------2------3------0------2--3--2---|-7------2------3------0------2-----3-----|
E|-----0------0------0------0------------|-----0------0------0------0-----0-----0--|


E|-----------------------------------------|---------------------------------------------|
B|-----------------------------------------|---------------------------------------------|
G|-----------------------------------------|---------------------------------------------|
D|-9------4------5-----5---5---5---5---5---|-0--2----------------------------------------|
A|-7------2------3-----3---3---3---3---3---|----------------------3-----2--------2---3---|
E|-----0------0-----0----------------------|-------0--0--0--0--0-----0-----0--0----------|


E|-----------------------------------------------|---------------------------------------------|
B|-----------------------------------------------|---------------------------------------------|
G|-----------------------------------------------|---------------------------------------------|
D|-0--2------------------------------------------|-0--2----------------------------------------|
A|----------------------3-----2--------2--3--2---|----------------------3-----2--------2---3---|
E|-------0--0--0--0--0-----0-----0--0------------|-------0--0--0--0--0-----0-----0--0----------|


E|-----------------------------------------------|---------------------------------------------|
B|-----------------------------------------------|---------------------------------------------|
G|-----------------------------------------------|---------------------------------------------|
D|-0--2------------------------------------------|-0--2----------------------------------------|
A|----------------------3-----2--------2--3--2---|----------------------3-----2--------2---3---|
E|-------0--0--0--0--0-----0-----0--0------------|-------0--0--0--0--0-----0-----0--0----------|


E|-----------------------------------------------|---------------------------------------------|
B|-----------------------------------------------|---------------------------------------------|
G|-----------------------------------------------|---------------------------------------------|
D|-0--2------------------------------------------|-0--2----------------------------------------|
A|----------------------3-----2--------2--3--2---|----------------------3-----2--------2---3---|
E|-------0--0--0--0--0-----0-----0--0------------|-------0--0--0--0--0-----0-----0--0----------|


E|-----------------------------------------------|------------------------------|------------------------------|
B|-----------------------------------------------|------------------------------|------------------------------|
G|-----------------------------------------------|-9----9---9--12--12---11--9---|-5----5---5--4---4----5---7---|
D|-0--2------------------------------------------|-9----9---9--12--12---11--9---|-5----5---5--4---4----5---7---|
A|----------------------3-----2--------2--3--2---|-7----7---7--10--10---9---7---|-3----3---3--2---2----3---5---|
E|-------0--0--0--0--0-----0-----0--0------------|------------------------------|------------------------------|


E|------------------------------|------------------------------|------------------------------|
B|------------------------------|------------------------------|------------------------------|
G|-9----9---9--12--12---11--9---|-5----5---5--4---4----5---7---|-9----9---9--12--12---11--9---|
D|-9----9---9--12--12---11--9---|-5----5---5--4---4----5---7---|-9----9---9--12--12---11--9---|
A|-7----7---7--10--10---9---7---|-3----3---3--2---2----3---5---|-7----7---7--10--10---9---7---|
E|------------------------------|------------------------------|------------------------------|


E|------------------------------|------------------------------|------------------------------|
B|------------------------------|------------------------------|------------------------------|
G|-5----5---5--4---4----5---7---|-9----9---9--12--12---11--9---|-5----5---5--4---4----5---7---|
D|-5----5---5--4---4----5---7---|-9----9---9--12--12---11--9---|-5----5---5--4---4----5---7---|
A|-3----3---3--2---2----3---5---|-7----7---7--10--10---9---7---|-3----3---3--2---2----3---5---|
E|------------------------------|------------------------------|------------------------------|


E|-----------------------------------|--------------------------------------|-----------------------------------|
B|-----------------------------------|--------------------------------------|-----------------------------------|
G|-9-----------9-----------9---------|-5------4------7----------7--7--------|-9-----------9-----------9---------|
D|-9----5------9----5------9---------|-5------4------7----------7--7--------|-9----5------9----5------9---------|
A|-7----3------7----3------7---------|-3------2------5----------5--5--------|-7----3------7----3------7---------|
E|----------0-----------0------0--0--|-----0------0-------0--0--------0--0--|----------0-----------0------0--0--|


E|-------------------------------------|-----------------------------------|--------------------------------------|
B|-------------------------------------|-----------------------------------|--------------------------------------|
G|-------------------------------------|-9-----------9-----------9---------|-5------4------7----------7--7--------|
D|-5------4------2----4------4--5--4---|-9----5------9----5------9---------|-5------4------7----------7--7--------|
A|-3------2------0----2------2--3--2---|-7----3------7----3------7---------|-3------2------5----------5--5--------|
E|-----0------0-----------0------------|----------0-----------0------0--0--|-----0------0-------0--0--------0--0--|


E|-----------------------------------|-------------------------------------|----------------|
B|-----------------------------------|-------------------------------------|----------------|
G|-9-----------9-----------9---------|-------------------------------------|-4--4-----4-----|
D|-9----5------9----5------9---------|-5------4------2----4------4--5--4---|-0--2-----2-----|
A|-7----3------7----3------7---------|-3------2------0----2------2--3--2---|----------------|
E|----------0-----------0------0--0--|-----0------0-----------0------------|----------------|


E|----------------|----------------|----------------|---------------------------|---------------------------|
B|----------------|----------------|----------------|---------------------------|---------------------------|
G|-4--4-----4-----|-4--4-----4-----|-4--4-----4-----|----------12--11-12-11-----|----------12--11-12-11-14--|
D|-0--2-----2-----|-0--2-----2-----|-0--2-----2-----|-12-14-----------------12--|-12-14---------------------|
A|----------------|----------------|----------------|---------------------------|---------------------------|
E|----------------|----------------|----------------|---------------------------|---------------------------|


E|---------------------------|-----------------------|---------------------------------------------|
B|---------------------------|-----------------------|---------------------------------------------|
G|-12-12----12--11-12-11-----|-----------------------|---------------------------------------------|
D|-----------------------12--|-12-14----14---14--14--|-0--2----------------------------------------|
A|---------------------------|-----------------------|----------------------3-----2--------2---3---|
E|---------------------------|-----------------------|-------0--0--0--0--0-----0-----0--0----------|


E|-----------------------------------------------|---------------------------------------------|
B|-----------------------------------------------|---------------------------------------------|
G|-----------------------------------------------|---------------------------------------------|
D|-0--2------------------------------------------|-0--2----------------------------------------|
A|----------------------3-----2--------2--3--2---|----------------------3-----2--------2---3---|
E|-------0--0--0--0--0-----0-----0--0------------|-------0--0--0--0--0-----0-----0--0----------|


E|-----------------------------------------------|------------------------------|------------------------------|
B|-----------------------------------------------|------------------------------|------------------------------|
G|-----------------------------------------------|-9----9---9--12--12---11--9---|-5----5---5--4---4----5---7---|
D|-0--2------------------------------------------|-9----9---9--12--12---11--9---|-5----5---5--4---4----5---7---|
A|----------------------3-----2--------2--3--2---|-7----7---7--10--10---9---7---|-3----3---3--2---2----3---5---|
E|-------0--0--0--0--0-----0-----0--0------------|------------------------------|------------------------------|


E|------------------------------|------------------------------|------------------------------|
B|------------------------------|------------------------------|------------------------------|
G|-9----9---9--12--12---11--9---|-5----5---5--4---4----5---7---|-9----9---9--12--12---11--9---|
D|-9----9---9--12--12---11--9---|-5----5---5--4---4----5---7---|-9----9---9--12--12---11--9---|
A|-7----7---7--10--10---9---7---|-3----3---3--2---2----3---5---|-7----7---7--10--10---9---7---|
E|------------------------------|------------------------------|------------------------------|


E|------------------------------|------------------------------|------------------------------|
B|------------------------------|------------------------------|------------------------------|
G|-5----5---5--4---4----5---7---|-9----9---9--12--12---11--9---|-5----5---5--4---4----5---7---|
D|-5----5---5--4---4----5---7---|-9----9---9--12--12---11--9---|-5----5---5--4---4----5---7---|
A|-3----3---3--2---2----3---5---|-7----7---7--10--10---9---7---|-3----3---3--2---2----3---5---|
E|------------------------------|------------------------------|------------------------------|


E|------------------------------|------------------------------|------------------------------|
B|------------------------------|------------------------------|------------------------------|
G|-9----9---9--12--12---11--9---|-5----5---5--4---4----5---7---|-9----9---9--12--12---11--9---|
D|-9----9---9--12--12---11--9---|-5----5---5--4---4----5---7---|-9----9---9--12--12---11--9---|
A|-7----7---7--10--10---9---7---|-3----3---3--2---2----3---5---|-7----7---7--10--10---9---7---|
E|------------------------------|------------------------------|------------------------------|


E|------------------------------|------------------------------|------------------------------|
B|------------------------------|------------------------------|------------------------------|
G|-5----5---5--4---4----5---7---|-9----9---9--12--12---11--9---|-5----5---5--4---4----5---7---|
D|-5----5---5--4---4----5---7---|-9----9---9--12--12---11--9---|-5----5---5--4---4----5---7---|
A|-3----3---3--2---2----3---5---|-7----7---7--10--10---9---7---|-3----3---3--2---2----3---5---|
E|------------------------------|------------------------------|------------------------------|


E|------------------------------|------------------------------|-----------------------------------------|
B|------------------------------|------------------------------|-----------------------------------------|
G|-9----9---9--12--12---11--9---|-5----5---5--4---4----5---7---|-----------------------------------------|
D|-9----9---9--12--12---11--9---|-5----5---5--4---4----5---7---|-9------4------5------2------4-----5-----|
A|-7----7---7--10--10---9---7---|-3----3---3--2---2----3---5---|-7------2------3------0------2-----3-----|
E|------------------------------|------------------------------|-----0------0------0------0-----0-----0--|


E|---------------------------------------|-----------------------------------------|
B|---------------------------------------|-----------------------------------------|
G|---------------------------------------|-----------------------------------------|
D|-9------4------5------2------4--5--4---|-9------4------5------2------4-----5-----|
A|-7------2------3------0------2--3--2---|-7------2------3------0------2-----3-----|
E|-----0------0------0------0------------|-----0------0------0------0-----0-----0--|


E|-------------------------|
B|-------------------------|
G|-------------------------|
D|-9------4------5---------|
A|-7------2------3---------|
E|-----0------0------------|





Track 4: Distortion 2

E|--------|--------|--------|--------|--------|--------|--------|--------|--------|
B|--------|--------|--------|--------|--------|--------|--------|--------|--------|
G|--------|--------|--------|--------|--------|--------|--------|--------|--------|
D|--------|--------|--------|--------|--------|--------|--------|--------|--------|
A|--------|--------|--------|--------|--------|--------|--------|--------|--------|
E|--------|--------|--------|--------|--------|--------|--------|--------|--------|


E|--------|--------|--------|--------|--------|--------|--------|--------|--------|
B|--------|--------|--------|--------|--------|--------|--------|--------|--------|
G|--------|--------|--------|--------|--------|--------|--------|--------|--------|
D|--------|--------|--------|--------|--------|--------|--------|--------|--------|
A|--------|--------|--------|--------|--------|--------|--------|--------|--------|
E|--------|--------|--------|--------|--------|--------|--------|--------|--------|


E|--------|--------|--------|--------|--------|--------|--------|--------|--------|
B|--------|--------|--------|--------|--------|--------|--------|--------|--------|
G|--------|--------|--------|--------|--------|--------|--------|--------|--------|
D|--------|--------|--------|--------|--------|--------|--------|--------|--------|
A|--------|--------|--------|--------|--------|--------|--------|--------|--------|
E|--------|--------|--------|--------|--------|--------|--------|--------|--------|


E|--------|--------|--------|--------|--------|--------|--------|--------|--------|
B|--------|--------|--------|--------|--------|--------|--------|--------|--------|
G|--------|--------|--------|--------|--------|--------|--------|--------|--------|
D|--------|--------|--------|--------|--------|--------|--------|--------|--------|
A|--------|--------|--------|--------|--------|--------|--------|--------|--------|
E|--------|--------|--------|--------|--------|--------|--------|--------|--------|


E|--------|--------|--------|--------|--------|--------|--------|--------|--------|
B|--------|--------|--------|--------|--------|--------|--------|--------|--------|
G|--------|--------|--------|--------|--------|--------|--------|--------|--------|
D|--------|--------|--------|--------|--------|--------|--------|--------|--------|
A|--------|--------|--------|--------|--------|--------|--------|--------|--------|
E|--------|--------|--------|--------|--------|--------|--------|--------|--------|


E|--------|--------|--------|--------|--------|--------|--------|---------------------------|
B|--------|--------|--------|--------|--------|--------|--------|---------------------------|
G|--------|--------|--------|--------|--------|--------|--------|----------12--11-12-11-----|
D|--------|--------|--------|--------|--------|--------|--------|-12-14-----------------12--|
A|--------|--------|--------|--------|--------|--------|--------|---------------------------|
E|--------|--------|--------|--------|--------|--------|--------|---------------------------|


E|---------------------------|---------------------------|-----------------------|
B|---------------------------|---------------------------|-----------------------|
G|----------12--11-12-11-14--|-12-12----12--11-12-11-----|-----------------------|
D|-12-14---------------------|-----------------------12--|-12-14----14---14--14--|
A|---------------------------|---------------------------|-----------------------|
E|---------------------------|---------------------------|-----------------------|


E|--------|--------|--------|--------|--------|--------|--------|--------|--------|
B|--------|--------|--------|--------|--------|--------|--------|--------|--------|
G|--------|--------|--------|--------|--------|--------|--------|--------|--------|
D|--------|--------|--------|--------|--------|--------|--------|--------|--------|
A|--------|--------|--------|--------|--------|--------|--------|--------|--------|
E|--------|--------|--------|--------|--------|--------|--------|--------|--------|


E|--------|--------|--------|--------|--------|--------|--------|--------|--------|
B|--------|--------|--------|--------|--------|--------|--------|--------|--------|
G|--------|--------|--------|--------|--------|--------|--------|--------|--------|
D|--------|--------|--------|--------|--------|--------|--------|--------|--------|
A|--------|--------|--------|--------|--------|--------|--------|--------|--------|
E|--------|--------|--------|--------|--------|--------|--------|--------|--------|


E|--------|--------|--------|--------|--------|--------|--------|--------|--------|
B|--------|--------|--------|--------|--------|--------|--------|--------|--------|
G|--------|--------|--------|--------|--------|--------|--------|--------|--------|
D|--------|--------|--------|--------|--------|--------|--------|--------|--------|
A|--------|--------|--------|--------|--------|--------|--------|--------|--------|
E|--------|--------|--------|--------|--------|--------|--------|--------|--------|


E|--------|
B|--------|
G|--------|
D|--------|
A|--------|
E|--------|





Track 5: Bass

G|--------|--------|---------------------------------------------|-----------------------------------------------|
D|--------|--------|-0--2--2--2--2--2----------------------------|-0--2--2--2--2--2------------------------------|
A|--------|--------|-------------------0--3-----2-----0--2---3---|-------------------0--3-----2-----0--2--3--2---|
E|--------|--------|---------------------------------------------|-----------------------------------------------|


G|---------------------------------------------|-----------------------------------------------|
D|-0--2--2--2--2--2----------------------------|-0--2--2--2--2--2------------------------------|
A|-------------------0--3-----2-----0--2---3---|-------------------0--3-----2-----0--2--3--2---|
E|---------------------------------------------|-----------------------------------------------|


G|---------------------------------------------|-----------------------------------------------|
D|-0--2--2--2--2--2----------------------------|-0--2--2--2--2--2------------------------------|
A|-------------------0--3-----2-----0--2---3---|-------------------0--3-----2-----0--2--3--2---|
E|---------------------------------------------|-----------------------------------------------|


G|---------------------------------------------|-----------------------------------------------|
D|-0--2--2--2--2--2----------------------------|-0--2--2--2--2--2------------------------------|
A|-------------------0--3-----2-----0--2---3---|-------------------0--3-----2-----0--2--3--2---|
E|---------------------------------------------|-----------------------------------------------|


G|---------------------------------------------|-----------------------------------------------|
D|-0--2--2--2--2--2----------------------------|-0--2--2--2--2--2------------------------------|
A|-------------------0--3-----2-----0--2---3---|-------------------0--3-----2-----0--2--3--2---|
E|---------------------------------------------|-----------------------------------------------|


G|---------------------------------------------|-----------------------------------------------|
D|-0--2--2--2--2--2----------------------------|-0--2--2--2--2--2------------------------------|
A|-------------------0--3-----2-----0--2---3---|-------------------0--3-----2-----0--2--3--2---|
E|---------------------------------------------|-----------------------------------------------|


G|---------------------------------------------|-----------------------------------------------|
D|-0--2--2--2--2--2----------------------------|-0--2--2--2--2--2------------------------------|
A|-------------------0--3-----2-----0--2---3---|-------------------0--3-----2-----0--2--3--2---|
E|---------------------------------------------|-----------------------------------------------|


G|---------------------------------------------|-----------------------------------------------|
D|-0--2--2--2--2--2----------------------------|-0--2--2--2--2--2------------------------------|
A|-------------------0--3-----2-----0--2---3---|-------------------0--3-----2-----0--2--3--2---|
E|---------------------------------------------|-----------------------------------------------|


G|---------------------------------------------|-----------------------------------------------|
D|-0--2--2--2--2--2----------------------------|-0--2--2--2--2--2------------------------------|
A|-------------------0--3-----2-----0--2---3---|-------------------0--3-----2-----0--2--3--2---|
E|---------------------------------------------|-----------------------------------------------|


G|------------------------------|------------------------------|------------------------------|
D|------------------------------|--------------------------0---|------------------------------|
A|------------------------------|-3----3---3--2----2---3-------|------------------------------|
E|-0----0---0--3----3---2---0---|------------------------------|-0----0---0--3----3---2---0---|


G|------------------------------|-------------------------------------|---------------------------------------|
D|--------------------------0---|-------------------------------------|---------------------------------------|
A|-3----3---3--2----2---3-------|-7------2------3------0------2---3---|-7------2------3------0------2--3--2---|
E|------------------------------|-------------------------------------|---------------------------------------|


G|-------------------------------------|-----------------------------------------|
D|-------------------------------------|-----------------------------------------|
A|-7------2------3------0------2---3---|-7------2------3-----3---3---3---3---3---|
E|-------------------------------------|-----------------------------------------|


G|---------------------------------------------|-----------------------------------------------|
D|-0--2--2--2--2--2----------------------------|-0--2--2--2--2--2------------------------------|
A|-------------------0--3-----2-----0--2---3---|-------------------0--3-----2-----0--2--3--2---|
E|---------------------------------------------|-----------------------------------------------|


G|---------------------------------------------|-----------------------------------------------|
D|-0--2--2--2--2--2----------------------------|-0--2--2--2--2--2------------------------------|
A|-------------------0--3-----2-----0--2---3---|-------------------0--3-----2-----0--2--3--2---|
E|---------------------------------------------|-----------------------------------------------|


G|---------------------------------------------|-----------------------------------------------|
D|-0--2--2--2--2--2----------------------------|-0--2--2--2--2--2------------------------------|
A|-------------------0--3-----2-----0--2---3---|-------------------0--3-----2-----0--2--3--2---|
E|---------------------------------------------|-----------------------------------------------|


G|---------------------------------------------|-----------------------------------------------|
D|-0--2--2--2--2--2----------------------------|-0--2--2--2--2--2------------------------------|
A|-------------------0--3-----2-----0--2---3---|-------------------0--3-----2-----0--2--3--2---|
E|---------------------------------------------|-----------------------------------------------|


G|------------------------------|------------------------------|------------------------------|
D|------------------------------|--------------------------0---|------------------------------|
A|------------------------------|-3----3---3--2----2---3-------|------------------------------|
E|-0----0---0--3----3---2---0---|------------------------------|-0----0---0--3----3---2---0---|


G|------------------------------|------------------------------|------------------------------|
D|--------------------------0---|------------------------------|--------------------------0---|
A|-3----3---3--2----2---3-------|------------------------------|-3----3---3--2----2---3-------|
E|------------------------------|-0----0---0--3----3---2---0---|------------------------------|


G|------------------------------|------------------------------|---------------------------------|
D|------------------------------|--------------------------0---|---------------------------------|
A|------------------------------|-3----3---3--2----2---3-------|-7-----------7-----------7-------|
E|-0----0---0--3----3---2---0---|------------------------------|------8-----------8--------------|


G|--------------------------------|---------------------------------|-------------------------------------|
D|-10-----9------12-------12------|---------------------------------|-------------------------------------|
A|--------------------------------|-7-----------7-----------7-------|-3------2------0----2------2--3--2---|
E|--------------------------------|------8-----------8--------------|-------------------------------------|


G|---------------------------------|--------------------------------|---------------------------------|
D|---------------------------------|-10-----9------12-------12------|---------------------------------|
A|-7-----------7-----------7-------|--------------------------------|-7-----------7-----------7-------|
E|------8-----------8--------------|--------------------------------|------8-----------8--------------|


G|-------------------------------------|---------------------------------------------|
D|-------------------------------------|-0--2--2--2--2--2----------------------------|
A|-3------2------0----2------2--3--2---|-------------------0--3-----2-----0--2---3---|
E|-------------------------------------|---------------------------------------------|


G|-----------------------------------------------|---------------------------------------------|
D|-0--2--2--2--2--2------------------------------|-0--2--2--2--2--2----------------------------|
A|-------------------0--3-----2-----0--2--3--2---|-------------------0--3-----2-----0--2---3---|
E|-----------------------------------------------|---------------------------------------------|


G|-----------------------------------------------|---------------------------------------------|
D|-0--2--2--2--2--2------------------------------|-0--2--2--2--2--2----------------------------|
A|-------------------0--3-----2-----0--2--3--2---|-------------------0--3-----2-----0--2---3---|
E|-----------------------------------------------|---------------------------------------------|


G|-----------------------------------------------|---------------------------------------------|
D|-0--2--2--2--2--2------------------------------|-0--2--2--2--2--2----------------------------|
A|-------------------0--3-----2-----0--2--3--2---|-------------------0--3-----2-----0--2---3---|
E|-----------------------------------------------|---------------------------------------------|


G|-----------------------------------------------|---------------------------------------------|
D|-0--2--2--2--2--2------------------------------|-0--2--2--2--2--2----------------------------|
A|-------------------0--3-----2-----0--2--3--2---|-------------------0--3-----2-----0--2---3---|
E|-----------------------------------------------|---------------------------------------------|


G|-----------------------------------------------|---------------------------------------------|
D|-0--2--2--2--2--2------------------------------|-0--2--2--2--2--2----------------------------|
A|-------------------0--3-----2-----0--2--3--2---|-------------------0--3-----2-----0--2---3---|
E|-----------------------------------------------|---------------------------------------------|


G|-----------------------------------------------|------------------------------|------------------------------|
D|-0--2--2--2--2--2------------------------------|------------------------------|--------------------------0---|
A|-------------------0--3-----2-----0--2--3--2---|------------------------------|-3----3---3--2----2---3-------|
E|-----------------------------------------------|-0----0---0--3----3---2---0---|------------------------------|


G|------------------------------|------------------------------|------------------------------|
D|------------------------------|--------------------------0---|------------------------------|
A|------------------------------|-3----3---3--2----2---3-------|------------------------------|
E|-0----0---0--3----3---2---0---|------------------------------|-0----0---0--3----3---2---0---|


G|------------------------------|------------------------------|------------------------------|
D|--------------------------0---|------------------------------|--------------------------0---|
A|-3----3---3--2----2---3-------|------------------------------|-3----3---3--2----2---3-------|
E|------------------------------|-0----0---0--3----3---2---0---|------------------------------|


G|------------------------------|------------------------------|------------------------------|
D|------------------------------|--------------------------0---|------------------------------|
A|------------------------------|-3----3---3--2----2---3-------|------------------------------|
E|-0----0---0--3----3---2---0---|------------------------------|-0----0---0--3----3---2---0---|


G|------------------------------|------------------------------|------------------------------|
D|--------------------------0---|------------------------------|--------------------------0---|
A|-3----3---3--2----2---3-------|------------------------------|-3----3---3--2----2---3-------|
E|------------------------------|-0----0---0--3----3---2---0---|------------------------------|


G|------------------------------|------------------------------|-------------------------------------|
D|------------------------------|--------------------------0---|-------------------------------------|
A|------------------------------|-3----3---3--2----2---3-------|-7------2------3------0------2---3---|
E|-0----0---0--3----3---2---0---|------------------------------|-------------------------------------|


G|---------------------------------------|-------------------------------------|-------------------------|
D|---------------------------------------|-------------------------------------|-------------------------|
A|-7------2------3------0------2--3--2---|-7------2------3------0------2---3---|-7------2------3---------|
E|---------------------------------------|-------------------------------------|-------------------------|