Site menu:

    

Browse: 0-9 A B C D E F G H I J K L N O P Q R S T U V W X Y Z

3 doors down - be like that:



Title: Be Like That
Artist: 
Album: The Better Life
Author: 3 Doors Down


Track 1: Acoustic

E|-------------3----------------|-------------0----------------|------------------0-----------|
B|------------------3-----------|-----3------------3-----------|-------------3--------3-------|
G|-----0----------------0-------|---------2------------2-------|--------------------------0---|
D|---------0----------------0---|-0------------------------0---|---------0--------------------|
A|------------------------------|------------------------------|-----2------------------------|
E|-3----------------------------|------------------------------|-0----------------------------|


E|------------------0-----------|-------------3----------------|-------------0----------------|
B|-------------3--------3-------|------------------3-----------|-----3------------3-----------|
G|---------0----------------0---|-----0----------------0-------|---------2------------2-------|
D|-----2------------------------|---------0----------------0---|-0------------------------0---|
A|-3----------------------------|------------------------------|------------------------------|
E|------------------------------|-3----------------------------|------------------------------|


E|------------------0-----------|------------------0-----------|-------------3----------------|
B|-------------3--------3-------|-------------3--------3-------|------------------3-----------|
G|--------------------------0---|---------0----------------0---|-----0----------------0-------|
D|---------0--------------------|-----2------------------------|---------0----------------0---|
A|-----2------------------------|-3----------------------------|------------------------------|
E|-0----------------------------|------------------------------|-3----------------------------|


E|-------------0----------------|------------------0-----------|------------------0-----------|
B|-----3------------3-----------|-------------3--------3-------|-------------3--------3-------|
G|---------2------------2-------|--------------------------0---|---------0----------------0---|
D|-0------------------------0---|---------0--------------------|-----2------------------------|
A|------------------------------|-----2------------------------|-3----------------------------|
E|------------------------------|-0----------------------------|------------------------------|


E|-------------3----------------|-------------0----------------|------------------0-----------|
B|------------------3-----------|-----3------------3-----------|-------------3--------3-------|
G|-----0----------------0-------|---------2------------2-------|--------------------------0---|
D|---------0----------------0---|-0------------------------0---|---------0--------------------|
A|------------------------------|------------------------------|-----2------------------------|
E|-3----------------------------|------------------------------|-0----------------------------|


E|------------------0-----------|-------------3----------------|-------------0----------------|
B|-------------3--------3-------|------------------3-----------|-----3------------3-----------|
G|---------0----------------0---|-----0----------------0-------|---------2------------2-------|
D|-----2------------------------|---------0----------------0---|-0------------------------0---|
A|-3----------------------------|------------------------------|------------------------------|
E|------------------------------|-3----------------------------|------------------------------|


E|------------------0-----------|------------------0-----------|-------------3----------------|
B|-------------3--------3-------|-------------3--------3-------|------------------3-----------|
G|--------------------------0---|---------0----------------0---|-----0----------------0-------|
D|---------0--------------------|-----2------------------------|---------0----------------0---|
A|-----2------------------------|-3----------------------------|------------------------------|
E|-0----------------------------|------------------------------|-3----------------------------|


E|-------------0----------------|------------------0-----------|------------------0-----------|
B|-----3------------3-----------|-------------3--------3-------|-------------3--------3-------|
G|---------2------------2-------|--------------------------0---|---------0----------------0---|
D|-0------------------------0---|---------0--------------------|-----2------------------------|
A|------------------------------|-----2------------------------|-3----------------------------|
E|------------------------------|-0----------------------------|------------------------------|


E|-3----3--------3----3--------3---------|-2----2--2--2--2----2--2--2--2---2--2--|
B|-3----3--------3----3--------3---------|-3----3--3--3--3----3--3--3--3---3--3--|
G|-0----0--0--0--0----0--0--0--0---0--0--|-2----2--2--2--2----2--2--2--2---2--2--|
D|-0----0--0--0--0----0--0--0--0---0--0--|-0----0--0--0--0----0--0--0--0---0--0--|
A|-2----2--2--2--2----2--2--2--2---2--2--|---------------------------------------|
E|-3----3--3--3--3----3--3--3--3---3--3--|---------------------------------------|


E|-0----0--------0----0--------0---------|-0----0--------0----0--------0---------|
B|-0----0--0--0--0----0--0--0--0---0--0--|-1----1--1--1--1----1--1--1--1---1--1--|
G|-0----0--0--0--0----0--0--0--0---0--0--|-0----0--0--0--0----0--0--0--0---0--0--|
D|-2----2--2--2--2----2--2--2--2---2--2--|-2----2--2--2--2----2--2--2--2---2--2--|
A|-2----2--2--2--2----2--2--2--2---2--2--|-3----3--3--3--3----3--3--3--3---3--3--|
E|-0----0--0--0--0----0--0--0--0---0--0--|---------------------------------------|


E|-3----3--------3----3--------3---------|-2----2--2--2--2----2--2--2--2---2--2--|
B|-3----3--------3----3--------3---------|-3----3--3--3--3----3--3--3--3---3--3--|
G|-0----0--0--0--0----0--0--0--0---0--0--|-2----2--2--2--2----2--2--2--2---2--2--|
D|-0----0--0--0--0----0--0--0--0---0--0--|-0----0--0--0--0----0--0--0--0---0--0--|
A|-2----2--2--2--2----2--2--2--2---2--2--|---------------------------------------|
E|-3----3--3--3--3----3--3--3--3---3--3--|---------------------------------------|


E|-0----0--------0----0--------0---------|-0----0--------0----0--------0---------|
B|-0----0--0--0--0----0--0--0--0---0--0--|-1----1--1--1--1----1--1--1--1---1--1--|
G|-0----0--0--0--0----0--0--0--0---0--0--|-0----0--0--0--0----0--0--0--0---0--0--|
D|-2----2--2--2--2----2--2--2--2---2--2--|-2----2--2--2--2----2--2--2--2---2--2--|
A|-2----2--2--2--2----2--2--2--2---2--2--|-3----3--3--3--3----3--3--3--3---3--3--|
E|-0----0--0--0--0----0--0--0--0---0--0--|---------------------------------------|


E|---------0-----------0-------------|-----0---------------0-----------|---------------------------------|
B|-1-----------0-----------0--1------|-1-----------3-----------1-------|-----0---3---3-------3---1-------|
G|-----2-----------2-------------0---|---------0-------0-----------0---|-0---------------0-----------0---|
D|-----------------------------------|---------------------------------|---------------------------------|
A|-----------------------------------|---------------------------------|---------------------------------|
E|-----------------------------------|---------------------------------|---------------------------------|


E|-----------------------------------|---------0-----------0-------------|-----0---------------0-----------|
B|-0-------3---1-------3--3--3---0---|-1-----------0-----------0--1------|-1-----------3-----------1-------|
G|-----0-----------0---0--0--0---0---|-----2-----------2-------------0---|---------0-------0-----------0---|
D|-----------------------------------|-----------------------------------|---------------------------------|
A|-----------------------------------|-----------------------------------|---------------------------------|
E|-----------------------------------|-----------------------------------|---------------------------------|


E|---------------------------------|-2---------------3-------3---------|-------------3----------------|
B|-----0---3---3-------3---1-------|-----0-------1---------------1--1--|------------------3-----------|
G|-0---------------0-----------0---|---------0-----------0-------0--0--|-----0----------------0-------|
D|---------------------------------|-----------------------------------|---------0----------------0---|
A|---------------------------------|-----------------------------------|------------------------------|
E|---------------------------------|-----------------------------------|-3----------------------------|


E|-------------0----------------|------------------0-----------|------------------0-----------|
B|-----3------------3-----------|-------------3--------3-------|-------------3--------3-------|
G|---------2------------2-------|--------------------------0---|---------0----------------0---|
D|-0------------------------0---|---------0--------------------|-----2------------------------|
A|------------------------------|-----2------------------------|-3----------------------------|
E|------------------------------|-0----------------------------|------------------------------|


E|-------------3----------------|-------------0----------------|------------------0-----------|
B|------------------3-----------|-----3------------3-----------|-------------3--------3-------|
G|-----0----------------0-------|---------2------------2-------|--------------------------0---|
D|---------0----------------0---|-0------------------------0---|---------0--------------------|
A|------------------------------|------------------------------|-----2------------------------|
E|-3----------------------------|------------------------------|-0----------------------------|


E|------------------0-----------|-------------3----------------|-------------0----------------|
B|-------------3--------3-------|------------------3-----------|-----3------------3-----------|
G|---------0----------------0---|-----0----------------0-------|---------2------------2-------|
D|-----2------------------------|---------0----------------0---|-0------------------------0---|
A|-3----------------------------|------------------------------|------------------------------|
E|------------------------------|-3----------------------------|------------------------------|


E|------------------0-----------|------------------0-----------|-------------3----------------|
B|-------------3--------3-------|-------------3--------3-------|------------------3-----------|
G|--------------------------0---|---------0----------------0---|-----0----------------0-------|
D|---------0--------------------|-----2------------------------|---------0----------------0---|
A|-----2------------------------|-3----------------------------|------------------------------|
E|-0----------------------------|------------------------------|-3----------------------------|


E|-------------0----------------|------------------0-----------|------------------0-----------|
B|-----3------------3-----------|-------------3--------3-------|-------------3--------3-------|
G|---------2------------2-------|--------------------------0---|---------0----------------0---|
D|-0------------------------0---|---------0--------------------|-----2------------------------|
A|------------------------------|-----2------------------------|-3----------------------------|
E|------------------------------|-0----------------------------|------------------------------|


E|-3----3--------3----3--------3---------|-2----2--2--2--2----2--2--2--2---2--2--|
B|-3----3--------3----3--------3---------|-3----3--3--3--3----3--3--3--3---3--3--|
G|-0----0--0--0--0----0--0--0--0---0--0--|-2----2--2--2--2----2--2--2--2---2--2--|
D|-0----0--0--0--0----0--0--0--0---0--0--|-0----0--0--0--0----0--0--0--0---0--0--|
A|-2----2--2--2--2----2--2--2--2---2--2--|---------------------------------------|
E|-3----3--3--3--3----3--3--3--3---3--3--|---------------------------------------|


E|-0----0--------0----0--------0---------|-0----0--------0----0--------0---------|
B|-0----0--0--0--0----0--0--0--0---0--0--|-1----1--1--1--1----1--1--1--1---1--1--|
G|-0----0--0--0--0----0--0--0--0---0--0--|-0----0--0--0--0----0--0--0--0---0--0--|
D|-2----2--2--2--2----2--2--2--2---2--2--|-2----2--2--2--2----2--2--2--2---2--2--|
A|-2----2--2--2--2----2--2--2--2---2--2--|-3----3--3--3--3----3--3--3--3---3--3--|
E|-0----0--0--0--0----0--0--0--0---0--0--|---------------------------------------|


E|-3----3--------3----3--------3---------|-2----2--2--2--2----2--2--2--2---2--2--|
B|-3----3--------3----3--------3---------|-3----3--3--3--3----3--3--3--3---3--3--|
G|-0----0--0--0--0----0--0--0--0---0--0--|-2----2--2--2--2----2--2--2--2---2--2--|
D|-0----0--0--0--0----0--0--0--0---0--0--|-0----0--0--0--0----0--0--0--0---0--0--|
A|-2----2--2--2--2----2--2--2--2---2--2--|---------------------------------------|
E|-3----3--3--3--3----3--3--3--3---3--3--|---------------------------------------|


E|-0----0--------0----0--------0---------|-0----0--------0----0--------0---------|
B|-0----0--0--0--0----0--0--0--0---0--0--|-1----1--1--1--1----1--1--1--1---1--1--|
G|-0----0--0--0--0----0--0--0--0---0--0--|-0----0--0--0--0----0--0--0--0---0--0--|
D|-2----2--2--2--2----2--2--2--2---2--2--|-2----2--2--2--2----2--2--2--2---2--2--|
A|-2----2--2--2--2----2--2--2--2---2--2--|-3----3--3--3--3----3--3--3--3---3--3--|
E|-0----0--0--0--0----0--0--0--0---0--0--|---------------------------------------|


E|---------0-----------0-------------|-----0---------------0-----------|---------------------------------|
B|-1-----------0-----------0--1------|-1-----------3-----------1-------|-----0---3---3-------3---1-------|
G|-----2-----------2-------------0---|---------0-------0-----------0---|-0---------------0-----------0---|
D|-----------------------------------|---------------------------------|---------------------------------|
A|-----------------------------------|---------------------------------|---------------------------------|
E|-----------------------------------|---------------------------------|---------------------------------|


E|-----------------------------------|---------0-----------0-------------|-----0---------------0-----------|
B|-0-------3---1-------3--3--3---0---|-1-----------0-----------0--1------|-1-----------3-----------1-------|
G|-----0-----------0---0--0--0---0---|-----2-----------2-------------0---|---------0-------0-----------0---|
D|-----------------------------------|-----------------------------------|---------------------------------|
A|-----------------------------------|-----------------------------------|---------------------------------|
E|-----------------------------------|-----------------------------------|---------------------------------|


E|---------------------------------|-2---------------3-------3---------|-------------3----------------|
B|-----0---3---3-------3---1-------|-----0-------1---------------1--1--|------------------3-----------|
G|-0---------------0-----------0---|---------0-----------0-------0--0--|-----0----------------0-------|
D|---------------------------------|-----------------------------------|---------0----------------0---|
A|---------------------------------|-----------------------------------|------------------------------|
E|---------------------------------|-----------------------------------|-3----------------------------|


E|-------------0----------------|------------------0-----------|------------------0-----------|
B|-----3------------3-----------|-------------3--------3-------|-------------3--------3-------|
G|---------2------------2-------|--------------------------0---|---------0----------------0---|
D|-0------------------------0---|---------0--------------------|-----2------------------------|
A|------------------------------|-----2------------------------|-3----------------------------|
E|------------------------------|-0----------------------------|------------------------------|


E|-------------3----------------|-------------0----------------|------------------0-----------|
B|------------------3-----------|-----3------------3-----------|-------------3--------3-------|
G|-----0----------------0-------|---------2------------2-------|--------------------------0---|
D|---------0----------------0---|-0------------------------0---|---------0--------------------|
A|------------------------------|------------------------------|-----2------------------------|
E|-3----------------------------|------------------------------|-0----------------------------|


E|------------------0-----------|-3----3--------3----3--------3---------|-2----2--2--2--2----2--2--2--2---2--2--|
B|-------------3--------3-------|-3----3--------3----3--------3---------|-3----3--3--3--3----3--3--3--3---3--3--|
G|---------0----------------0---|-0----0--0--0--0----0--0--0--0---0--0--|-2----2--2--2--2----2--2--2--2---2--2--|
D|-----2------------------------|-0----0--0--0--0----0--0--0--0---0--0--|-0----0--0--0--0----0--0--0--0---0--0--|
A|-3----------------------------|-2----2--2--2--2----2--2--2--2---2--2--|---------------------------------------|
E|------------------------------|-3----3--3--3--3----3--3--3--3---3--3--|---------------------------------------|


E|-0----0--------0----0--------0---------|-0----0--------0----0--------0---------|
B|-0----0--0--0--0----0--0--0--0---0--0--|-1----1--1--1--1----1--1--1--1---1--1--|
G|-0----0--0--0--0----0--0--0--0---0--0--|-0----0--0--0--0----0--0--0--0---0--0--|
D|-2----2--2--2--2----2--2--2--2---2--2--|-2----2--2--2--2----2--2--2--2---2--2--|
A|-2----2--2--2--2----2--2--2--2---2--2--|-3----3--3--3--3----3--3--3--3---3--3--|
E|-0----0--0--0--0----0--0--0--0---0--0--|---------------------------------------|


E|-3----3--------3----3--------3---------|-2----2--2--2--2----2--2--2--2---2--2--|
B|-3----3--------3----3--------3---------|-3----3--3--3--3----3--3--3--3---3--3--|
G|-0----0--0--0--0----0--0--0--0---0--0--|-2----2--2--2--2----2--2--2--2---2--2--|
D|-0----0--0--0--0----0--0--0--0---0--0--|-0----0--0--0--0----0--0--0--0---0--0--|
A|-2----2--2--2--2----2--2--2--2---2--2--|---------------------------------------|
E|-3----3--3--3--3----3--3--3--3---3--3--|---------------------------------------|


E|-0----0--------0----0--------0---------|-0----0--------0----0--------0---------|
B|-0----0--0--0--0----0--0--0--0---0--0--|-1----1--1--1--1----1--1--1--1---1--1--|
G|-0----0--0--0--0----0--0--0--0---0--0--|-0----0--0--0--0----0--0--0--0---0--0--|
D|-2----2--2--2--2----2--2--2--2---2--2--|-2----2--2--2--2----2--2--2--2---2--2--|
A|-2----2--2--2--2----2--2--2--2---2--2--|-3----3--3--3--3----3--3--3--3---3--3--|
E|-0----0--0--0--0----0--0--0--0---0--0--|---------------------------------------|


E|-3----3--------3----3--------3---------|-2----2--2--2--2----2--2--2--2---2--2--|
B|-3----3--------3----3--------3---------|-3----3--3--3--3----3--3--3--3---3--3--|
G|-0----0--0--0--0----0--0--0--0---0--0--|-2----2--2--2--2----2--2--2--2---2--2--|
D|-0----0--0--0--0----0--0--0--0---0--0--|-0----0--0--0--0----0--0--0--0---0--0--|
A|-2----2--2--2--2----2--2--2--2---2--2--|---------------------------------------|
E|-3----3--3--3--3----3--3--3--3---3--3--|---------------------------------------|


E|-0----0--------0----0--------0---------|-0----0--------0----0--------0---------|
B|-0----0--0--0--0----0--0--0--0---0--0--|-1----1--1--1--1----1--1--1--1---1--1--|
G|-0----0--0--0--0----0--0--0--0---0--0--|-0----0--0--0--0----0--0--0--0---0--0--|
D|-2----2--2--2--2----2--2--2--2---2--2--|-2----2--2--2--2----2--2--2--2---2--2--|
A|-2----2--2--2--2----2--2--2--2---2--2--|-3----3--3--3--3----3--3--3--3---3--3--|
E|-0----0--0--0--0----0--0--0--0---0--0--|---------------------------------------|


E|-3----3--------3----3--------3---------|-2----2--2--2--2----2--2--2--2---2--2--|
B|-3----3--------3----3--------3---------|-3----3--3--3--3----3--3--3--3---3--3--|
G|-0----0--0--0--0----0--0--0--0---0--0--|-2----2--2--2--2----2--2--2--2---2--2--|
D|-0----0--0--0--0----0--0--0--0---0--0--|-0----0--0--0--0----0--0--0--0---0--0--|
A|-2----2--2--2--2----2--2--2--2---2--2--|---------------------------------------|
E|-3----3--3--3--3----3--3--3--3---3--3--|---------------------------------------|


E|-0----0--------0----0--------0---------|-0----0--------0----0--------0---------|
B|-0----0--0--0--0----0--0--0--0---0--0--|-1----1--1--1--1----1--1--1--1---1--1--|
G|-0----0--0--0--0----0--0--0--0---0--0--|-0----0--0--0--0----0--0--0--0---0--0--|
D|-2----2--2--2--2----2--2--2--2---2--2--|-2----2--2--2--2----2--2--2--2---2--2--|
A|-2----2--2--2--2----2--2--2--2---2--2--|-3----3--3--3--3----3--3--3--3---3--3--|
E|-0----0--0--0--0----0--0--0--0---0--0--|---------------------------------------|


E|-0----0--------0----0--------0---------|-0----0--------0----0--------0---------|
B|-0----0--------0----0--------0---------|-1----1--1--1--1----1--1--1--1---1--1--|
G|-0----0--0--0--0----0--0--0--0---0--0--|-0----0--0--0--0----0--0--0--0---0--0--|
D|-2----2--2--2--2----2--2--2--2---2--2--|-2----2--2--2--2----2--2--2--2---2--2--|
A|-2----2--2--2--2----2--2--2--2---2--2--|-3----3--3--3--3----3--3--3--3---3--3--|
E|-0----0--0--0--0----0--0--0--0---0--0--|---------------------------------------|


E|-0----0--------0----0--------0---------|-0----0--------0----0--------0---------|
B|-0----0--------0----0--------0---------|-1----1--1--1--1----1--1--1--1---1--1--|
G|-0----0--0--0--0----0--0--0--0---0--0--|-0----0--0--0--0----0--0--0--0---0--0--|
D|-2----2--2--2--2----2--2--2--2---2--2--|-2----2--2--2--2----2--2--2--2---2--2--|
A|-2----2--2--2--2----2--2--2--2---2--2--|-3----3--3--3--3----3--3--3--3---3--3--|
E|-0----0--0--0--0----0--0--0--0---0--0--|---------------------------------------|


E|-0----0--------0----0--------0---------|-0----0--------0----0--------0---------|
B|-0----0--------0----0--------0---------|-1----1--1--1--1----1--1--1--1---1--1--|
G|-0----0--0--0--0----0--0--0--0---0--0--|-0----0--0--0--0----0--0--0--0---0--0--|
D|-2----2--2--2--2----2--2--2--2---2--2--|-2----2--2--2--2----2--2--2--2---2--2--|
A|-2----2--2--2--2----2--2--2--2---2--2--|-3----3--3--3--3----3--3--3--3---3--3--|
E|-0----0--0--0--0----0--0--0--0---0--0--|---------------------------------------|


E|-3------|
B|-3------|
G|-0------|
D|-0------|
A|-2------|
E|-3------|





Track 2: Distortion

E|--------|--------|--------|--------|--------|-------------|--------|--------|--------|
B|--------|--------|--------|--------|--------|-------------|--------|-1------|--------|
G|--------|--------|--------|--------|--------|------0------|-0------|--------|--------|
D|--------|--------|--------|--------|--------|------0------|-0------|--------|--------|
A|--------|--------|--------|--------|--------|------2------|-2------|--------|--------|
E|--------|--------|--------|--------|--------|-------------|--------|--------|--------|


E|--------|--------|--------|--------|--------|--------|--------------|------------------|
B|--------|--------|--------|--------|--------|--------|--------------|------------------|
G|--------|--------|--------|--------|--------|--------|--------------|------------------|
D|--------|--------|--------|--------|--------|--------|--------------|-5------5---------|
A|--------|--------|--------|--------|--------|--------|--------5--5--|-5------5---5--5--|
E|--------|--------|--------|--------|--------|--------|--------3--3--|-3------3---3--3--|


E|------------------|-------------|------------------|------------------|------------------|
B|------------------|-------------|------------------|------------------|------------------|
G|-7------7---------|-9------9----|-5------5---------|------------------|-7------7---------|
D|-7------7---7--7--|-9------9----|-5------5---5--5--|-5------5---------|-7------7---7--7--|
A|-5------5---5--5--|-7------7----|-3------3---3--3--|-5------5---5--5--|-5------5---5--5--|
E|------------------|-------------|------------------|-3------3---3--3--|------------------|


E|----------------|------------------|---------------------------------------|---------------------------------------|
B|----------------|------------------|---------------------------------------|---------------------------------------|
G|-9------9---5---|-5------5---------|---------------------------------------|-7----7--7--7--7----7--7--7--7---7--7--|
D|-9------9---5---|-5------5---5--5--|-5----5--5--5--5----5--5--5--5---5--5--|-7----7--7--7--7----7--7--7--7---7--7--|
A|-7------7---3---|-3------3---3--3--|-5----5--5--5--5----5--5--5--5---5--5--|-5----5--5--5--5----5--5--5--5---5--5--|
E|----------------|------------------|-3----3--3--3--3----3--3--3--3---3--3--|---------------------------------------|


E|---------------------------------------|---------------------------------------|
B|---------------------------------------|---------------------------------------|
G|-9----9--9--9--9----9--9--9--9---9--9--|-5----5--5--5--5----5--5--5--5---5--5--|
D|-9----9--9--9--9----9--9--9--9---9--9--|-5----5--5--5--5----5--5--5--5---5--5--|
A|-7----7--7--7--7----7--7--7--7---7--7--|-3----3--3--3--3----3--3--3--3---3--3--|
E|---------------------------------------|---------------------------------------|


E|---------------------------------------|---------------------------------------|
B|---------------------------------------|---------------------------------------|
G|---------------------------------------|-7----7--7--7--7----7--7--7--7---7--7--|
D|-5----5--5--5--5----5--5--5--5---5--5--|-7----7--7--7--7----7--7--7--7---7--7--|
A|-5----5--5--5--5----5--5--5--5---5--5--|-5----5--5--5--5----5--5--5--5---5--5--|
E|-3----3--3--3--3----3--3--3--3---3--3--|---------------------------------------|


E|---------------------------------------|---------------------------------------|
B|---------------------------------------|---------------------------------------|
G|-9----9--9--9--9----9--9--9--9---9--9--|-5----5--5--5--5----5--5--5--5---5--5--|
D|-9----9--9--9--9----9--9--9--9---9--9--|-5----5--5--5--5----5--5--5--5---5--5--|
A|-7----7--7--7--7----7--7--7--7---7--7--|-3----3--3--3--3----3--3--3--3---3--3--|
E|---------------------------------------|---------------------------------------|


E|---------------------------------------|---------------------------------------|
B|---------------------------------------|---------------------------------------|
G|-2----2--2--2--2----2--2--2--2---2--2--|-5----5--5--5--5----5--5--5--5---5--5--|
D|-2----2--2--2--2----2--2--2--2---2--2--|-5----5--5--5--5----5--5--5--5---5--5--|
A|-0----0--0--0--0----0--0--0--0---0--0--|-3----3--3--3--3----3--3--3--3---3--3--|
E|---------------------------------------|---------------------------------------|


E|---------------------------------------|---------------------------------------|
B|---------------------------------------|---------------------------------------|
G|---------------------------------------|---------------------------------------|
D|-5----5--5--5--5----5--5--5--5---5--5--|-5----5--5--5--5----5--5--5--5---5--5--|
A|-5----5--5--5--5----5--5--5--5---5--5--|-5----5--5--5--5----5--5--5--5---5--5--|
E|-3----3--3--3--3----3--3--3--3---3--3--|-3----3--3--3--3----3--3--3--3---3--0--|


E|---------------------------------------|---------------------------------------|
B|---------------------------------------|---------------------------------------|
G|-2----2--2--2--2----2--2--2--2---2--2--|-5----5--5--5--5----5--5--5--5---5--5--|
D|-2----2--2--2--2----2--2--2--2---2--2--|-5----5--5--5--5----5--5--5--5---5--5--|
A|-0----0--0--0--0----0--0--0--0---0--0--|-3----3--3--3--3----3--3--3--3---3--3--|
E|---------------------------------------|---------------------------------------|


E|---------------------------------------|-----------------------------------------|
B|---------------------------------------|-----------------------------------------|
G|---------------------------------------|-4----4--4--4--4--5---5--5--5--5---5--5--|
D|-5----5--5--5--5----5--5--5--5---5--5--|-4----4--4--4--4--5---5--5--5--5---5--5--|
A|-5----5--5--5--5----5--5--5--5---5--5--|-2----2--2--2--2--3---3--3--3--3---3--3--|
E|-3----3--3--3--3----3--3--3--3---3--3--|-----------------------------------------|


E|--------|--------|--------|--------|--------|--------|--------|--------|--------|
B|--------|--------|--------|--------|--------|--------|--------|--------|--------|
G|--------|--------|--------|--------|--------|--------|--------|--------|--------|
D|--------|--------|--------|--------|--------|--------|--------|--------|--------|
A|--------|--------|--------|--------|--------|--------|--------|--------|--------|
E|--------|--------|--------|--------|--------|--------|--------|--------|--------|


E|--------|--------|--------|--------|--------|--------|--------|---------------------------------------|
B|--------|--------|--------|--------|--------|--------|--------|---------------------------------------|
G|--------|--------|--------|--------|--------|--------|--------|---------------------------------------|
D|--------|--------|--------|--------|--------|--------|--------|-5----5--5--5--5----5--5--5--5---5--5--|
A|--------|--------|--------|--------|--------|--------|--------|-5----5--5--5--5----5--5--5--5---5--5--|
E|--------|--------|--------|--------|--------|--------|--------|-3----3--3--3--3----3--3--3--3---3--3--|


E|---------------------------------------|---------------------------------------|
B|---------------------------------------|---------------------------------------|
G|-7----7--7--7--7----7--7--7--7---7--7--|-9----9--9--9--9----9--9--9--9---9--9--|
D|-7----7--7--7--7----7--7--7--7---7--7--|-9----9--9--9--9----9--9--9--9---9--9--|
A|-5----5--5--5--5----5--5--5--5---5--5--|-7----7--7--7--7----7--7--7--7---7--7--|
E|---------------------------------------|---------------------------------------|


E|---------------------------------------|---------------------------------------|
B|---------------------------------------|---------------------------------------|
G|-5----5--5--5--5----5--5--5--5---5--5--|---------------------------------------|
D|-5----5--5--5--5----5--5--5--5---5--5--|-5----5--5--5--5----5--5--5--5---5--5--|
A|-3----3--3--3--3----3--3--3--3---3--3--|-5----5--5--5--5----5--5--5--5---5--5--|
E|---------------------------------------|-3----3--3--3--3----3--3--3--3---3--3--|


E|---------------------------------------|---------------------------------------|
B|---------------------------------------|---------------------------------------|
G|-7----7--7--7--7----7--7--7--7---7--7--|-9----9--9--9--9----9--9--9--9---9--9--|
D|-7----7--7--7--7----7--7--7--7---7--7--|-9----9--9--9--9----9--9--9--9---9--9--|
A|-5----5--5--5--5----5--5--5--5---5--5--|-7----7--7--7--7----7--7--7--7---7--7--|
E|---------------------------------------|---------------------------------------|


E|---------------------------------------|---------------------------------------|
B|---------------------------------------|---------------------------------------|
G|-5----5--5--5--5----5--5--5--5---5--5--|-2----2--2--2--2----2--2--2--2---2--2--|
D|-5----5--5--5--5----5--5--5--5---5--5--|-2----2--2--2--2----2--2--2--2---2--2--|
A|-3----3--3--3--3----3--3--3--3---3--3--|-0----0--0--0--0----0--0--0--0---0--0--|
E|---------------------------------------|---------------------------------------|


E|---------------------------------------|---------------------------------------|
B|---------------------------------------|---------------------------------------|
G|-5----5--5--5--5----5--5--5--5---5--5--|---------------------------------------|
D|-5----5--5--5--5----5--5--5--5---5--5--|-5----5--5--5--5----5--5--5--5---5--5--|
A|-3----3--3--3--3----3--3--3--3---3--3--|-5----5--5--5--5----5--5--5--5---5--5--|
E|---------------------------------------|-3----3--3--3--3----3--3--3--3---3--3--|


E|---------------------------------------|---------------------------------------|
B|---------------------------------------|---------------------------------------|
G|---------------------------------------|-2----2--2--2--2----2--2--2--2---2--2--|
D|-5----5--5--5--5----5--5--5--5---5--5--|-2----2--2--2--2----2--2--2--2---2--2--|
A|-5----5--5--5--5----5--5--5--5---5--5--|-0----0--0--0--0----0--0--0--0---0--0--|
E|-3----3--3--3--3----3--3--3--3---3--0--|---------------------------------------|


E|---------------------------------------|---------------------------------------|
B|---------------------------------------|---------------------------------------|
G|-5----5--5--5--5----5--5--5--5---5--5--|---------------------------------------|
D|-5----5--5--5--5----5--5--5--5---5--5--|-5----5--5--5--5----5--5--5--5---5--5--|
A|-3----3--3--3--3----3--3--3--3---3--3--|-5----5--5--5--5----5--5--5--5---5--5--|
E|---------------------------------------|-3----3--3--3--3----3--3--3--3---3--3--|


E|-----------------------------------------|--------|--------|--------|--------|--------|
B|-----------------------------------------|--------|--------|--------|--------|--------|
G|-4----4--4--4--4--5---5--5--5--5---5--5--|--------|--------|--------|--------|--------|
D|-4----4--4--4--4--5---5--5--5--5---5--5--|-5------|-5------|-5------|-5------|-5------|
A|-2----2--2--2--2--3---3--3--3--3---3--3--|-5------|-5------|-5------|-5------|-5------|
E|-----------------------------------------|-3------|-3------|-3------|-3------|-3------|


E|--------|--------|-----------------------------------|---------------------------------------|
B|--------|--------|-----------------------------------|---------------------------------------|
G|--------|--------|-----------------------------------|---------------------------------------|
D|-5------|--------|-5---5---5---5---5---5---5---5--0--|-5----5--5--5--5----5--5--5--5---5--5--|
A|-5------|--------|-3---3---3---3---3---3---3---3--0--|-5----5--5--5--5----5--5--5--5---5--5--|
E|-3------|--------|-----------------------------------|-3----3--3--3--3----3--3--3--3---3--3--|


E|---------------------------------------|---------------------------------------|
B|---------------------------------------|---------------------------------------|
G|-7----7--7--7--7----7--7--7--7---7--7--|-9----9--9--9--9----9--9--9--9---9--9--|
D|-7----7--7--7--7----7--7--7--7---7--7--|-9----9--9--9--9----9--9--9--9---9--9--|
A|-5----5--5--5--5----5--5--5--5---5--5--|-7----7--7--7--7----7--7--7--7---7--7--|
E|---------------------------------------|---------------------------------------|


E|---------------------------------------|---------------------------------------|
B|---------------------------------------|---------------------------------------|
G|-5----5--5--5--5----5--5--5--5---5--5--|---------------------------------------|
D|-5----5--5--5--5----5--5--5--5---5--5--|-5----5--5--5--5----5--5--5--5---5--5--|
A|-3----3--3--3--3----3--3--3--3---3--3--|-5----5--5--5--5----5--5--5--5---5--5--|
E|---------------------------------------|-3----3--3--3--3----3--3--3--3---3--3--|


E|---------------------------------------|---------------------------------------|
B|---------------------------------------|---------------------------------------|
G|-7----7--7--7--7----7--7--7--7---7--7--|-9----9--9--9--9----9--9--9--9---9--9--|
D|-7----7--7--7--7----7--7--7--7---7--7--|-9----9--9--9--9----9--9--9--9---9--9--|
A|-5----5--5--5--5----5--5--5--5---5--5--|-7----7--7--7--7----7--7--7--7---7--7--|
E|---------------------------------------|---------------------------------------|


E|---------------------------------------|---------------------------------------|
B|---------------------------------------|---------------------------------------|
G|-5----5--5--5--5----5--5--5--5---5--5--|---------------------------------------|
D|-5----5--5--5--5----5--5--5--5---5--5--|-5----5--5--5--5----5--5--5--5---5--5--|
A|-3----3--3--3--3----3--3--3--3---3--3--|-5----5--5--5--5----5--5--5--5---5--5--|
E|---------------------------------------|-3----3--3--3--3----3--3--3--3---3--3--|


E|---------------------------------------|---------------------------------------|
B|---------------------------------------|---------------------------------------|
G|-7----7--7--7--7----7--7--7--7---7--7--|-9----9--9--9--9----9--9--9--9---9--9--|
D|-7----7--7--7--7----7--7--7--7---7--7--|-9----9--9--9--9----9--9--9--9---9--9--|
A|-5----5--5--5--5----5--5--5--5---5--5--|-7----7--7--7--7----7--7--7--7---7--7--|
E|---------------------------------------|---------------------------------------|


E|---------------------------------------|---------------------------------------|
B|---------------------------------------|---------------------------------------|
G|-5----5--5--5--5----5--5--5--5---5--5--|---------------------------------------|
D|-5----5--5--5--5----5--5--5--5---5--5--|-5----5--5--5--5----5--5--5--5---5--5--|
A|-3----3--3--3--3----3--3--3--3---3--3--|-5----5--5--5--5----5--5--5--5---5--5--|
E|---------------------------------------|-3----3--3--3--3----3--3--3--3---3--3--|


E|---------------------------------------|---------------------------------------|
B|---------------------------------------|---------------------------------------|
G|-7----7--7--7--7----7--7--7--7---7--7--|-9----9--9--9--9----9--9--9--9---9--9--|
D|-7----7--7--7--7----7--7--7--7---7--7--|-9----9--9--9--9----9--9--9--9---9--9--|
A|-5----5--5--5--5----5--5--5--5---5--5--|-7----7--7--7--7----7--7--7--7---7--7--|
E|---------------------------------------|---------------------------------------|


E|---------------------------------------|-------------------------------------|---------------------------------------|
B|---------------------------------------|-------------------------------------|---------------------------------------|
G|-5----5--5--5--5----5--5--5--5---5--5--|-9----9--9--9--9----9--9--9--9-------|-5----5--5--5--5----5--5--5--5---5--5--|
D|-5----5--5--5--5----5--5--5--5---5--5--|-9----9--9--9--9----9--9--9--9-------|-5----5--5--5--5----5--5--5--5---5--5--|
A|-3----3--3--3--3----3--3--3--3---3--3--|-7----7--7--7--7----7--7--7--7----7--|-3----3--3--3--3----3--3--3--3---3--3--|
E|---------------------------------------|-------------------------------------|---------------------------------------|


E|-------------------------------------|---------------------------------------|-------------------------------------|
B|-------------------------------------|---------------------------------------|-------------------------------------|
G|-9----9--9--9--9----9--9--9--9-------|-5----5--5--5--5----5--5--5--5---5--5--|-9----9--9--9--9----9--9--9--9-------|
D|-9----9--9--9--9----9--9--9--9-------|-5----5--5--5--5----5--5--5--5---5--5--|-9----9--9--9--9----9--9--9--9-------|
A|-7----7--7--7--7----7--7--7--7----7--|-3----3--3--3--3----3--3--3--3---3--3--|-7----7--7--7--7----7--7--7--7----7--|
E|-------------------------------------|---------------------------------------|-------------------------------------|


E|---------------------------------------|--------|
B|---------------------------------------|--------|
G|-5----5--5--5--5----5--5--5--5---5--5--|--------|
D|-5----5--5--5--5----5--5--5--5---5--5--|-5------|
A|-3----3--3--3--3----3--3--3--3---3--3--|-5------|
E|---------------------------------------|-3------|





Track 3: Light Distortion

E|--------|--------|--------|--------|--------|--------|--------|--------|--------|
B|--------|--------|--------|--------|--------|--------|--------|--------|--------|
G|--------|--------|--------|--------|--------|--------|--------|--------|--------|
D|--------|--------|--------|--------|--------|--------|--------|--------|--------|
A|--------|--------|--------|--------|--------|--------|--------|--------|--------|
E|--------|--------|--------|--------|--------|--------|--------|--------|--------|


E|------------------|-0-------------------------------|----------------------------------|
B|------------------|-------------7-----------7--8----|-------------0--1--1----1--0------|
G|--------7---------|---------0-----------0-----------|---------0--------------------0---|
D|--------0---7--9--|-----9-----------9---------------|-----2----------------------------|
A|------------------|---------------------------------|-3--------------------------------|
E|------------------|---------------------------------|----------------------------------|


E|--------|------------------|-0-------------------------------|----------------------------------|
B|--------|------------------|-------------7-----------7--8----|-------------0--1--1----1--0------|
G|--------|--------7---------|---------0-----------0-----------|---------0--------------------0---|
D|--------|--------0---7--9--|-----9-----------9---------------|-----2----------------------------|
A|--------|------------------|---------------------------------|-3--------------------------------|
E|--------|------------------|---------------------------------|----------------------------------|


E|--------|------------------|-0-------------------------------|----------------------------------|
B|--------|------------------|-------------7-----------7--8----|-------------0--1--1----1--0------|
G|--------|--------7---------|---------0-----------0-----------|---------0--------------------0---|
D|--------|--------0---7--9--|-----9-----------9---------------|-----2----------------------------|
A|--------|------------------|---------------------------------|-3--------------------------------|
E|--------|------------------|---------------------------------|----------------------------------|


E|--------|------------------|-0-------------------------------|----------------------------------|
B|--------|------------------|-------------7-----------7--8----|-------------0--1--1----1--0------|
G|--------|--------7---------|---------0-----------0-----------|---------0--------------------0---|
D|--------|--------0---7--9--|-----9-----------9---------------|-----2----------------------------|
A|--------|------------------|---------------------------------|-3--------------------------------|
E|--------|------------------|---------------------------------|----------------------------------|


E|--------|--------|--------|--------|--------|--------|--------|--------|--------|
B|--------|--------|--------|--------|--------|--------|--------|--------|--------|
G|--------|--------|--------|--------|--------|--------|--------|--------|--------|
D|--------|--------|--------|--------|--------|--------|--------|--------|--------|
A|--------|--------|--------|--------|--------|--------|--------|--------|--------|
E|--------|--------|--------|--------|--------|--------|--------|--------|--------|


E|--------|--------|--------|--------|--------|--------|--------|--------|--------|
B|--------|--------|--------|--------|--------|--------|--------|--------|--------|
G|--------|--------|--------|--------|--------|--------|--------|--------|--------|
D|--------|--------|--------|--------|--------|--------|--------|--------|--------|
A|--------|--------|--------|--------|--------|--------|--------|--------|--------|
E|--------|--------|--------|--------|--------|--------|--------|--------|--------|


E|--------|--------|--------|------------------|-0-------------------------------|
B|--------|--------|--------|------------------|-------------7-----------7--8----|
G|--------|--------|--------|--------7---------|---------0-----------0-----------|
D|--------|--------|--------|--------0---7--9--|-----9-----------9---------------|
A|--------|--------|--------|------------------|---------------------------------|
E|--------|--------|--------|------------------|---------------------------------|


E|----------------------------------|--------|------------------|-0-------------------------------|
B|-------------0--1--1----1--0------|--------|------------------|-------------7-----------7--8----|
G|---------0--------------------0---|--------|--------7---------|---------0-----------0-----------|
D|-----2----------------------------|--------|--------0---7--9--|-----9-----------9---------------|
A|-3--------------------------------|--------|------------------|---------------------------------|
E|----------------------------------|--------|------------------|---------------------------------|


E|----------------------------------|--------|------------------|-0-------------------------------|
B|-------------0--1--1----1--0------|--------|------------------|-------------7-----------7--8----|
G|---------0--------------------0---|--------|--------7---------|---------0-----------0-----------|
D|-----2----------------------------|--------|--------0---7--9--|-----9-----------9---------------|
A|-3--------------------------------|--------|------------------|---------------------------------|
E|----------------------------------|--------|------------------|---------------------------------|


E|----------------------------------|--------|--------|--------|--------|--------|
B|-------------0--1--1----1--0------|--------|--------|--------|--------|--------|
G|---------0--------------------0---|--------|--------|--------|--------|--------|
D|-----2----------------------------|--------|--------|--------|--------|--------|
A|-3--------------------------------|--------|--------|--------|--------|--------|
E|----------------------------------|--------|--------|--------|--------|--------|


E|--------|--------|--------|--------|--------|--------|--------|--------|--------|
B|--------|--------|--------|--------|--------|--------|--------|--------|--------|
G|--------|--------|--------|--------|--------|--------|--------|--------|--------|
D|--------|--------|--------|--------|--------|--------|--------|--------|--------|
A|--------|--------|--------|--------|--------|--------|--------|--------|--------|
E|--------|--------|--------|--------|--------|--------|--------|--------|--------|


E|--------|--------|--------|------------------|-0-------------------------------|
B|--------|--------|--------|------------------|-------------7-----------7--8----|
G|--------|--------|--------|--------7---------|---------0-----------0-----------|
D|--------|--------|--------|--------0---7--9--|-----9-----------9---------------|
A|--------|--------|--------|------------------|---------------------------------|
E|--------|--------|--------|------------------|---------------------------------|


E|----------------------------------|--------|------------------|-0-------------------------------|
B|-------------0--1--1----1--0------|--------|------------------|-------------7-----------7--8----|
G|---------0--------------------0---|--------|--------7---------|---------0-----------0-----------|
D|-----2----------------------------|--------|--------0---7--9--|-----9-----------9---------------|
A|-3--------------------------------|--------|------------------|---------------------------------|
E|----------------------------------|--------|------------------|---------------------------------|


E|----------------------------------|--------|--------|--------|--------|--------|
B|-------------0--1--1----1--0------|--------|--------|--------|--------|--------|
G|---------0--------------------0---|--------|--------|--------|--------|--------|
D|-----2----------------------------|--------|--------|--------|--------|--------|
A|-3--------------------------------|--------|--------|--------|--------|--------|
E|----------------------------------|--------|--------|--------|--------|--------|


E|--------|--------|--------|--------|--------|--------|--------|--------|--------|
B|--------|--------|--------|--------|--------|--------|--------|--------|--------|
G|--------|--------|--------|--------|--------|--------|--------|--------|--------|
D|--------|--------|--------|--------|--------|--------|--------|--------|--------|
A|--------|--------|--------|--------|--------|--------|--------|--------|--------|
E|--------|--------|--------|--------|--------|--------|--------|--------|--------|


E|--------|--------|--------|--------|--------|--------|--------|--------|--------|
B|--------|--------|--------|--------|--------|--------|--------|--------|--------|
G|--------|--------|--------|--------|--------|--------|--------|--------|--------|
D|--------|--------|--------|--------|--------|--------|--------|--------|--------|
A|--------|--------|--------|--------|--------|--------|--------|--------|--------|
E|--------|--------|--------|--------|--------|--------|--------|--------|--------|





Track 4: Distortion (fdbk)

E|--------|--------|--------|--------|--------|--------|--------|--------|--------|
B|--------|--------|--------|--------|--------|--------|--------|--------|--------|
G|--------|--------|--------|--------|--------|--------|--------|--------|--------|
D|--------|--------|--------|--------|--------|--------|--------|--------|--------|
A|--------|--------|--------|--------|--------|--------|--------|--------|--------|
E|--------|--------|--------|--------|--------|--------|--------|--------|--------|


E|--------|--------|--------|--------|--------|--------|--------|--------|--------|
B|--------|--------|--------|--------|--------|--------|--------|--------|--------|
G|--------|--------|--------|--------|--------|--------|--------|--------|--------|
D|--------|--------|--------|--------|--------|--------|--------|--------|--------|
A|--------|--------|--------|--------|--------|--------|--------|--------|--------|
E|--------|--------|--------|--------|--------|--------|--------|--------|--------|


E|--------|--------|--------|--------|--------|--------|--------|--------|-------------|
B|--------|--------|--------|--------|--------|--------|--------|--------|-------------|
G|--------|--------|--------|--------|--------|--------|--------|--------|--------0----|
D|--------|--------|--------|--------|--------|--------|--------|--------|-------------|
A|--------|--------|--------|--------|--------|--------|--------|--------|-------------|
E|--------|--------|--------|--------|--------|--------|--------|--------|-------------|


E|-------------|--------|--------|--------|--------|--------|--------|--------|--------|
B|-------------|--------|--------|--------|--------|--------|--------|--------|--------|
G|-0------0----|-0------|-0------|-0------|-0------|--------|--------|--------|--------|
D|-------------|--------|--------|--------|--------|--------|--------|--------|--------|
A|-------------|--------|--------|--------|--------|--------|--------|--------|--------|
E|-------------|--------|--------|--------|--------|--------|--------|--------|--------|


E|--------|--------|--------|--------|--------|--------|--------|--------|--------|
B|--------|--------|--------|--------|--------|--------|--------|--------|--------|
G|--------|--------|--------|--------|--------|--------|--------|--------|--------|
D|--------|--------|--------|--------|--------|--------|--------|--------|--------|
A|--------|--------|--------|--------|--------|--------|--------|--------|--------|
E|--------|--------|--------|--------|--------|--------|--------|--------|--------|


E|--------|--------|--------|--------|--------|--------|--------|--------|--------|
B|--------|--------|--------|--------|--------|--------|--------|--------|--------|
G|--------|--------|--------|--------|--------|--------|--------|--------|--------|
D|--------|--------|--------|--------|--------|--------|--------|--------|--------|
A|--------|--------|--------|--------|--------|--------|--------|--------|--------|
E|--------|--------|--------|--------|--------|--------|--------|--------|--------|


E|--------|--------|--------|--------|-------------|-------------|--------|--------|
B|--------|--------|--------|--------|-------------|-------------|--------|--------|
G|--------|--------|--------|--------|--------0----|-0------0----|-0------|-0------|
D|--------|--------|--------|--------|-------------|-------------|--------|--------|
A|--------|--------|--------|--------|-------------|-------------|--------|--------|
E|--------|--------|--------|--------|-------------|-------------|--------|--------|


E|--------|--------|--------|--------|--------|--------|--------|--------|--------|
B|--------|--------|--------|--------|--------|--------|--------|--------|--------|
G|-0------|-0------|--------|--------|--------|--------|--------|--------|--------|
D|--------|--------|--------|--------|--------|--------|--------|--------|--------|
A|--------|--------|--------|--------|--------|--------|--------|--------|--------|
E|--------|--------|--------|--------|--------|--------|--------|--------|--------|


E|--------|--------|--------|--------|--------|--------|--------|--------|--------|
B|--------|--------|--------|--------|--------|--------|--------|--------|--------|
G|--------|--------|--------|--------|--------|--------|--------|--------|--------|
D|--------|--------|--------|--------|--------|--------|--------|--------|--------|
A|--------|--------|--------|--------|--------|--------|--------|--------|--------|
E|--------|--------|--------|--------|--------|--------|--------|--------|--------|


E|--------|--------|--------|--------|--------|--------|--------|--------|--------|
B|--------|--------|--------|--------|--------|--------|--------|--------|--------|
G|--------|--------|--------|--------|--------|--------|--------|--------|--------|
D|--------|--------|--------|--------|--------|--------|--------|--------|--------|
A|--------|--------|--------|--------|--------|--------|--------|--------|--------|
E|--------|--------|--------|--------|--------|--------|--------|--------|--------|


E|--------|--------|--------|--------|--------|--------|--------|--------|--------|
B|--------|--------|--------|--------|--------|--------|--------|--------|--------|
G|--------|--------|--------|--------|--------|--------|--------|--------|--------|
D|--------|--------|--------|--------|--------|--------|--------|--------|--------|
A|--------|--------|--------|--------|--------|--------|--------|--------|--------|
E|--------|--------|--------|--------|--------|--------|--------|--------|--------|


E|--------|--------|--------|--------|--------|
B|--------|--------|--------|--------|--------|
G|--------|--------|--------|--------|--------|
D|--------|--------|--------|--------|--------|
A|--------|--------|--------|--------|--------|
E|--------|--------|--------|--------|--------|





Track 5: Acoustic

E|--------|--------|--------|--------|--------|--------|--------|--------|--------|
B|--------|--------|--------|--------|--------|--------|--------|--------|--------|
G|--------|--------|--------|--------|--------|--------|--------|--------|--------|
D|--------|--------|--------|--------|--------|--------|--------|--------|--------|
A|--------|--------|--------|--------|--------|--------|--------|--------|--------|
E|--------|--------|--------|--------|--------|--------|--------|--------|--------|


E|--------|--------|--------|--------|--------|--------|--------|--------|--------|
B|--------|--------|--------|--------|--------|--------|--------|--------|--------|
G|--------|--------|--------|--------|--------|--------|--------|--------|--------|
D|--------|--------|--------|--------|--------|--------|--------|--------|--------|
A|--------|--------|--------|--------|--------|--------|--------|--------|--------|
E|--------|--------|--------|--------|--------|--------|--------|--------|--------|


E|--------|--------|--------|--------|--------|--------|--------|--------|--------|
B|--------|--------|--------|--------|--------|--------|--------|--------|--------|
G|--------|--------|--------|--------|--------|--------|--------|--------|--------|
D|--------|--------|--------|--------|--------|--------|--------|--------|--------|
A|--------|--------|--------|--------|--------|--------|--------|--------|--------|
E|--------|--------|--------|--------|--------|--------|--------|--------|--------|


E|--------|--------|--------|--------|--------|-0----0--------0----0--------0---------|
B|--------|--------|--------|--------|--------|-1----1--1--1--1----1--1--1--1---1--1--|
G|--------|--------|--------|--------|--------|-2----2--2--2--2----2--2--2--2---2--2--|
D|--------|--------|--------|--------|--------|-2----2--2--2--2----2--2--2--2---2--2--|
A|--------|--------|--------|--------|--------|-0----0--0--0--0----0--0--0--0---0--0--|
E|--------|--------|--------|--------|--------|---------------------------------------|


E|-3----3--------3----3--------3---------|-3----3--------3----3--------3---------|
B|-3----3--3--3--3----3--3--3--3---3--3--|-3----3--------3----3--------3---------|
G|-0----0--0--0--0----0--0--0--0---0--0--|-0----0--0--0--0----0--0--0--0---0--0--|
D|-2----2--2--2--2----2--2--2--2---2--2--|-0----0--0--0--0----0--0--0--0---0--0--|
A|-3----3--3--3--3----3--3--3--3---3--3--|-2----2--2--2--2----2--2--2--2---2--2--|
E|---------------------------------------|-3----3--3--3--3----3--3--3--3---3--3--|


E|-3----3--------3----3--------3---------|-0----0--------0----0--------0---------|
B|-3----3--------3----3--------3---------|-1----1--1--1--1----1--1--1--1---1--1--|
G|-0----0--0--0--0----0--0--0--0---0--0--|-2----2--2--2--2----2--2--2--2---2--2--|
D|-0----0--0--0--0----0--0--0--0---0--0--|-2----2--2--2--2----2--2--2--2---2--2--|
A|-2----2--2--2--2----2--2--2--2---2--2--|-0----0--0--0--0----0--0--0--0---0--0--|
E|-3----3--3--3--3----3--3--3--3---3--3--|---------------------------------------|


E|-3----3--------3----3--------3---------|-3----3--------3----3--------3---------|
B|-3----3--3--3--3----3--3--3--3---3--3--|-3----3--------3----3--------3---------|
G|-0----0--0--0--0----0--0--0--0---0--0--|-0----0--0--0--0----0--0--0--0---0--0--|
D|-2----2--2--2--2----2--2--2--2---2--2--|-0----0--0--0--0----0--0--0--0---0--0--|
A|-3----3--3--3--3----3--3--3--3---3--3--|-2----2--2--2--2----2--2--2--2---2--2--|
E|---------------------------------------|-3----3--3--3--3----3--3--3--3---3--3--|


E|---------------------------------------------|-------------3----------------|-------------0----2----3---|
B|---------------------------------------------|------------------3-----------|-----3---------------------|
G|-4---4--4--4--4--4--5---5--5--5--5--5--5--5--|----------------------0-------|---------2-----------------|
D|-4---4--4--4--4--4--5---5--5--5--5--5--5--5--|---------0----------------0---|-0-------------------------|
A|-2---2--2--2--2--2--3---3--3--3--3--3--3--3--|-----2------------------------|---------------------------|
E|---------------------------------------------|-3----------------------------|---------------------------|


E|------------------0-----------|------------------0-----------|-------------3----------------|
B|-------------3--------3-------|-------------3--------3-------|------------------3-----------|
G|--------------------------0---|---------0----------------0---|----------------------0-------|
D|---------0--------------------|-----2------------------------|---------0----------------0---|
A|-----2------------------------|-3----------------------------|-----2------------------------|
E|-0----------------------------|------------------------------|-3----------------------------|


E|-------------0----2----3---|------------------0-----------|------------------0-----------|
B|-----3---------------------|-------------3--------3-------|-------------3--------3-------|
G|---------2-----------------|--------------------------0---|---------0----------------0---|
D|-0-------------------------|---------0--------------------|-----2------------------------|
A|---------------------------|-----2------------------------|-3----------------------------|
E|---------------------------|-0----------------------------|------------------------------|


E|-------------3----------------|-------------0----2----3---|------------------0-----------|
B|------------------3-----------|-----3---------------------|-------------3--------3-------|
G|----------------------0-------|---------2-----------------|--------------------------0---|
D|---------0----------------0---|-0-------------------------|---------0--------------------|
A|-----2------------------------|---------------------------|-----2------------------------|
E|-3----------------------------|---------------------------|-0----------------------------|


E|------------------0-----------|-------------3----------------|-------------0----2----3---|
B|-------------3--------3-------|------------------3-----------|-----3---------------------|
G|---------0----------------0---|----------------------0-------|---------2-----------------|
D|-----2------------------------|---------0----------------0---|-0-------------------------|
A|-3----------------------------|-----2------------------------|---------------------------|
E|------------------------------|-3----------------------------|---------------------------|


E|------------------0-----------|------------------0-----------|--------|--------|
B|-------------3--------3-------|-------------3--------3-------|--------|--------|
G|--------------------------0---|---------0----------------0---|--------|--------|
D|---------0--------------------|-----2------------------------|--------|--------|
A|-----2------------------------|-3----------------------------|--------|--------|
E|-0----------------------------|------------------------------|--------|--------|


E|--------|--------|--------|--------|--------|--------|-0----0--------0----0--------0---------|
B|--------|--------|--------|--------|--------|--------|-1----1--1--1--1----1--1--1--1---1--1--|
G|--------|--------|--------|--------|--------|--------|-2----2--2--2--2----2--2--2--2---2--2--|
D|--------|--------|--------|--------|--------|--------|-2----2--2--2--2----2--2--2--2---2--2--|
A|--------|--------|--------|--------|--------|--------|-0----0--0--0--0----0--0--0--0---0--0--|
E|--------|--------|--------|--------|--------|--------|---------------------------------------|


E|-3----3--------3----3--------3---------|-3----3--------3----3--------3---------|
B|-3----3--3--3--3----3--3--3--3---3--3--|-3----3--------3----3--------3---------|
G|-0----0--0--0--0----0--0--0--0---0--0--|-0----0--0--0--0----0--0--0--0---0--0--|
D|-2----2--2--2--2----2--2--2--2---2--2--|-0----0--0--0--0----0--0--0--0---0--0--|
A|-3----3--3--3--3----3--3--3--3---3--3--|-2----2--2--2--2----2--2--2--2---2--2--|
E|---------------------------------------|-3----3--3--3--3----3--3--3--3---3--3--|


E|-3----3--------3----3--------3---------|-0----0--------0----0--------0---------|
B|-3----3--------3----3--------3---------|-1----1--1--1--1----1--1--1--1---1--1--|
G|-0----0--0--0--0----0--0--0--0---0--0--|-2----2--2--2--2----2--2--2--2---2--2--|
D|-0----0--0--0--0----0--0--0--0---0--0--|-2----2--2--2--2----2--2--2--2---2--2--|
A|-2----2--2--2--2----2--2--2--2---2--2--|-0----0--0--0--0----0--0--0--0---0--0--|
E|-3----3--3--3--3----3--3--3--3---3--3--|---------------------------------------|


E|-3----3--------3----3--------3---------|-3----3--------3----3--------3---------|
B|-3----3--3--3--3----3--3--3--3---3--3--|-3----3--------3----3--------3---------|
G|-0----0--0--0--0----0--0--0--0---0--0--|-0----0--0--0--0----0--0--0--0---0--0--|
D|-2----2--2--2--2----2--2--2--2---2--2--|-0----0--0--0--0----0--0--0--0---0--0--|
A|-3----3--3--3--3----3--3--3--3---3--3--|-2----2--2--2--2----2--2--2--2---2--2--|
E|---------------------------------------|-3----3--3--3--3----3--3--3--3---3--3--|


E|---------------------------------------------|--------|--------|--------|--------|
B|---------------------------------------------|--------|--------|--------|--------|
G|-4---4--4--4--4--4--5---5--5--5--5--5--5--5--|--------|--------|--------|--------|
D|-4---4--4--4--4--4--5---5--5--5--5--5--5--5--|--------|--------|--------|--------|
A|-2---2--2--2--2--2--3---3--3--3--3--3--3--3--|--------|--------|--------|--------|
E|---------------------------------------------|--------|--------|--------|--------|


E|--------|--------|--------|--------|-3-------------------3-----------|-----------------0---------------|
B|--------|--------|--------|--------|-----3---0-------3-------3-------|-3-------3-----------3-------3---|
G|--------|--------|--------|--------|-------------0---------------0---|-----2-------2-----------2-------|
D|--------|--------|--------|--------|---------------------------------|---------------------------------|
A|--------|--------|--------|--------|---------------------------------|---------------------------------|
E|--------|--------|--------|--------|---------------------------------|---------------------------------|


E|---------0-----------0-----------|-----0-----------------0-----------|-3-------------------3-----------|
B|-----0-----------0---------------|-1-----------0--1----------1-------|-----3---0-------3-------3-------|
G|-------------0---------------0---|---------0---------0-----------0---|-------------0---------------0---|
D|-2-----------------------2-------|-----------------------------------|---------------------------------|
A|---------------------------------|-----------------------------------|---------------------------------|
E|---------------------------------|-----------------------------------|---------------------------------|


E|-----------------0---------------|---------0-----------0-----------|-----0-----------------0-----------|
B|-3-------3-----------3-------3---|-----0-----------0---------------|-1-----------0--1----------1-------|
G|-----2-------2-----------2-------|-------------0---------------0---|---------0---------0-----------0---|
D|---------------------------------|-2-----------------------2-------|-----------------------------------|
A|---------------------------------|---------------------------------|-----------------------------------|
E|---------------------------------|---------------------------------|-----------------------------------|


E|-3-------------------3-----------|-----------------0---------------|---------0-----------0-----------|
B|-----3---0-------3-------3-------|-3-------3-----------3-------3---|-----0-----------0---------------|
G|-------------0---------------0---|-----2-------2-----------2-------|-------------0---------------0---|
D|---------------------------------|---------------------------------|-2-----------------------2-------|
A|---------------------------------|---------------------------------|---------------------------------|
E|---------------------------------|---------------------------------|---------------------------------|


E|-----0-----------------0-----------|-3-------------------3-----------|-----------------0---------------|
B|-1-----------0--1----------1-------|-----3---0-------3-------3-------|-3-------3-----------3-------3---|
G|---------0---------0-----------0---|-------------0---------------0---|-----2-------2-----------2-------|
D|-----------------------------------|---------------------------------|---------------------------------|
A|-----------------------------------|---------------------------------|---------------------------------|
E|-----------------------------------|---------------------------------|---------------------------------|


E|---------0-----------0-----------|-----0-----------------0-----------|---------0-----------0-------0---|
B|-----0-----------0---------------|-1-----------0--1----------1-------|-----0-----------0-------0-------|
G|-------------0---------------0---|---------0---------0-----------0---|-------------0-------------------|
D|-2-----------------------2-------|-----------------------------------|-2-------------------------------|
A|---------------------------------|-----------------------------------|---------------------------------|
E|---------------------------------|-----------------------------------|---------------------------------|


E|-----0-----------------0-----------|---------0-----------0-------0---|-----0-----------------0-----------|
B|-1-----------0--1----------1-------|-----0-----------0-------0-------|-1-----------0--1----------1-------|
G|-0-------0---------0-----------0---|-------------0-------------------|-0-------0---------0-----------0---|
D|-----------------------------------|-2-------------------------------|-----------------------------------|
A|-----------------------------------|---------------------------------|-----------------------------------|
E|-----------------------------------|---------------------------------|-----------------------------------|


E|---------0-----------0-------0---|-----0-----------------0-----------|-3------|
B|-----0-----------0-------0-------|-1-----------0--1----------1-------|-3------|
G|-------------0-------------------|-0-------0---------0-----------0---|-0------|
D|-2-------------------------------|-----------------------------------|-0------|
A|---------------------------------|-----------------------------------|-2------|
E|---------------------------------|-----------------------------------|-3------|





Track 6: Bass

G|--------|--------|--------|--------|--------|--------|--------|--------|--------|
D|--------|--------|--------|--------|--------|--------|--------|--------|--------|
A|--------|--------|--------|--------|--------|--------|--------|--------|--------|
E|--------|--------|--------|--------|--------|--------|--------|--------|--------|


G|--------|--------|--------|--------|--------|--------|--------|--------|--------|
D|--------|--------|--------|--------|--------|--------|--------|--------|--------|
A|--------|--------|--------|--------|--------|--------|--------|--------|-5------|
E|--------|--------|--------|--------|--------|--------|--------|-3------|--------|


G|--------|--------|--------|--------|--------|----------------|-------------------------|
D|--------|--------|--------|--------|--------|----------------|-------12---10---9---10--|
A|--------|-3------|--------|-5------|--------|-3------3---3---|-10----------------------|
E|-0------|--------|-3------|--------|-0------|----------------|-------------------------|


G|-------------------------|-------4-----------------|-------------5---4---|-------------------------|
D|-------7----5----4---5---|------------7----5---4---|---------------------|-------12---10---9---10--|
A|-5-----------------------|-7-----------------------|-3-----3-------------|-10----------------------|
E|-------------------------|-------------------------|---------------------|-------------------------|


G|-------------------------|-------4----------------|----------------|--------------------------|
D|-------7----5----4---5---|------------7---5---4---|----------------|------------------5---7---|
A|-5-----------------------|-7----------------------|-3------3---2---|------------5--7----------|
E|-------------------------|------------------------|----------------|-5-----5------------------|


G|-------------------------|-----------------|--------------------------|--------------------------|
D|------------5--------5---|-----------------|--------------------------|------------------5---7---|
A|-3-----3---------3-------|-----------------|------------------3---5---|------------5--7----------|
E|-------------------------|-3-----3-----0---|-3-----3----3--5----------|-5-----5------------------|


G|---------------------------|------------------------|-----------------|--------|
D|------------5--5-------5---|------------------------|-----------------|--------|
A|-3-----3-----------3-------|------------------------|-2-----3-----3---|--------|
E|---------------------------|-3-----3----3---3---3---|-----------------|-3------|


G|--------|--------|------------|--------|--------|--------|------------|--------|
D|--------|--------|------------|--------|--------|--------|------------|--------|
A|--------|--------|-3------2---|--------|-5------|--------|-3------2---|--------|
E|-2------|-0------|------------|-3------|--------|-0------|------------|-3------|


G|--------|--------|--------|--------|--------|--------|-------------|-------------------------|
D|--------|--------|--------|--------|--------|--------|-------------|-------12---10---9---10--|
A|--------|--------|-3------|--------|-5------|--------|-3------3----|-10----------------------|
E|-2------|-0------|--------|-3------|--------|-0------|-------------|-------------------------|


G|-------------------------|-------4-----------------|-------------5---4---|-------------------------|
D|-------7----5----4---5---|------------7----5---4---|---------------------|-------12---10---9---10--|
A|-5-----------------------|-7-----------------------|-3-----3-------------|-10----------------------|
E|-------------------------|-------------------------|---------------------|-------------------------|


G|-------------------------|-------4----------------|----------------|--------------------------|
D|-------7----5----4---5---|------------7---5---4---|----------------|------------------5---7---|
A|-5-----------------------|-7----------------------|-3------3---2---|------------5--7----------|
E|-------------------------|------------------------|----------------|-5-----5------------------|


G|-------------------------|-----------------|--------------------------|--------------------------|
D|------------5--------5---|-----------------|--------------------------|------------------5---7---|
A|-3-----3---------3-------|-----------------|------------------3---5---|------------5--7----------|
E|-------------------------|-3-----3-----0---|-3-----3----3--5----------|-5-----5------------------|


G|---------------------------|------------------------|-----------------|--------|
D|------------5--5-------5---|------------------------|-----------------|--------|
A|-3-----3-----------3-------|------------------------|-2-----3-----3---|--------|
E|---------------------------|-3-----3----3---3---3---|-----------------|-3------|


G|--------|--------|--------|--------|--------|--------|-----------------------------------|
D|--------|--------|--------|--------|--------|--------|-----------------------------------|
A|-5------|--------|-3------|--------|--------|--------|-3---3---3---3---3---3---3---3--3--|
E|--------|-0------|--------|-3------|-2------|-0------|-----------------------------------|


G|-----------------------------------------|-----------------------------------------|
D|-----------------------------------------|-----------------------------------------|
A|-----------------------------------------|-5---5--5--5--5--5---5---5--5--5---5--5--|
E|-3---3--3--3---3---3---3--3--3--3--3--3--|-----------------------------------------|


G|-------------------------------------|---------------------------------------|-----------------------------------------|
D|-------------------------------------|---------------------------------------|-----------------------------------------|
A|-7---7---7--7--7---7---7--7--7---7---|-3---3--3--3---3---3---3--3--3---3--3--|-----------------------------------------|
E|-------------------------------------|---------------------------------------|-3---3--3--3---3---3---3--3--3--3--3--3--|


G|-----------------------------------------|-------------------------------------|
D|-----------------------------------------|-------------------------------------|
A|-5---5--5--5--5--5---5---5--5--5---5--5--|-7---7---7--7--7---7---7--7--7---7---|
E|-----------------------------------------|-------------------------------------|


G|---------------------------------------|-----------------------------------------|
D|---------------------------------------|-----------------------------------------|
A|-3---3--3--3---3---3---3--3--3---3--3--|-----------------------------------------|
E|---------------------------------------|-3---3--3--3---3---3---3--3--3--3--3--3--|


G|-----------------------------------------|-------------------------------------|
D|-----------------------------------------|-------------------------------------|
A|-5---5--5--5--5--5---5---5--5--5---5--5--|-7---7---7--7--7---7---7--7--7---7---|
E|-----------------------------------------|-------------------------------------|


G|---------------------------------------|-----------------------------------------|
D|---------------------------------------|-----------------------------------------|
A|-3---3--3--3---3---3---3--3--3---3--3--|-----------------------------------------|
E|---------------------------------------|-3---3--3--3---3---3---3--3--3--3--3--3--|


G|-----------------------------------------|-------------------------------------|
D|-----------------------------------------|-------------------------------------|
A|-5---5--5--5--5--5---5---5--5--5---5--5--|-7---7---7--7--7---7---7--7--7---7---|
E|-----------------------------------------|-------------------------------------|


G|---------------------------------------|--------------------------------|--------------------------------|
D|---------------------------------------|--------------------------------|--------------------------------|
A|-3---3--3--3---3---3---3--3--3---3--3--|------------------------5---7---|-3----3--3---3----3--3--3---3---|
E|---------------------------------------|-0----0--0---0----5--7----------|--------------------------------|


G|--------------------------------|--------------------------------|--------------------------------|
D|--------------------------------|--------------------------------|--------------------------------|
A|------------------------5---7---|-3----3--3---3----3--3--3---3---|------------------------5---7---|
E|-0----0--0---0----5--7----------|--------------------------------|-0----0--0---0----5--7----------|


G|--------------------------------|--------|
D|--------------------------------|--------|
A|-3----3--3---3----3--3--3---3---|--------|
E|--------------------------------|-3------|