Site menu:

    

Browse: 0-9 A B C D E F G H I J K L N O P Q R S T U V W X Y Z

2pac - thugs mansion acoustic:



Title: Thugs Mansion (acoustic version)
Artist: 
Album: Better Days
Author: 


Track 1: main guitar

E|---------------------------|-----------------------|---------------------------|
B|---------------------------|-----4---4---4-----4---|-2---2-----4---6-----6-----|
G|-----5---5---5----5--------|-----5---5---5-----5---|-3---3-----5---6-----6-----|
D|-----6---6---6----6--------|-----5---5---5-----5---|-3---3-----5---6-----6-----|
A|-----6---6---6----6----6---|-3---------------------|-1---1--3------4-----4--1--|
E|-4---------------------4---|-----------------------|---------------------------|


E|---------------6-----6---|---------------------------|-----------------------|---------------------------|
B|-2---2--4------6-----6---|---------------------------|-----4---4---4-----4---|-2---2-----4---6-----6-----|
G|-3---3--5------6-----6---|-----5---5---5----5--------|-----5---5---5-----5---|-3---3-----5---6-----6-----|
D|-3---3--5------6-----6---|-----6---6---6----6--------|-----5---5---5-----5---|-3---3-----5---6-----6-----|
A|--------3------4-----4---|-----6---6---6----6----6---|-3---------------------|-1---1--3------4-----4--1--|
E|-------------------------|-4---------------------4---|-----------------------|---------------------------|


E|---------------6-----6---|---------------------------|-----------------------|---------------------------|
B|-2---2--4------6-----6---|---------------------------|-----4---4---4-----4---|-2---2-----4---6-----6-----|
G|-3---3--5------6-----6---|-----5---5---5----5--------|-----5---5---5-----5---|-3---3-----5---6-----6-----|
D|-3---3--5------6-----6---|-----6---6---6----6--------|-----5---5---5-----5---|-3---3-----5---6-----6-----|
A|--------3------4-----4---|-----6---6---6----6----6---|-3---------------------|-1---1--3------4-----4--1--|
E|-------------------------|-4---------------------4---|-----------------------|---------------------------|


E|---------------6-----6---|---------------------------|--------------------------------|
B|-2---2--4------6-----6---|---------------------------|-----4---4---4--------4---------|
G|-3---3--5------6-----6---|-----5---5---5----5--------|-----5---5---5--------5---5--5--|
D|-3---3--5------6-----6---|-----6---6---6----6--------|-----5---5---5--------5---5--5--|
A|--------3------4-----4---|-----6---6---6----6----6---|-3----------------3-------3--3--|
E|-------------------------|-4---------------------4---|--------------------------------|


E|---------------------------|---------------6-----6---|---------------------------|
B|-2---2-----4---6-----6-----|-2---2--4------6-----6---|---------------------------|
G|-3---3-----5---6-----6-----|-3---3--5------6-----6---|-----5---5---5----5--------|
D|-3---3-----5---6-----6-----|-3---3--5------6-----6---|-----6---6---6----6--------|
A|-1---1--3------4-----4--1--|--------3------4-----4---|-----6---6---6----6----6---|
E|---------------------------|-------------------------|-4---------------------4---|


E|--------------------------------|--------------------------------|---------------6-----6---|
B|-----4---4---4--------4---------|-2---2-----4---6----6---6-------|-2---2--4------6---------|
G|-----5---5---5--------5---5--5--|-3---3-----5---6----6---6-------|-3---3--5------6---------|
D|-----5---5---5--------5---5--5--|-3---3-----5---6----6---6-------|-3---3--5------6---------|
A|-3----------------3-------3--3--|-1---1--3------4----4---4----1--|--------3------4-----4---|
E|--------------------------------|--------------------------------|-------------------------|


E|---------------------------|--------------------------------|---------------------------|
B|---------------------------|-----4---4---4--------4---------|-2---2-----4---6-----6-----|
G|-----5---5---5----5--------|-----5---5---5--------5---5--5--|-3---3-----5---6-----6-----|
D|-----6---6---6----6--------|-----5---5---5--------5---5--5--|-3---3-----5---6-----6-----|
A|-----6---6---6----6----6---|-3----------------3-------3--3--|-1---1--3------4-----4--1--|
E|-4---------------------4---|--------------------------------|---------------------------|


E|---------------6-----6---|---------------------------|--------------------------------|
B|-2---2--4------6-----6---|---------------------------|-----4---4---4--------4---------|
G|-3---3--5------6-----6---|-----5---5---5----5--------|-----5---5---5--------5---5--5--|
D|-3---3--5------6-----6---|-----6---6---6----6--------|-----5---5---5--------5---5--5--|
A|--------3------4-----4---|-----6---6---6----6----6---|-3----------------3-------3--3--|
E|-------------------------|-4---------------------4---|--------------------------------|


E|---------------------------|---------------6-----6---|---------------------------|
B|-2---2-----4---6-----6-----|-2---2--4------6-----6---|---------------------------|
G|-3---3-----5---6-----6-----|-3---3--5------6-----6---|-----5---5---5----5--------|
D|-3---3-----5---6-----6-----|-3---3--5------6-----6---|-----6---6---6----6--------|
A|-1---1--3------4-----4--1--|--------3------4-----4---|-----6---6---6----6----6---|
E|---------------------------|-------------------------|-4---------------------4---|


E|--------------------------------|---------------------------|---------------6-----6---|
B|-----4---4---4--------4---------|-2---2-----4---6-----6-----|-2---2--4------6-----6---|
G|-----5---5---5--------5---5--5--|-3---3-----5---6-----6-----|-3---3--5------6-----6---|
D|-----5---5---5--------5---5--5--|-3---3-----5---6-----6-----|-3---3--5------6-----6---|
A|-3----------------3-------3--3--|-1---1--3------4-----4--1--|--------3------4-----4---|
E|--------------------------------|---------------------------|-------------------------|


E|---------------------------|--------------------------------|---------------------------|
B|---------------------------|-----4---4---4--------4---------|-2---2-----4---6-----6-----|
G|-----5---5---5----5--------|-----5---5---5--------5---5--5--|-3---3-----5---6-----6-----|
D|-----6---6---6----6--------|-----5---5---5--------5---5--5--|-3---3-----5---6-----6-----|
A|-----6---6---6----6----6---|-3----------------3-------3--3--|-1---1--3------4-----4--1--|
E|-4---------------------4---|--------------------------------|---------------------------|


E|---------------6-----6---|---------------------------|--------------------------------|
B|-2---2--4------6-----6---|---------------------------|-----4---4---4--------4---------|
G|-3---3--5------6-----6---|-----5---5---5----5--------|-----5---5---5--------5---5--5--|
D|-3---3--5------6-----6---|-----6---6---6----6--------|-----5---5---5--------5---5--5--|
A|--------3------4-----4---|-----6---6---6----6----6---|-3----------------3-------3--3--|
E|-------------------------|-4---------------------4---|--------------------------------|


E|---------------------------|---------------6-----6---|---------------------------|
B|-2---2-----4---6-----6-----|-2---2--4------6-----6---|---------------------------|
G|-3---3-----5---6-----6-----|-3---3--5------6-----6---|-----5---5---5----5--------|
D|-3---3-----5---6-----6-----|-3---3--5------6-----6---|-----6---6---6----6--------|
A|-1---1--3------4-----4--1--|--------3------4-----4---|-----6---6---6----6----6---|
E|---------------------------|-------------------------|-4---------------------4---|


E|--------------------------------|---------------------------|---------------6-----6---|
B|-----4---4---4--------4---------|-2---2-----4---6-----6-----|-2---2--4------6-----6---|
G|-----5---5---5--------5---5--5--|-3---3-----5---6-----6-----|-3---3--5------6-----6---|
D|-----5---5---5--------5---5--5--|-3---3-----5---6-----6-----|-3---3--5------6-----6---|
A|-3----------------3-------3--3--|-1---1--3------4-----4--1--|--------3------4-----4---|
E|--------------------------------|---------------------------|-------------------------|


E|---------------------------|--------------------------------|---------------------------|
B|---------------------------|-----4---4---4--------4---------|-2---2-----4---6-----6-----|
G|-----5---5---5----5--------|-----5---5---5--------5---5--5--|-3---3-----5---6-----6-----|
D|-----6---6---6----6--------|-----5---5---5--------5---5--5--|-3---3-----5---6-----6-----|
A|-----6---6---6----6----6---|-3----------------3-------3--3--|-1---1--3------4-----4--1--|
E|-4---------------------4---|--------------------------------|---------------------------|


E|---------------6-----6---|---------------------------|--------------------------------|
B|-2---2--4------6-----6---|---------------------------|-----4---4---4--------4---------|
G|-3---3--5------6-----6---|-----5---5---5----5--------|-----5---5---5--------5---5--5--|
D|-3---3--5------6-----6---|-----6---6---6----6--------|-----5---5---5--------5---5--5--|
A|--------3------4-----4---|-----6---6---6----6----6---|-3----------------3-------3--3--|
E|-------------------------|-4---------------------4---|--------------------------------|


E|---------------------------|---------------6-----6---|---------------------------|
B|-2---2-----4---6-----6-----|-2---2--4------6-----6---|---------------------------|
G|-3---3-----5---6-----6-----|-3---3--5------6-----6---|-----5---5---5----5--------|
D|-3---3-----5---6-----6-----|-3---3--5------6-----6---|-----6---6---6----6--------|
A|-1---1--3------4-----4--1--|--------3------4-----4---|-----6---6---6----6----6---|
E|---------------------------|-------------------------|-4---------------------4---|


E|--------------------------------|---------------------------|---------------6-----6---|
B|-----4---4---4--------4---------|-2---2-----4---6-----6-----|-2---2--4------6-----6---|
G|-----5---5---5--------5---5--5--|-3---3-----5---6-----6-----|-3---3--5------6-----6---|
D|-----5---5---5--------5---5--5--|-3---3-----5---6-----6-----|-3---3--5------6-----6---|
A|-3----------------3-------3--3--|-1---1--3------4-----4--1--|--------3------4-----4---|
E|--------------------------------|---------------------------|-------------------------|


E|---------------------------|--------------------------------|---------------------------|
B|---------------------------|-----4---4---4--------4---------|-2---2-----4---6-----6-----|
G|-----5---5---5----5--------|-----5---5---5--------5---5--5--|-3---3-----5---6-----6-----|
D|-----6---6---6----6--------|-----5---5---5--------5---5--5--|-3---3-----5---6-----6-----|
A|-----6---6---6----6----6---|-3----------------3-------3--3--|-1---1--3------4-----4--1--|
E|-4---------------------4---|--------------------------------|---------------------------|


E|---------------6-----6---|---------------------------|--------------------------------|
B|-2---2--4------6-----6---|---------------------------|-----4---4---4--------4---------|
G|-3---3--5------6-----6---|-----5---5---5----5--------|-----5---5---5--------5---5--5--|
D|-3---3--5------6-----6---|-----6---6---6----6--------|-----5---5---5--------5---5--5--|
A|--------3------4-----4---|-----6---6---6----6----6---|-3----------------3-------3--3--|
E|-------------------------|-4---------------------4---|--------------------------------|


E|---------------------------|---------------6-----6---|---------------------------|
B|-2---2-----4---6-----6-----|-2---2--4------6-----6---|---------------------------|
G|-3---3-----5---6-----6-----|-3---3--5------6-----6---|-----5---5---5----5--------|
D|-3---3-----5---6-----6-----|-3---3--5------6-----6---|-----6---6---6----6--------|
A|-1---1--3------4-----4--1--|--------3------4-----4---|-----6---6---6----6----6---|
E|---------------------------|-------------------------|-4---------------------4---|


E|--------------------------------|---------------------------|---------------6-----6---|
B|-----4---4---4--------4---------|-2---2-----4---6-----6-----|-2---2--4------6-----6---|
G|-----5---5---5--------5---5--5--|-3---3-----5---6-----6-----|-3---3--5------6-----6---|
D|-----5---5---5--------5---5--5--|-3---3-----5---6-----6-----|-3---3--5------6-----6---|
A|-3----------------3-------3--3--|-1---1--3------4-----4--1--|--------3------4-----4---|
E|--------------------------------|---------------------------|-------------------------|


E|---------------------------|--------------------------------|---------------------------|
B|---------------------------|-----4---4---4--------4---------|-2---2-----4---6-----6-----|
G|-----5---5---5----5--------|-----5---5---5--------5---5--5--|-3---3-----5---6-----6-----|
D|-----6---6---6----6--------|-----5---5---5--------5---5--5--|-3---3-----5---6-----6-----|
A|-----6---6---6----6----6---|-3----------------3-------3--3--|-1---1--3------4-----4--1--|
E|-4---------------------4---|--------------------------------|---------------------------|


E|---------------6-----6---|---------------------------|--------------------------------|
B|-2---2--4------6-----6---|---------------------------|-----4---4---4--------4---------|
G|-3---3--5------6-----6---|-----5---5---5----5--------|-----5---5---5--------5---5--5--|
D|-3---3--5------6-----6---|-----6---6---6----6--------|-----5---5---5--------5---5--5--|
A|--------3------4-----4---|-----6---6---6----6----6---|-3----------------3-------3--3--|
E|-------------------------|-4---------------------4---|--------------------------------|


E|---------------------------|---------------6-----6---|---------------------------|
B|-2---2-----4---6-----6-----|-2---2--4------6-----6---|---------------------------|
G|-3---3-----5---6-----6-----|-3---3--5------6-----6---|-----5---5---5----5--------|
D|-3---3-----5---6-----6-----|-3---3--5------6-----6---|-----6---6---6----6--------|
A|-1---1--3------4-----4--1--|--------3------4-----4---|-----6---6---6----6----6---|
E|---------------------------|-------------------------|-4---------------------4---|


E|--------------------------------|---------------------------|---------------6-----6---|
B|-----4---4---4--------4---------|-2---2-----4---6-----6-----|-2---2--4------6-----6---|
G|-----5---5---5--------5---5--5--|-3---3-----5---6-----6-----|-3---3--5------6-----6---|
D|-----5---5---5--------5---5--5--|-3---3-----5---6-----6-----|-3---3--5------6-----6---|
A|-3----------------3-------3--3--|-1---1--3------4-----4--1--|--------3------4-----4---|
E|--------------------------------|---------------------------|-------------------------|


E|---------------------------|--------------------------------|---------------------------|
B|---------------------------|-----4---4---4--------4---------|-2---2-----4---6-----6-----|
G|-----5---5---5----5--------|-----5---5---5--------5---5--5--|-3---3-----5---6-----6-----|
D|-----6---6---6----6--------|-----5---5---5--------5---5--5--|-3---3-----5---6-----6-----|
A|-----6---6---6----6----6---|-3----------------3-------3--3--|-1---1--3------4-----4--1--|
E|-4---------------------4---|--------------------------------|---------------------------|


E|---------------6-----6---|---------------------------|--------------------------------|
B|-2---2--4------6-----6---|---------------------------|-----4---4---4--------4---------|
G|-3---3--5------6-----6---|-----5---5---5----5--------|-----5---5---5--------5---5--5--|
D|-3---3--5------6-----6---|-----6---6---6----6--------|-----5---5---5--------5---5--5--|
A|--------3------4-----4---|-----6---6---6----6----6---|-3----------------3-------3--3--|
E|-------------------------|-4---------------------4---|--------------------------------|


E|---------------------------|---------------6-----6---|---------------------------|
B|-2---2-----4---6-----6-----|-2---2--4------6-----6---|---------------------------|
G|-3---3-----5---6-----6-----|-3---3--5------6-----6---|-----5---5---5----5--------|
D|-3---3-----5---6-----6-----|-3---3--5------6-----6---|-----6---6---6----6--------|
A|-1---1--3------4-----4--1--|--------3------4-----4---|-----6---6---6----6----6---|
E|---------------------------|-------------------------|-4---------------------4---|


E|--------------------------------|
B|-----4---4---4--------4---------|
G|-----5---5---5--------5---5--5--|
D|-----5---5---5--------5---5--5--|
A|-3----------------3-------3--3--|
E|--------------------------------|





Track 2: fills

E|---------------------------|---------------------6--4-----4--|-4--------------------|
B|---------------------------|---------------4--6--------6-----|-----------4--6--4----|
G|-----------6--5------------|---------------------------------|----------------------|
D|-----------------6---------|---------------------------------|----------------------|
A|--------------------6------|---------------------------------|----------------------|
E|-----------------------4---|-4-------------------------------|----------------------|


E|-------------------------------|----------4-6-4--------------4--|-3--------1-3-1-------6--8--8--9--|
B|-4-------------------5---5-----|-----------------4--6--4--6-----|-----4-----------4----------------|
G|---------------6--5--------5---|--------------------------------|----------------------------------|
D|-------------------------------|--------------------------------|----------------------------------|
A|-------------------------------|--------------------------------|----------------------------------|
E|-------------------------------|--------------------------------|----------------------------------|


E|-9--------------|-----------------6----|--------|-----3-4-3----------3-4-3--------3-4-3--------|
B|----------------|----------------------|--------|------------4--------------4------------------|
G|----------------|----------------------|--------|-----------------5------------5---------3--5--|
D|----------------|-----------6--8-------|--------|----------------------------------------------|
A|----------------|----------------------|--------|----------------------------------------------|
E|----------------|----------------------|--------|----------------------------------------------|


E|--------|-------------6-----4--3--------|-----------------4--6--6--8--|-8----------------------|
B|--------|-------------------------4-----|--------------4--------------|------------4-6-4-------|
G|--------|----------------5-----------5--|-5---------------------------|------------------5---5-|
D|--------|-------6--8--------------------|-----------------------------|------------------------|
A|--------|-------------------------------|-----------------------------|------------------------|
E|--------|-------------------------------|-----------------------------|------------------------|


E|--------|-----------------6-------|--------|--------------3-4-3--------3-3-|--------|
B|--------|-------------------------|--------|---------------------4---------|--------|
G|--------|---------------------8---|--------|-----------5------------5------|--------|
D|--------|-----------6--8----------|--------|-------------------------------|--------|
A|--------|-------------------------|--------|-------------------------------|--------|
E|--------|-------------------------|--------|-------------------------------|--------|


E|-------------6-----------|----------4-6-4--------------4--|-3--------1-3-1------------|
B|---------------------6---|-----------------4--6--4--6-----|-----4-----------4---------|
G|-----------------6-------|--------------------------------|---------------------------|
D|-------6--8--------------|--------------------------------|---------------------------|
A|-------------------------|--------------------------------|---------------------------|
E|-------------------------|--------------------------------|---------------------------|


E|--------|-------------6-------------|----------4-6-4--------------4--|-3------------------|
B|--------|---------------------------|-----------------4--6--4--6-----|-----4--------------|
G|--------|-----------------6--8--9---|--------------------------------|--------------------|
D|--------|-------6--8----------------|--------------------------------|--------------------|
A|--------|---------------------------|--------------------------------|--------------------|
E|--------|---------------------------|--------------------------------|--------------------|


E|--------|-------------6-------------|-----------4-6-4--4-------|-----------3-4-3------------|
B|--------|---------------------------|--------------------------|------------------4---------|
G|--------|-----------------6--8--9---|--------------------------|----------------------3--5--|
D|--------|-------6--8----------------|--------------------------|----------------------------|
A|--------|---------------------------|--------------------------|----------------------------|
E|--------|---------------------------|--------------------------|----------------------------|


E|--------|-------------6-----|-----------4-6-4--4-------|-----------3-4-3-------|
B|--------|-------------------|--------------------------|------------------4----|
G|--------|-------------------|--------------------------|-----------------------|
D|--------|-------6--8--------|--------------------------|-----------------------|
A|--------|-------------------|--------------------------|-----------------------|
E|--------|-------------------|--------------------------|-----------------------|


E|----------------------|----------6--------4-----------|--------------4-6-4--------------4--|
B|-----------------9----|-------------6--------------6--|-6-------------------4--6--4--6-----|
G|-----------6--8-------|----------------6-----6--------|------------------------------------|
D|----------------------|-------6-----------------6-----|------------------------------------|
A|----------------------|-------------------------------|------------------------------------|
E|----------------------|-------------------------------|------------------------------------|


E|-3-----------------------------|--------|-------------6-----6----|----------4-6-4--------|
B|-----4--------4-6-4------------|--------|------------------------|-----------------------|
G|--------------------5---5------|--------|------------------------|-----------------------|
D|-------------------------------|--------|-------6--8-----8-------|-----------------------|
A|-------------------------------|--------|------------------------|-----------------------|
E|-------------------------------|--------|------------------------|-----------------------|


E|-------3-4-3-------------6---|-4-----------|-----4--3--1-------------|--------------------------|
B|--------------4-6-4--4-------|-------------|---------------4-----4---|-----------4-6-4--4-------|
G|-----------------------------|-------------|-------------------------|----------------------3---|
D|-----------------------------|-------------|-------------------------|--------------------------|
A|-----------------------------|-------------|-------------------------|--------------------------|
E|-----------------------------|-------------|-------------------------|--------------------------|


E|-------3-4-3--------|--------|-------------6-----6----|----------4-6-4--------------4--|
B|--------------4-----|--------|------------------------|-----------------4--6--4--6-----|
G|-5------------------|--------|------------------------|--------------------------------|
D|--------------------|--------|-------6--8-----8-------|--------------------------------|
A|--------------------|--------|------------------------|--------------------------------|
E|--------------------|--------|------------------------|--------------------------------|


E|-3-------------3-4-3-------|-------4-6-4-----------|----------------------6------------|
B|-----4---------------------|--------------6---6----|-----2-4-2--------------------6----|
G|---------------------------|-----------------------|------------3----------------------|
D|---------------------------|-----------------------|----------------6--8------6--------|
A|---------------------------|-----------------------|-----------------------------------|
E|---------------------------|-----------------------|-----------------------------------|


E|-----------4-6-4--4-------|-----------3-4-3------------|--------|-------------6-----6----|
B|--------------------------|------------------4---------|--------|------------------------|
G|--------------------------|----------------------3--5--|--------|------------------------|
D|--------------------------|----------------------------|--------|-------6--8-----8-------|
A|--------------------------|----------------------------|--------|------------------------|
E|--------------------------|----------------------------|--------|------------------------|


E|-------4-6-4--4---------------|---------------------------------|--------|-------4--3------6---6---|
B|--------------------------4---|-4---------4-6--4-4---3-4-3------|--------|-------------4-----------|
G|--------------------3--5------|-----------------------------3---|--------|-------------------------|
D|-----------------6------------|---------------------------------|--------|-------------------------|
A|------------------------------|---------------------------------|--------|-------------------------|
E|------------------------------|---------------------------------|--------|-------------------------|


E|-8----8----------|--------------------------|--------|-------------6-------------|
B|-----------------|-----------4-6-4--4-------|--------|-------------------5-------|
G|-----------------|--------------------------|--------|-----------------------6---|
D|-----------------|--------------------------|--------|-------6--8-----8----------|
A|-----------------|--------------------------|--------|---------------------------|
E|-----------------|--------------------------|--------|---------------------------|


E|-------4-6-4--4----------|----------3--4--5--6--6------|-------------4--------|-------------6-------------|
B|-------------------------|-----------------------------|-------2--4-----------|-------------------5-------|
G|-------------------------|-----------------------------|----------------------|-----------------------6---|
D|-------------------6--8--|-----------------------------|----------------------|-------6--8-----8----------|
A|-------------------------|-----------------------------|----------------------|---------------------------|
E|-------------------------|-----------------------------|----------------------|---------------------------|


E|-------4-6-4--4----------|-------3-4-3--------------|-------------4--3--|-1----1----------6-------------|
B|-------------------------|--------------4-6-4--4----|-------------------|-------------------------------|
G|-------------------------|--------------------------|-------------------|---------------------6--8--9---|
D|-------------------6--8--|--------------------------|-------------------|-----------6--8----------------|
A|-------------------------|--------------------------|-------------------|-------------------------------|
E|-------------------------|--------------------------|-------------------|-------------------------------|


E|-------4-6-4--4--------|-------3-4-3--------------|--------|-------------6-------------|
B|-----------------------|--------------4-6-4--4----|--------|-------------------5-------|
G|-----------------------|--------------------------|--------|-----------------------6---|
D|-----------------------|--------------------------|--------|-------6--8-----8----------|
A|-----------------------|--------------------------|--------|---------------------------|
E|-----------------------|--------------------------|--------|---------------------------|


E|-----------3--4----------|-------3-4-3--------------|--------|-------------6-----6----|
B|-----------3--4------4---|--------------4-6-4--4----|--------|------------------------|
G|-------------------------|--------------------------|--------|------------------------|
D|-------------------------|--------------------------|--------|-------6--8-----8-------|
A|-------------------------|--------------------------|--------|------------------------|
E|-------------------------|--------------------------|--------|------------------------|


E|-----------4--6--4-------|------------------------------------------|--------|-------4---6----6---|
B|-----------4--6--4---4---|-4----4-------4-6-4-----------------------|--------|--------------------|
G|---------------------3---|-5----5--------------3-5-3----------------|--------|--------------------|
D|-------------------------|----------------------------5-6-5---------|--------|--------------------|
A|-------------------------|-----------------------------------3-5-3--|--------|--------------------|
E|-------------------------|------------------------------------------|--------|--------------------|


E|------------11-13-13--11-------|-----9--8-----6--4--6-----------------------|------------------------|
B|-9----9--9---------------------|------------------------11--119-8-9---9-8---|------------------9-----|
G|-------------------------------|------------------------------------------8-|-10---------3--8--------|
D|-------------------------------|--------------------------------------------|------------------------|
A|-------------------------------|--------------------------------------------|------------------------|
E|-------------------------------|--------------------------------------------|------------------------|


E|---------------------6-------|--------|--------|
B|-9----11--11-----------------|--------|--------|
G|-------------------------8---|--------|--------|
D|---------------6--8----------|--------|--------|
A|-----------------------------|--------|--------|
E|-----------------------------|--------|--------|





Track 3: Untitled

G|--------|--------|--------|--------|--------|--------|--------|--------|--------|
D|--------|--------|--------|--------|--------|--------|--------|--------|--------|
A|--------|--------|--------|--------|--------|--------|--------|--------|--------|
E|--------|--------|--------|--------|--------|--------|--------|--------|--------|


G|--------|--------|--------|--------|--------|--------|--------|--------|--------|
D|--------|--------|--------|--------|--------|--------|--------|--------|--------|
A|--------|--------|--------|--------|--------|--------|--------|--------|--------|
E|--------|--------|--------|--------|--------|--------|--------|--------|--------|


G|--------|--------|--------|--------|--------|--------|--------|--------|--------|
D|--------|--------|--------|--------|--------|--------|--------|--------|--------|
A|--------|--------|--------|--------|--------|--------|--------|--------|--------|
E|--------|--------|--------|--------|--------|--------|--------|--------|--------|


G|--------|--------|--------|--------|--------|--------|--------|--------|--------|
D|--------|--------|--------|--------|--------|--------|--------|--------|--------|
A|--------|--------|--------|--------|--------|--------|--------|--------|--------|
E|--------|--------|--------|--------|--------|--------|--------|--------|--------|


G|--------|--------|--------|--------|--------|--------|--------|--------|--------|
D|--------|--------|--------|--------|--------|--------|--------|--------|--------|
A|--------|--------|--------|--------|--------|--------|--------|--------|--------|
E|--------|--------|--------|--------|--------|--------|--------|--------|--------|


G|--------|--------|--------|--------|--------|--------|--------|--------|--------|
D|--------|--------|--------|--------|--------|--------|--------|--------|--------|
A|--------|--------|--------|--------|--------|--------|--------|--------|--------|
E|--------|--------|--------|--------|--------|--------|--------|--------|--------|


G|--------|--------|--------|--------|--------|--------|--------|--------|--------|
D|--------|--------|--------|--------|--------|--------|--------|--------|--------|
A|--------|--------|--------|--------|--------|--------|--------|--------|--------|
E|--------|--------|--------|--------|--------|--------|--------|--------|--------|


G|--------|--------|--------|--------|--------|--------|--------|--------|--------|
D|--------|--------|--------|--------|--------|--------|--------|--------|--------|
A|--------|--------|--------|--------|--------|--------|--------|--------|--------|
E|--------|--------|--------|--------|--------|--------|--------|--------|--------|


G|--------|--------|--------|--------|--------|--------|--------|--------|--------|
D|--------|--------|--------|--------|--------|--------|--------|--------|--------|
A|--------|--------|--------|--------|--------|--------|--------|--------|--------|
E|--------|--------|--------|--------|--------|--------|--------|--------|--------|


G|--------|--------|--------|--------|--------|--------|--------|--------|--------|
D|--------|--------|--------|--------|--------|--------|--------|--------|--------|
A|--------|--------|--------|--------|--------|--------|--------|--------|--------|
E|--------|--------|--------|--------|--------|--------|--------|--------|--------|