Site menu:

    

Browse: 0-9 A B C D E F G H I J K L N O P Q R S T U V W X Y Z

22wah - there is an ufo in my head:



Title: There Is An UFO In My Head
Artist: 
Album: 
Author: 22Wah 


Track 1: organ

E|--------|------4-----4---4---4---|-4------|-4-----------|-2------|-2------|-2-----------|
B|--------|------4-----4---4---4---|-4------|-4-----------|-2------|-2------|-2-----------|
G|--------|------4-----4---4---4---|-4------|-4-----------|-2------|-2------|-2-----------|
D|--------|------------------------|--------|-------------|--------|--------|-------------|
A|--------|------------------------|--------|-------------|--------|--------|-------------|
E|--------|------------------------|--------|-------------|--------|--------|-------------|


E|-----------------------------2--4--4----|-2----2----4----2----|-0----0----2----0----|
B|--------------------------4--2--4--4----|-2----2----2----2----|-0----0----0----0----|
G|--------------------4--2-----2--4--4----|-2----2----2----2----|-0----0----0----0----|
D|--------------4--2----------------------|---------------------|---------------------|
A|--------4--2----------------------------|---------------------|---------------------|
E|-----2----------------------------------|---------------------|---------------------|


E|-2----2----4----2----|-0----------2---|-2----2---2---4---4---2----|-0---0---0---2---2---2---0---0---|
B|-2----2----2----2----|-0----------0---|-2----2---2---2---2---2----|-0---0---0---0---0---0---0---0---|
G|-2----2----2----2----|-0----------0---|-2----2---2---2---2---2----|-0---0---0---0---0---0---0---0---|
D|---------------------|----------------|---------------------------|---------------------------------|
A|---------------------|----------------|---------------------------|---------------------------------|
E|---------------------|----------------|---------------------------|---------------------------------|


E|-2----2----4----2----|-0----------2---|-----2-------2-------4---2----|-0----0----2----0----|
B|-2----2----2----2----|-0----------0---|-----2-------2-------2---2----|-0----0----0----0----|
G|-2----2----2----2----|-0----------0---|-----2-------2-------2---2----|-0----0----0----0----|
D|---------------------|----------------|------------------------------|---------------------|
A|---------------------|----------------|------------------------------|---------------------|
E|---------------------|----------------|------------------------------|---------------------|


E|-----2-------2-------4---2----|-------------------0--0----0-------2---|-----2-------2-------4---2----|
B|-----2-------2-------2---2----|-------------1--3--0--0----0-------0---|-----2-------2-------2---2----|
G|-----2-------2-------2---2----|-------2--4------------------------0---|-----2-------2-------2---2----|
D|------------------------------|-2--4----------------------------------|------------------------------|
A|------------------------------|---------------------------------------|------------------------------|
E|------------------------------|---------------------------------------|------------------------------|


E|-0----0----2----0----|-----2-------2-------4---2----|-0----------2---|-----2-------2-------4---2----|
B|-0----0----0----0----|-----2-------2-------2---2----|-0----------0---|-----2-------2-------2---2----|
G|-0----0----0----0----|-----2-------2-------2---2----|-0----------0---|-----2-------2-------2---2----|
D|---------------------|------------------------------|----------------|------------------------------|
A|---------------------|------------------------------|----------------|------------------------------|
E|---------------------|------------------------------|----------------|------------------------------|


E|-----0-------0-------0--2------0---|-----2-------2-------4---2----|-----0-------0-------2-------0---|
B|-----0-------0-------0--0------0---|-----2-------2-------2---2----|-----0-------0-------0-------0---|
G|-----0-------0-------0--0------0---|-----2-------2-------2---2----|-----0-------0-------0-------0---|
D|-----------------------------------|------------------------------|---------------------------------|
A|-----------------------------------|------------------------------|---------------------------------|
E|-----------------------------------|------------------------------|---------------------------------|


E|-----2-------2-------4---2----|-----0-------0-------0--2------0---|-----2-------2-------4---2----|
B|-----2-------2-------2---2----|-----0-------0-------0--0------0---|-----2-------2-------2---2----|
G|-----2-------2-------2---2----|-----0-------0-------0--0------0---|-----2-------2-------2---2----|
D|------------------------------|-----------------------------------|------------------------------|
A|------------------------------|-----------------------------------|------------------------------|
E|------------------------------|-----------------------------------|------------------------------|


E|-----0-------0-------2-------0---|-----2-------2-------4---2----|-----0-------0-------0--2------0---|
B|-----0-------0-------0-------0---|-----2-------2-------2---2----|-----0-------0-------0--0------0---|
G|-----0-------0-------0-------0---|-----2-------2-------2---2----|-----0-------0-------0--0------0---|
D|---------------------------------|------------------------------|-----------------------------------|
A|---------------------------------|------------------------------|-----------------------------------|
E|---------------------------------|------------------------------|-----------------------------------|


E|-----2-------2-------4---2----|-----0-------0-------2-------0---|-----2-------2-------4---2----|
B|-----2-------2-------2---2----|-----0-------0-------0-------0---|-----2-------2-------2---2----|
G|-----2-------2-------2---2----|-----0-------0-------0-------0---|-----2-------2-------2---2----|
D|------------------------------|---------------------------------|------------------------------|
A|------------------------------|---------------------------------|------------------------------|
E|------------------------------|---------------------------------|------------------------------|


E|-----0-------0-------0--2------0---|-----2-------2-------4---2----|-----0-------0-------2-------0---|
B|-----0-------0-------0--0------0---|-----2-------2-------2---2----|-----0-------0-------0-------0---|
G|-----0-------0-------0--0------0---|-----2-------2-------2---2----|-----0-------0-------0-------0---|
D|-----------------------------------|------------------------------|---------------------------------|
A|-----------------------------------|------------------------------|---------------------------------|
E|-----------------------------------|------------------------------|---------------------------------|


E|-----2-------2-------4---2----|-----0-------0-------0--2------0---|-----2-------2-------4---2----|
B|-----2-------2-------2---2----|-----0-------0-------0--0------0---|-----2-------2-------2---2----|
G|-----2-------2-------2---2----|-----0-------0-------0--0------0---|-----2-------2-------2---2----|
D|------------------------------|-----------------------------------|------------------------------|
A|------------------------------|-----------------------------------|------------------------------|
E|------------------------------|-----------------------------------|------------------------------|


E|-----0-------0-------2-------0---|--------|--------|--------|-2--0--------------------2--0--------------------|
B|-----0-------0-------0-------0---|--------|--------|--------|-------2--0--------------------2--0--------------|
G|-----0-------0-------0-------0---|--------|--------|--------|-------------4--2--------------------4--2--------|
D|---------------------------------|--------|--------|--------|-------------------4--2--------------------4--2--|
A|---------------------------------|--------|--------|--------|-------------------------------------------------|
E|---------------------------------|--------|--------|--------|-------------------------------------------------|


E|-2--0--------------------2--0--------------------|-2--0--------------------2--0--------------------|
B|-------2--0--------------------2--0--------------|-------2--0--------------------2--0--------------|
G|-------------4--2--------------------4--2--------|-------------4--2--------------------4--2--------|
D|-------------------4--2--------------------4--2--|-------------------4--2--------------------4--2--|
A|-------------------------------------------------|-------------------------------------------------|
E|-------------------------------------------------|-------------------------------------------------|


E|-2--0--------------------2--0--------------------|-2--0--------------------2--0--------------------|
B|-------2--0--------------------2--0--------------|-------2--0--------------------2--0--------------|
G|-------------4--2--------------------4--2--------|-------------4--2--------------------4--2--------|
D|-------------------4--2--------------------4--2--|-------------------4--2--------------------4--2--|
A|-------------------------------------------------|-------------------------------------------------|
E|-------------------------------------------------|-------------------------------------------------|





Track 2: guitar

E|--------|--------|--------|--------|--------|--------|--------|--------|--------|
B|--------|--------|--------|--------|--------|--------|--------|--------|--------|
G|--------|--------|--------|--------|--------|--------|--------|--------|--------|
D|--------|--------|--------|--------|--------|--------|--------|--------|--------|
A|--------|--------|--------|--------|--------|--------|--------|--------|--------|
E|--------|--------|--------|--------|--------|--------|--------|--------|--------|


E|--------|--------|--------|--------|--------|--------|--------|------------0---2--4-------------0---|
B|--------|--------|--------|--------|--------|--------|--------|-----2---4--0---2--4------2---4--0---|
G|--------|--------|--------|--------|--------|--------|--------|-------------------------------------|
D|--------|--------|--------|--------|--------|--------|--------|-------------------------------------|
A|--------|--------|--------|--------|--------|--------|--------|-------------------------------------|
E|--------|--------|--------|--------|--------|--------|--------|-------------------------------------|


E|-2----4--------------|-------------------0---2--4----|-4-----2----0----|-2------|
B|-2----4----------2---|-2----0--0--2---4--0---2--4----|-----------------|--------|
G|---------------------|-------------------------------|-----------------|--------|
D|---------------------|-------------------------------|-----------------|--------|
A|---------------------|-------------------------------|-----------------|--------|
E|---------------------|-------------------------------|-----------------|--------|


E|--------|--------|------0----2-----|-2-------------------|--------2--4---2--4---------------|
B|--------|--------|------0----2-----|-2---------------0---|-2--4---2--4---2--4----0---2--4---|
G|--------|--------|------0----2-----|-2-------------------|----------------------------------|
D|--------|--------|-----------------|---------------------|----------------------------------|
A|--------|--------|-----------------|---------------------|----------------------------------|
E|--------|--------|-----------------|---------------------|----------------------------------|


E|-2----4---------2-4-2-4-|-2----2--4----2----2--4----|-6---6--2---4---6--------4--6---|
B|------------------------|-2----2--4----2----2--4----|-6---6--2---4---6--------4--6---|
G|------------------------|---------------------------|--------------------------------|
D|------------------------|---------------------------|--------------------------------|
A|------------------------|---------------------------|--------------------------------|
E|------------------------|---------------------------|--------------------------------|


E|-7---7--4---6---7-------------|---------------------------------|-----------------------------------|
B|-7---7--4---6---7-------------|---------------------------------|-----------------------------------|
G|------------------------------|---------------------------------|-----------------------------------|
D|------------------------------|-----------------------------4---|-0---2------------4--2-------------|
A|---------------------2--------|-0---2---------------4---2-------|---------2---------------4--2---2--|
E|--------------------------2---|---------2--------2--------------|-----------------------------------|


E|---------------------------------|-2--0------------------------------------------|
B|---------------------------------|-------2--0------------------------------------|
G|---------------------------------|-------------4--2------------------------------|
D|-----------------------------4---|-------------------4--2------------------------|
A|-0---2---------------4---2-------|-------------------------4--2--------2--4------|
E|---------2--------2--------------|-------------------------------4--2--------2---|


E|-2--0--------------------------|-----------------------------|-2--0--------------------2--0--------------------|
B|-------2--0--------------------|-----------------------------|-------2--0--------------------2--0--------------|
G|-------------4--2--------------|-----------------------------|-------------4--2--------------------4--2--------|
D|-------------------4--2--------|-----------------------------|-------------------4--2--------------------4--2--|
A|-------------------------------|-4--2--------2--4------------|-------------------------------------------------|
E|-------------------------------|-------4--2--------2---------|-------------------------------------------------|


E|---------------------------------------------|-----------------|-----------------|
B|---------------------------------------------|-----------------|-----------------|
G|---------------------------------------------|-----------------|-----------------|
D|-------------------4-------------------------|-----------------|-----------------|
A|-4--2--------2--4------4--2--------2--4--2---|-2----------0----|-2-----2----2----|
E|-------4--2------------------4--2--------2---|-2----------0----|-2-----2----2----|


E|--------|-----------------|-----------------|--------|-----------------|-----------------|
B|--------|-----------------|-----------------|--------|-----------------|-----------------|
G|--------|-----------------|-----------------|--------|-----------------|-----------------|
D|--------|-----------------|-----------------|--------|-----------------|-----------------|
A|-2------|-2---------0-----|-2-----2----2----|-2------|-2----------0----|-2-----2----2----|
E|-2------|-2---------0-----|-2-----2----2----|-2------|-2----------0----|-2-----2----2----|


E|-----------------|-------2--0--------------------|-2--0--------------------2--0--------------------|
B|-----------------|-------------2--0--------------|-------2--0--------------------2--0--------------|
G|-----------------|-------------------4--2--------|-------------4--2--------------------4--2--------|
D|-----------------|-------------------------4--2--|-------------------4--2--------------------4--2--|
A|-2----------0----|-2-----------------------------|-------------------------------------------------|
E|-2----------0----|-2-----------------------------|-------------------------------------------------|


E|-2--0--------------------2--0--------------------|-2--0--------------------2--0--------------------|
B|-------2--0--------------------2--0--------------|-------2--0--------------------2--0--------------|
G|-------------4--2--------------------4--2--------|-------------4--2--------------------4--2--------|
D|-------------------4--2--------------------4--2--|-------------------4--2--------------------4--2--|
A|-------------------------------------------------|-------------------------------------------------|
E|-------------------------------------------------|-------------------------------------------------|


E|-2--0--------------------2--0--------------------|
B|-------2--0--------------------2--0--------------|
G|-------------4--2--------------------4--2--------|
D|-------------------4--2--------------------4--2--|
A|-------------------------------------------------|
E|-------------------------------------------------|





Track 3: ufos

E|--------|--------|--------|--------|--------|--------|--------|--------|--------|
B|--------|--------|--------|--------|--------|--------|--------|--------|--------|
G|--------|--------|--------|--------|--------|--------|--------|--------|--------|
D|--------|--------|--------|--------|--------|--------|--------|--------|--------|
A|--------|--------|--------|--------|--------|--------|--------|--------|--------|
E|--------|--------|--------|--------|--------|--------|--------|--------|--------|


E|--------|--------|--------|--------|--------|--------|--------|--------|--------|
B|--------|--------|--------|--------|--------|--------|--------|--------|--------|
G|--------|--------|--------|--------|--------|--------|--------|--------|--------|
D|--------|--------|--------|--------|--------|--------|--------|--------|--------|
A|--------|--------|--------|--------|--------|--------|--------|--------|--------|
E|--------|--------|--------|--------|--------|--------|--------|--------|--------|


E|--------|--------|--------|--------|--------|--------|--------|--------|--------|
B|--------|--------|--------|--------|--------|--------|--------|--------|--------|
G|--------|--------|--------|--------|--------|--------|--------|--------|--------|
D|--------|--------|--------|--------|--------|--------|--------|--------|--------|
A|--------|--------|--------|--------|--------|--------|--------|--------|--------|
E|--------|--------|--------|--------|--------|--------|--------|--------|--------|


E|--------|--------|--------|--------|--------|--------|-----14-12-------------------14-12-------------|
B|--------|--------|--------|--------|--------|--------|-----------14-12-------------------14-12-------|
G|--------|--------|--------|--------|--------|--------|-----------------16-14-------------------16-14-|
D|--------|--------|--------|--------|--------|--------|-----------------------16-14-------------------|
A|--------|--------|--------|--------|--------|--------|-----------------------------------------------|
E|--------|--------|--------|--------|--------|--------|-----------------------------------------------|


E|-------14-12-------------------------|---------------------------------|-----14-12-------------------14-12-------------|
B|-------------14-12-------------------|---------------------------------|-----------14-12-------------------14-12-------|
G|-------------------16-14-------------|---------------------------------|-----------------16-14-------------------16-14-|
D|-16-14-------------------16-14-14----|---------------------------------|-----------------------16-14-------------------|
A|-------------------------------------|-----16-14-------14-16-----------|-----------------------------------------------|
E|-------------------------------------|-----------16-14-------14--------|-----------------------------------------------|


E|-----------------------------------------------|-------------|-------------|-------------|
B|-----------------------------------------------|-------------|-------------|-------------|
G|-----------------------------------------------|-------------|-------------|-------------|
D|-16-14-------------------16--------------------|-------------|-------------|-------------|
A|-------16-14-------14-16-----16-14-------14-16-|-14----------|--------14---|--------14---|
E|-------------16-14-----------------16-14-------|-14----------|--------14---|--------14---|


E|--------|--------|---------------------|--------|--------|--------|--------|-------14-12-------------------|
B|--------|--------|---------------------|--------|--------|--------|--------|-------------14-12-------------|
G|--------|--------|---------------------|--------|--------|--------|--------|-------------------16-14-------|
D|--------|--------|---------------------|--------|--------|--------|--------|-------------------------16-14-|
A|--------|--------|------14--------14---|--------|--------|--------|--------|-------------------------------|
E|--------|--------|------14--------14---|--------|--------|--------|--------|-------------------------------|


E|-14-12-------------------14-12-------------------|-14-12-------------------14-12-------------------|
B|-------14-12-------------------14-12-------------|-------14-12-------------------14-12-------------|
G|-------------16-14-------------------16-14-------|-------------16-14-------------------16-14-------|
D|-------------------16-14-------------------16-14-|-------------------16-14-------------------16-14-|
A|-------------------------------------------------|-------------------------------------------------|
E|-------------------------------------------------|-------------------------------------------------|


E|-14-12-------------------14-12-------------------|
B|-------14-12-------------------14-12-------------|
G|-------------16-14-------------------16-14-------|
D|-------------------16-14-------------------16-14-|
A|-------------------------------------------------|
E|-------------------------------------------------|





Track 4: drums1

G|---------6--6----------6--6------6--|-6----6------6-------6--------6--|-6----6------6-------6--------6--|
D|---------6--6----------6--6------6--|-6----6------6-------6--------6--|-6----6------6-------6--------6--|
A|------------------------------------|---------------------------------|---------------------------------|
E|------2-------------------2---------|---------2---------------2-------|---------2---------------2-------|


G|-6----6------6-------6--------6--|-6----6------6-------6--------6--|-6----6------6-------6--------6--|
D|-6----6------6-------6--------6--|-6----6------6-------6--------6--|-6----6------6-------6--------6--|
A|---------------------------------|---------------------------------|---------------------------------|
E|---------2---------------2-------|---------2---------------2-------|---------2---------------2-------|


G|-6----6------6-------6--------6--|-6----6------6-------6--------6--|-6----6------6-------6--------6--|
D|-6----6------6-------6--------6--|-6----6------6-------6--------6--|-6----6------6-------6--------6--|
A|---------------------------------|---------------------------------|---------------------------------|
E|---------2---------------2-------|---------2---------------2-------|---------2---------------2-------|


G|-6----6------6-------6--------6--|-6----6------6-------6--------6--|-6----6------6-------6--------6--|
D|-6----6------6-------6--------6--|-6----6------6-------6--------6--|-6----6------6-------6--------6--|
A|---------------------------------|---------------------------------|---------------------------------|
E|---------2---------------2-------|---------2---------------2-------|---------2---------------2-------|


G|-6----6------6-------6--------6--|-6----6------6-------6--------6--|-6----6------6-------6--------6--|
D|-6----6------6-------6--------6--|-6----6------6-------6--------6--|-6----6------6-------6--------6--|
A|---------------------------------|---------------------------------|---------------------------------|
E|---------2---------------2-------|---------2---------------2-------|---------2---------------2-------|


G|-6----6------6-------6--------6--|-6----6------6-------6--------6--|-6----6------6-------6--------6--|
D|-6----6------6-------6--------6--|-6----6------6-------6--------6--|-6----6------6-------6--------6--|
A|---------------------------------|---------------------------------|---------------------------------|
E|---------2---------------2-------|---------2---------------2-------|---------2---------------2-------|


G|-6----6------6-------6--------6--|-6----6------6-------6--------6--|--------|--------|
D|-6----6------6-------6--------6--|-6----6------6-------6--------6--|--------|--------|
A|---------------------------------|---------------------------------|--------|--------|
E|---------2---------------2-------|---------2---------------2-------|--------|--------|


G|--------|-----------------6--6------6--6---|-6----6------6-------6--------6--|-6----6------6-------6--------6--|
D|--------|-----------------6--6------6--6---|-6----6------6-------6--------6--|-6----6------6-------6--------6--|
A|--------|----------------------------------|---------------------------------|---------------------------------|
E|--------|-2--------2---2---------2-----2---|---------2---------------2-------|---------2---------------2-------|


G|-6----6------6-------6--------6--|-6----6------6-------6--------6--|-6----6------6-------6--------6--|
D|-6----6------6-------6--------6--|-6----6------6-------6--------6--|-6----6------6-------6--------6--|
A|---------------------------------|---------------------------------|---------------------------------|
E|---------2---------------2-------|---------2---------------2-------|---------2---------------2-------|


G|-6----6------6-------6--------6--|-6----6------6-------6--------6--|-6----6------6-------6--------6--|
D|-6----6------6-------6--------6--|-6----6------6-------6--------6--|-6----6------6-------6--------6--|
A|---------------------------------|---------------------------------|---------------------------------|
E|---------2---------------2-------|---------2---------------2-------|---------2---------------2-------|


G|-6----6------6-------6--------6--|-6----6------6-------6--------6--|-6----6------6-------6--------6--|
D|-6----6------6-------6--------6--|-6----6------6-------6--------6--|-6----6------6-------6--------6--|
A|---------------------------------|---------------------------------|---------------------------------|
E|---------2---------------2-------|---------2---------------2-------|---------2---------------2-------|


G|-6----6------6-------6--------6--|-6----6------6-------6--------6--|-6----6------6-------6--------6--|
D|-6----6------6-------6--------6--|-6----6------6-------6--------6--|-6----6------6-------6--------6--|
A|---------------------------------|---------------------------------|---------------------------------|
E|---------2---------------2-------|---------2---------------2-------|---------2---------------2-------|


G|-6----6------6-------6--------6--|-6----6------6-------6--------6--|-6----6------6-------6--------6--|
D|-6----6------6-------6--------6--|-6----6------6-------6--------6--|-6----6------6-------6--------6--|
A|---------------------------------|---------------------------------|---------------------------------|
E|---------2---------------2-------|---------2---------------2-------|---------2---------------2-------|


G|-6----6------6-------6--------6--|-6------6------6-------6--------6--|-6------6------6-------6---6----|
D|-6----6------6-------6--------6--|-6------6------6-------6--------6--|-6------6------6-------6---6----|
A|---------------------------------|-----------------------------------|--------------------------------|
E|---------2---------------2-------|-2---2-----2---------------2-------|-2---2-----2-------2---2---2----|


G|-6----6------6-------6--------6--|-6----6------6-------6--------6--|-6------6------6-------6--------6--|
D|-6----6------6-------6--------6--|-6----6------6-------6--------6--|-6------6------6-------6--------6--|
A|---------------------------------|---------------------------------|-----------------------------------|
E|---------2---------------2-------|---------2---------------2-------|-2---2-----2---------------2-------|


G|-6------6------6-------6---6----|-6----6------6-------6--------6--|-6----6------6-------6--------6--|
D|-6------6------6-------6---6----|-6----6------6-------6--------6--|-6----6------6-------6--------6--|
A|--------------------------------|---------------------------------|---------------------------------|
E|-2---2-----2-------2---2---2----|---------2---------------2-------|---------2---------------2-------|


G|-6------6------6-------6--------6--|-6------6------6-------6-------6---|
D|-6------6------6-------6--------6--|-6------6------6-------6-------6---|
A|-----------------------------------|-----------------------------------|
E|-2---2-----2---------------2-------|-2---2-----2-------2---2---2-------|





Track 5: drums2

G|-4---4---4---4---4----4---4---|-4---4---4---4---4----4---4---|-4---4---4---4---4----4----|
D|-----------------4------------|-----------------4------------|-----------------4----4----|
A|------------------------------|------------------------------|---------------------------|
E|------------------------------|------------------------------|---------------------------|


G|-4---4---4---4---4----4---4---|-4---4---4---4---4----4---4---|-4---4---4---4---4----4---4---|
D|-----------------4------------|-----------------4------------|-----------------4------------|
A|------------------------------|------------------------------|------------------------------|
E|------------------------------|------------------------------|------------------------------|


G|-4--4---4--4---4---4----4----|-4--4---4--4---4---4----4----4--|-4---4---4---4---4----4---4---|
D|-------------------4----4----|-------------------4----4----4--|-----------------4------------|
A|-----------------------------|--------------------------------|------------------------------|
E|-----------------------------|--------------------------------|------------------------------|


G|-4---4---4---4---4----4---4---|-4---4---4---4---4----4----|-4---4---4---4---4----4---4---|
D|-----------------4------------|-----------------4----4----|-----------------4------------|
A|------------------------------|---------------------------|------------------------------|
E|------------------------------|---------------------------|------------------------------|


G|-4---4---4---4---4----4---4---|-4---4---4---4---4----4---4---|-4---4---4---4---4----4----|
D|-----------------4------------|-----------------4------------|-----------------4----4----|
A|------------------------------|------------------------------|---------------------------|
E|------------------------------|------------------------------|---------------------------|


G|-4---4---4---4---4----4---4---|-4---4---4---4---4----4---4---|-4---4---4---4---4----4---4---|
D|-----------------4------------|-----------------4------------|-----------------4------------|
A|------------------------------|------------------------------|------------------------------|
E|------------------------------|------------------------------|------------------------------|


G|-4---4---4---4---4----4----|-4---4---4---4---4----4---4---|--------|--------|--------|
D|-----------------4----4----|-----------------4------------|--------|--------|--------|
A|---------------------------|------------------------------|--------|--------|--------|
E|---------------------------|------------------------------|--------|--------|--------|


G|-4--4---4--4---4---4--4---4--4---4---|-4---4---4---4---4----4---4---|-4---4---4---4---4----4---4---|
D|--------4------4----------4------4---|-----------------4------------|-----------------4------------|
A|-------------------------------------|------------------------------|------------------------------|
E|-------------------------------------|------------------------------|------------------------------|


G|-4---4---4---4---4----4----|-4---4---4---4---4----4---4---|-4---4---4---4---4----4---4---|
D|-----------------4----4----|-----------------4------------|-----------------4------------|
A|---------------------------|------------------------------|------------------------------|
E|---------------------------|------------------------------|------------------------------|


G|-4---4---4---4---4----4---4---|-4---4---4---4---4----4----|-4---4---4---4---4----4---4---|
D|-----------------4------------|-----------------4----4----|-----------------4------------|
A|------------------------------|---------------------------|------------------------------|
E|------------------------------|---------------------------|------------------------------|


G|-4---4---4---4---4----4---4---|-4---4---4---4---4----4---4---|-4---4---4---4---4----4----|
D|-----------------4------------|-----------------4------------|-----------------4----4----|
A|------------------------------|------------------------------|---------------------------|
E|------------------------------|------------------------------|---------------------------|


G|-4---4---4---4---4----4---4---|-4---4---4---4---4----4---4---|-4---4---4---4---4----4---4---|
D|-----------------4------------|-----------------4------------|-----------------4------------|
A|------------------------------|------------------------------|------------------------------|
E|------------------------------|------------------------------|------------------------------|


G|-4---4---4---4---4----4----|-4---4---4---4---4----4---4---|-4---4---4---4---4----4---4---|
D|-----------------4----4----|-----------------4------------|-----------------4------------|
A|---------------------------|------------------------------|------------------------------|
E|---------------------------|------------------------------|------------------------------|


G|-4---4---4---4---4----4---4---|-4---4---4---4---4----4----|-4---4---4---4---4----4----|
D|-----------------4------------|-----------------4----4----|-----------------4----4----|
A|------------------------------|---------------------------|---------------------------|
E|------------------------------|---------------------------|---------------------------|


G|-4---4---4---4---4----4---4---|-4---4---4---4---4----4---4---|-4---4---4---4---4----4----|
D|-----------------4------------|-----------------4------------|-----------------4----4----|
A|------------------------------|------------------------------|---------------------------|
E|------------------------------|------------------------------|---------------------------|


G|-----4-------4---4----4--4----|-4---4---4---4---4----4---4---|-4---4---4---4---4----4---4---|
D|-----4-------4---4----4--4----|-----------------4------------|-----------------4------------|
A|------------------------------|------------------------------|------------------------------|
E|------------------------------|------------------------------|------------------------------|


G|-4---4---4---4---4----4----|-4---4---4---4---4----4---4---|
D|-----------------4----4----|-----------------4------------|
A|---------------------------|------------------------------|
E|---------------------------|------------------------------|





Track 6: bass

G|-----------------|-----------------|-----------------|-----------------|-----------------|
D|------------4----|------------4----|------------4----|------------4----|------------7----|
A|-----------------|-----------------|-----------------|-----------------|-----------------|
E|------2----------|------2----------|------2----------|------2----------|------5----------|


G|-----------------|-----------------|-----------------------------------------|---------------------------------|
D|------------11---|------------14---|-----------------------------------------|-4---4-------2---4---2---2-------|
A|-----------------|-----------------|-----------------------------------------|---------4-------------------2---|
E|------9----------|------12---------|-12--12--13--13--14-14-14-14-14-14-14-14-|---------------------------------|


G|---------------------------------|---------------------------------|---------------------------------|
D|-0---2---0---0---2---0-----------|-4---4-------2---4---2---2-------|-0---2---0---0---2---0-----------|
A|-------------------------4---2---|---------4-------------------2---|-------------------------4---2---|
E|---------------------------------|---------------------------------|---------------------------------|


G|---------------------------------|---------------------------------|---------------------------------|
D|-4---4-------2---4---2---2-------|-0---2---0---0---2---0-----------|-4---4-------2---4---2---2-------|
A|---------4-------------------2---|-------------------------4---2---|---------4-------------------2---|
E|---------------------------------|---------------------------------|---------------------------------|


G|---------------------------------|---------------------------------|---------------------------------|
D|-0---2---0---0---2---0-----------|-4---4-------2---4---2---2-------|-0---2---0---0---2---0-----------|
A|-------------------------4---2---|---------4-------------------2---|-------------------------4---2---|
E|---------------------------------|---------------------------------|---------------------------------|


G|---------------------------------|---------------------------------|--------|--------|
D|-4---4-------2---4---2---2-------|-0---2---0---0---2---0-----------|--------|--------|
A|---------4-------------------2---|-------------------------4---2---|--------|--------|
E|---------------------------------|---------------------------------|--------|--------|


G|--------|-------------|---------------------------------|---------------------------------|
D|--------|-------------|-4---4-------2---4---2---2-------|-0---2---0---0---2---0-----------|
A|--------|-------------|---------4-------------------2---|-------------------------4---2---|
E|--------|-------14----|---------------------------------|---------------------------------|


G|---------------------------------|---------------------------------|---------------------------------|
D|-4---4-------2---4---2---2-------|-0---2---0---0---2---0-----------|-4---4-------2---4---2---2-------|
A|---------4-------------------2---|-------------------------4---2---|---------4-------------------2---|
E|---------------------------------|---------------------------------|---------------------------------|


G|---------------------------------|---------------------------------|---------------------------------|
D|-0---2---0---0---2---0-----------|-4---4-------2---4---2---2-------|-0---2---0---0---2---0-----------|
A|-------------------------4---2---|---------4-------------------2---|-------------------------4---2---|
E|---------------------------------|---------------------------------|---------------------------------|


G|---------------------------------|---------------------------------|---------------------------------|
D|-4---4-------2---4---2---2-------|-0---2---0---0---2---0-----------|-4---4-------2---4---2---2-------|
A|---------4-------------------2---|-------------------------4---2---|---------4-------------------2---|
E|---------------------------------|---------------------------------|---------------------------------|


G|---------------------------------|---------------------------------|---------------------------------|
D|-0---2---0---0---2---0-----------|-4---4-------2---4---2---2-------|-0---2---0---0---2---0-----------|
A|-------------------------4---2---|---------4-------------------2---|-------------------------4---2---|
E|---------------------------------|---------------------------------|---------------------------------|


G|---------------------------------|---------------------------------|---------------------------------|
D|-4---4-------2---4---2---2-------|-0---2---0---0---2---0-----------|-4---4-------2---4---2---2-------|
A|---------4-------------------2---|-------------------------4---2---|---------4-------------------2---|
E|---------------------------------|---------------------------------|---------------------------------|


G|---------------------------------|---------------------------------|------------------------|
D|-0---2---0---0---2---0-----------|-4---4-------2---4---2---2-------|-0---2------------------|
A|-------------------------4---2---|---------4-------------------2---|---------4----3----2----|
E|---------------------------------|---------------------------------|------------------------|


G|------------------------|---------------------|------------------------|----------------2----|
D|------4-----------------|-------2-------------|------4-----------------|-2----4----6---------|
A|-2----------4---2-------|-----------------4---|-2----------4---2-------|----------------0----|
E|--------------------2---|-0-----------2-------|--------------------2---|-0----2----4---------|


G|---------------------------------|---------------------|------------------------|
D|-4---4-------2---4---2---2-------|-------2-------------|------4-----------------|
A|---------4-------------------2---|-----------------4---|-2----------4---2-------|
E|---------------------------------|-0-----------2-------|--------------------2---|


G|---------------------|
D|-------2-------------|
A|-----------------4---|
E|-0-----------2-------|