Site menu:

    

Browse: 0-9 A B C D E F G H I J K L N O P Q R S T U V W X Y Z

22wah - pachanga:



Title: Pachanga
Artist: 
Album: 
Author: 22wah


Track 1: Untitled

E|--------|--------|--------|--------|--------|--------|--------|--------|--------|
B|--------|--------|--------|--------|--------|--------|--------|--------|--------|
G|--------|--------|--------|--------|--------|--------|--------|--------|--------|
D|--------|--------|--------|--------|--------|--------|--------|--------|--------|
A|--------|--------|--------|--------|--------|--------|--------|--------|--------|
E|--------|--------|--------|--------|--------|--------|--------|--------|--------|


E|--------|-0------|-------------|-0------|-------------|-0------|--------|-0------|
B|--------|-0------|-------------|-0------|-------------|-0------|--------|-0------|
G|--------|-2------|--------4----|-2------|--------4----|-2------|--------|-2------|
D|--------|-2------|--------4----|-2------|--------4----|-2------|--------|-2------|
A|--------|-0------|--------2----|-0------|--------2----|-0------|--------|-0------|
E|--------|-2------|--------4----|-2------|--------4----|-2------|--------|-2------|


E|--------|-0------|--------|-0-----4-----|-0---------------------|---------------------------|
B|--------|-0------|--------|-2-----4-----|-2---------------------|------3-----------5--------|
G|--------|-2------|--------|-2-----4-----|-2---------2-----------|------2-----------4--------|
D|--------|-2------|--------|-2-----6-----|-2-----2-------2-------|---------------------------|
A|--------|-0------|--------|-0-----5-----|-0-----------------0---|-2--------4---4------------|
E|--------|-2------|--------|-0-----4-----|-2---------------------|-----------------------2---|


E|---------------------------|---------------------------|---------------------------|
B|---------------------------|------3-----------5--------|---------------------------|
G|-----2-------------2-------|------2-----------4--------|-----2-------------2-------|
D|-----2-------------2-------|---------------------------|-----2-------------1-------|
A|---------------------------|-2--------4---4------------|---------------------------|
E|-2--------2---2--------5---|-----------------------2---|-2--------2---1------------|


E|---------------------------|---------------------------|------------------------------|
B|------3-----------5--------|---------------------------|------------------------------|
G|------2-----------4--------|-----2-------------2-------|------6-----------4-----------|
D|---------------------------|-----2-------------1-------|------6-----------4-----------|
A|-2--------4---4------------|---------------------------|------------------------------|
E|-----------------------2---|-2--------2---1------------|-5--------6---4-----------2---|


E|---------------------------------|---------------------------|---------------------------|
B|---------------------------------|------3-----------5--------|---------------------------|
G|-----2---------------2-----------|------2-----------4--------|-----2-------------2-------|
D|---------2-------2-------2-------|---------------------------|-----2-------------2-------|
A|-------------0---------------0---|-2--------4---4------------|---------------------------|
E|-2-------------------------------|-----------------------2---|-2--------2---2--------5---|


E|---------------------------|---------------------------|---------------------------|
B|------3-----------5--------|---------------------------|------3-----------5--------|
G|------2-----------4--------|-----2-------------2-------|------2-----------4--------|
D|---------------------------|-----2-------------1-------|---------------------------|
A|-2--------4---4------------|---------------------------|-2--------4---4------------|
E|-----------------------2---|-2--------2---1------------|-----------------------2---|


E|---------------------------|------------------------------|------------------------------|
B|---------------------------|------------------------------|------------------------------|
G|-----2-------------2-------|------6-----------4-----------|------2-----------2-----------|
D|-----2-------------1-------|------6-----------4-----------|------2-------2-------2-------|
A|---------------------------|------------------------------|----------0---------------0---|
E|-2--------2---1------------|-5--------6---4-----------2---|-2----------------------------|


E|---------------------------|---------------------------|---------------------------|
B|------3-----------5--------|---------------------------|------3-----------5--------|
G|------2-----------4--------|-----2-------------2-------|------2-----------4--------|
D|---------------------------|-----2-------------2-------|---------------------------|
A|-2--------4---4------------|---------------------------|-2--------4---4------------|
E|-----------------------2---|-2--------2---2--------5---|-----------------------2---|


E|---------------------------|---------------------------|---------------------------|
B|---------------------------|------3-----------5--------|---------------------------|
G|-----2-------------2-------|------2-----------4--------|-----2-------------2-------|
D|-----2-------------1-------|---------------------------|-----2-------------1-------|
A|---------------------------|-2--------4---4------------|---------------------------|
E|-2--------2---1------------|-----------------------2---|-2--------2---1------------|


E|------------------------------|------------------------------|---------------------------|
B|------------------------------|------------------------------|------3-----------5--------|
G|------6-----------4-----------|------2-----------2-----------|------2-----------4--------|
D|------6-----------4-----------|------2-------2-------2-------|---------------------------|
A|------------------------------|----------0---------------0---|-2--------4---4------------|
E|-5--------6---4-----------2---|-2----------------------------|-----------------------2---|


E|---------------------------|---------------------------|------------------------------|
B|---------------------------|---------------------------|------------------------------|
G|-----2-------------2-------|------11----------13-------|------6-----------6-----------|
D|-----2-------------2-------|------11----------12-------|------6-------6-------6-------|
A|-----------------------2---|----------4----------------|----------0---------------0---|
E|-2--------2---2------------|-10-----------12-------5---|-5----------------------------|


E|---------------------------|------------------------|--------------------0---|-0-----0---------------|
B|------10----------12-------|------------------------|---------------9----2---|-2-----2---------------|
G|------9-----------11-------|-----9-------------9----|------7--------7----2---|-2-----2---------------|
D|---------------------------|-----9-------------8----|------7-------------2---|-2-----2---------------|
A|-9--------4---11-----------|------------------------|-----------7--------0---|-0-----0-------0---4---|
E|-----------------------9---|-9--------2---8---------|-7------------------0---|-0-----0---2-----------|


E|-2----2---2---4---4---4---9---|-9---9----9----------------|-2----2---2---4---4---4---9---|
B|-2----2---2---4---4---4---9---|-9---9----9----------------|-2----2---2---4---4---4---9---|
G|-2----2---2---4---4---4---9---|-9---9----9----------------|-2----2---2---4---4---4---9---|
D|------------------------------|-----------------------2---|------------------------------|
A|------------------------------|---------------0---4---4---|------------------------------|
E|------------------------------|---------------2---5-------|------------------------------|


E|-9---9----9----------------|-2----2---2---4---4---4---9---|-9---9----9-----------------|
B|-9---9----9----------------|-2----2---2---4---4---4---9---|-9---9----9-----------------|
G|-9---9----9----------------|-2----2---2---4---4---4---9---|-9---9----9-----------------|
D|-----------------------2---|------------------------------|----------------------------|
A|---------------0---4---4---|------------------------------|----------------0--4--0--4--|
E|---------------2---5-------|------------------------------|----------------0--5--0--0--|


E|-2--4--2---2--4--2--2-----4---4-----4--9---|-9--9-------9-------9---9--9---9---|
B|-2--2--2---2--2--2--2-----4---4-----4--9---|-9--9-------9-------9---9--9---9---|
G|-2--2--2---2--2--2--2-----4---4-----4--9---|-9--9-------9-------9---9--9---9---|
D|-------------------------------------------|-----------------------------------|
A|-------------------------------------------|-----------------------------------|
E|-------------------------------------------|-----------------------------------|


E|-2----2---2---4---4---4---9---|-9---9----9----------------|-2----2---2---4---4---4---9---|
B|-2----2---2---4---4---4---9---|-9---9----9----------------|-2----2---2---4---4---4---9---|
G|-2----2---2---4---4---4---9---|-9---9----9----------------|-2----2---2---4---4---4---9---|
D|------------------------------|-----------------------2---|------------------------------|
A|------------------------------|---------------0---4---4---|------------------------------|
E|------------------------------|---------------2---5-------|------------------------------|


E|-9---9----9----------------|-2------|-0------|-0------|-7----5----4----4----|-2------|
B|-9---9----9----------------|-3------|-0------|-2------|-9----7----4----6----|-2------|
G|-9---9----9----------------|-2------|-1------|-2------|-9----7----6----6----|-2------|
D|-----------------------2---|-0------|-2------|-2------|-9----7----6----6----|-4------|
A|-------------------4-------|-0------|-2------|-0------|-7----5----6----4----|-4------|
E|---------------5-----------|-0------|-0------|-0------|-7----5----4----4----|-2------|


E|--------|---------------------------|---------------------------|---------------------------|
B|--------|------3-----------5--------|---------------------------|------3-----------5--------|
G|--------|------2-----------4--------|-----2-------------2-------|------2-----------4--------|
D|--------|---------------------------|-----2-------------2-------|---------------------------|
A|--------|-2--------4---4------------|---------------------------|-2--------4---4------------|
E|--------|-----------------------2---|-2--------2---2--------5---|-----------------------2---|


E|---------------------------|---------------------------|---------------------------|
B|---------------------------|------3-----------5--------|---------------------------|
G|-----2-------------2-------|------2-----------4--------|-----2-------------2-------|
D|-----2-------------1-------|---------------------------|-----2-------------1-------|
A|---------------------------|-2--------4---4------------|---------------------------|
E|-2--------2---1------------|-----------------------2---|-2--------2---1------------|


E|------------------------------|------------------------------|---------------------------|
B|------------------------------|------------------------------|------3-----------5--------|
G|------6-----------4-----------|------2-----------2-----------|------2-----------4--------|
D|------6-----------4-----------|------2-------2-------2-------|---------------------------|
A|------------------------------|----------0---------------0---|-2--------4---4------------|
E|-5--------6---4-----------2---|-2----------------------------|-----------------------2---|


E|---------------------------|---------------------------|---------------------------|
B|---------------------------|------3-----------5--------|---------------------------|
G|-----2-------------2-------|------2-----------4--------|-----2-------------2-------|
D|-----2-------------2-------|---------------------------|-----2-------------1-------|
A|---------------------------|-2--------4---4------------|---------------------------|
E|-2--------2---2--------5---|-----------------------2---|-2--------2---1------------|


E|---------------------------|---------------------------|------------------------------|
B|------3-----------5--------|---------------------------|------------------------------|
G|------2-----------4--------|-----2-------------2-------|------6-----------4-----------|
D|---------------------------|-----2-------------1-------|------6-----------4-----------|
A|-2--------4---4------------|---------------------------|------------------------------|
E|-----------------------2---|-2--------2---1------------|-5--------6---4-----------2---|


E|------------------------------|---------------------------|---------------------------|
B|------------------------------|------3-----------5--------|---------------------------|
G|------2-----------2-----------|------2-----------4--------|-----2-------------2-------|
D|------2-------2-------2-------|---------------------------|-----2-------------2-------|
A|----------0---------------0---|-2--------4---4------------|-----------------------2---|
E|-2----------------------------|-----------------------2---|-2--------2---2------------|


E|---------------------------|------------------------------|---------------------------|
B|---------------------------|------------------------------|------10----------12-------|
G|------11----------13-------|------6-----------6-----------|------9-----------11-------|
D|------11----------12-------|------6-------6-------6-------|---------------------------|
A|----------4----------------|----------0---------------0---|-9--------4---11-----------|
E|-10-----------12-------5---|-5----------------------------|-----------------------9---|


E|------------------------|--------------------0---|-0-----0---------------|-2----2---2---4---4----9---|
B|------------------------|---------------9----2---|-2-----2---------------|-2----2---2---4---4----9---|
G|-----9-------------9----|------7--------7----2---|-2-----2---------------|-2----2---2---4---4----9---|
D|-----9-------------8----|------7-------------2---|-2-----2---------------|---------------------------|
A|------------------------|-----------7--------0---|-0-----0-------0---4---|---------------------------|
E|-9--------2---8---------|-7------------------0---|-0-----0---2-----------|---------------------------|


E|-9---9----9----------------|-2----2---2---4---4----9---|-9---9----9----------------|
B|-9---9----9----------------|-2----2---2---4---4----9---|-9---9----9----------------|
G|-9---9----9----------------|-2----2---2---4---4----9---|-9---9----9----------------|
D|-----------------------2---|---------------------------|-----------------------2---|
A|-------------------4-------|---------------------------|-------------------4-------|
E|---------------5-----------|---------------------------|---------------5-----------|


E|-2----2---2---4---4----9---|-9---9----9----------------|-2----2---2---4---4----9---|
B|-2----2---2---4---4----9---|-9---9----9----------------|-2----2---2---4---4----9---|
G|-2----2---2---4---4----9---|-9---9----9----------------|-2----2---2---4---4----9---|
D|---------------------------|-----------------------2---|---------------------------|
A|---------------------------|-------------------4-------|---------------------------|
E|---------------------------|---------------5-----------|---------------------------|


E|-9---9----9----------------|-2--4--2---2--4--2--2-----4---4-----4--9---|-9---9----9----------------|
B|-9---9----9----------------|-2--2--2---2--2--2--2-----4---4-----4--9---|-9---9----9----------------|
G|-9---9----9----------------|-2--2--2---2--2--2--2-----4---4-----4--9---|-9---9----9----------------|
D|-----------------------2---|-------------------------------------------|-----------------------2---|
A|-------------------4-------|-------------------------------------------|-------------------4-------|
E|---------------5-----------|-------------------------------------------|---------------5-----------|


E|-2----2---2---4---4----9---|-9---9----9----------------|-2------|-0------|-0------|
B|-2----2---2---4---4----9---|-9---9----9----------------|-3------|-0------|-2------|
G|-2----2---2---4---4----9---|-9---9----9----------------|-2------|-1------|-2------|
D|---------------------------|-----------------------2---|-0------|-2------|-2------|
A|---------------------------|-------------------4-------|-0------|-2------|-0------|
E|---------------------------|---------------5-----------|-0------|-0------|-0------|


E|-7----5----4----4----|-2----------2--2--2--2--|-7--7--7--7--7--9--7--9------2--2--2--2------|
B|-9----7----4----5----|-2----------2--2--2--2--|-7--7--7--7--7--9--7--9------2--2--2--2------|
G|-9----7----4----6----|-2----------2--2--2--2--|-7--7--7--7--7--9--7--9------2--2--2--2------|
D|-9----7----6----6----|-4----------------------|---------------------------------------------|
A|-7----5----6----4----|-4----------------------|---------------------------------------------|
E|-7----5----4----4----|-2----------------------|---------------------------------------------|


E|-7--7--7--7--7--7--7--7--9--9--9--9--9--9--9--9--|-2---2--2--2--2--2--2--2---2--2--2--2--2--2--|
B|-7--7--7--7--7--7--7--7--9--9--9--9--9--9--9--9--|-2---2--2--2--2--2--2--2---2--2--2--2--2--2--|
G|-7--7--7--7--7--7--7--7--9--9--9--9--9--9--9--9--|-2---2--2--2--2--2--2--2---2--2--2--2--2--2--|
D|-------------------------------------------------|---------------------------------------------|
A|-------------------------------------------------|---------------------------------------------|
E|-------------------------------------------------|---------------------------------------------|


E|-7--7--7--7--7--7--7--7--9--9--9--9--9--9--9--9--|-2---2--2--2--2--2--2--2---2--2--2--2--2--2--|
B|-7--7--7--7--7--7--7--7--9--9--9--9--9--9--9--9--|-2---2--2--2--2--2--2--2---2--2--2--2--2--2--|
G|-7--7--7--7--7--7--7--7--9--9--9--9--9--9--9--9--|-2---2--2--2--2--2--2--2---2--2--2--2--2--2--|
D|-------------------------------------------------|---------------------------------------------|
A|-------------------------------------------------|---------------------------------------------|
E|-------------------------------------------------|---------------------------------------------|


E|-7--7--7--7--7--7--7--7--9--9--9--9--9--9--9--9--|-2---2--2--2--2--2--2--2---2--2--2--2--2--2--|
B|-7--7--7--7--7--7--7--7--9--9--9--9--9--9--9--9--|-2---2--2--2--2--2--2--2---2--2--2--2--2--2--|
G|-7--7--7--7--7--7--7--7--9--9--9--9--9--9--9--9--|-2---2--2--2--2--2--2--2---2--2--2--2--2--2--|
D|-------------------------------------------------|---------------------------------------------|
A|-------------------------------------------------|---------------------------------------------|
E|-------------------------------------------------|---------------------------------------------|


E|-7--7--7--7--7--7--7--7--9--9--9--9--9--9--9--9--|-2---2--2--2--2--2--2--2---2--2--2--2--2--2--|
B|-7--7--7--7--7--7--7--7--9--9--9--9--9--9--9--9--|-2---2--2--2--2--2--2--2---2--2--2--2--2--2--|
G|-7--7--7--7--7--7--7--7--9--9--9--9--9--9--9--9--|-2---2--2--2--2--2--2--2---2--2--2--2--2--2--|
D|-------------------------------------------------|---------------------------------------------|
A|-------------------------------------------------|---------------------------------------------|
E|-------------------------------------------------|---------------------------------------------|


E|-7--7--7--7--7--7--7--7--9--9--9--9--9--9--9--9--|-2---2--2--2--2--2--2--2---2--2--2--2--2--2--|
B|-7--7--7--7--7--7--7--7--9--9--9--9--9--9--9--9--|-2---2--2--2--2--2--2--2---2--2--2--2--2--2--|
G|-7--7--7--7--7--7--7--7--9--9--9--9--9--9--9--9--|-2---2--2--2--2--2--2--2---2--2--2--2--2--2--|
D|-------------------------------------------------|---------------------------------------------|
A|-------------------------------------------------|---------------------------------------------|
E|-------------------------------------------------|---------------------------------------------|


E|-7--7--7--7--7--7--7--7--9--9--9--9--9--9--9--9--|-2---2--2--2--2--2--2--2---2--2--2--2--2--2--|
B|-7--7--7--7--7--7--7--7--9--9--9--9--9--9--9--9--|-2---2--2--2--2--2--2--2---2--2--2--2--2--2--|
G|-7--7--7--7--7--7--7--7--9--9--9--9--9--9--9--9--|-2---2--2--2--2--2--2--2---2--2--2--2--2--2--|
D|-------------------------------------------------|---------------------------------------------|
A|-------------------------------------------------|---------------------------------------------|
E|-------------------------------------------------|---------------------------------------------|


E|-7--7--7--7--7--7--7--7--9--9--9--9--9--9--9--9--|-2---2--2--2--2--2--2--2---2--2--2--2--2--2--|
B|-7--7--7--7--7--7--7--7--9--9--9--9--9--9--9--9--|-2---2--2--2--2--2--2--2---2--2--2--2--2--2--|
G|-7--7--7--7--7--7--7--7--9--9--9--9--9--9--9--9--|-2---2--2--2--2--2--2--2---2--2--2--2--2--2--|
D|-------------------------------------------------|---------------------------------------------|
A|-------------------------------------------------|---------------------------------------------|
E|-------------------------------------------------|---------------------------------------------|


E|-7--7--7--7--7--7--7--7--9--9--9--9--9--9--9--9--|-2---2--2--2--2--2--2--2---2--2--2--2--2--2--|
B|-7--7--7--7--7--7--7--7--9--9--9--9--9--9--9--9--|-2---2--2--2--2--2--2--2---2--2--2--2--2--2--|
G|-7--7--7--7--7--7--7--7--9--9--9--9--9--9--9--9--|-2---2--2--2--2--2--2--2---2--2--2--2--2--2--|
D|-------------------------------------------------|---------------------------------------------|
A|-------------------------------------------------|---------------------------------------------|
E|-------------------------------------------------|---------------------------------------------|


E|-7--7--7--7-----7--7-----9--9--9--9-----9--9---|-2-----5-----|-------------|-------------|
B|-7--7--7--7-----7--7-----9--9--9--9-----9--9---|-2-----5-----|-------------|-------------|
G|-7--7--7--7-----7--7-----9--9--9--9-----9--9---|-2-----6-----|-7-----6-----|-4-----5-----|
D|-----------------------------------------------|-------------|-7-----5-----|-4-----3-----|
A|-----------------------------------------------|-------------|-5-----4-----|-2-----4-----|
E|-----------------------------------------------|-------------|-7-----5-----|-4-----------|


E|-2------|
B|-2------|
G|-4------|
D|-4------|
A|-4------|
E|-2------|





Track 2: Untitled

E|--------|--------|--------|--------|--------|--------|--------|------14---14----|
B|--------|--------|--------|--------|--------|--------|--------|------14---14----|
G|--------|--------|--------|--------|--------|--------|--------|-----------------|
D|--------|--------|--------|--------|--------|--------|--------|-----------------|
A|--------|--------|--------|--------|--------|--------|--------|-----------------|
E|--------|--------|--------|--------|--------|--------|--------|-----------------|


E|-14-----|-14----------|--------|------14---14----|-14-----|-14----------|--------|
B|-14-----|-14----------|--------|------14---14----|-14-----|-14----------|--------|
G|--------|-------------|--------|-----------------|--------|-------------|--------|
D|--------|-------------|--------|-----------------|--------|-------------|--------|
A|--------|-------------|--------|-----------------|--------|-------------|--------|
E|--------|-------------|--------|-----------------|--------|-------------|--------|


E|---------------------------------------|--------|---------------------------------------|
B|---------------------------------------|--------|---------------------------------------|
G|-----2--4--6--2--4--6--2--4--6----4----|--------|-----2--4--6--2--4--6--2--4--6----4----|
D|---------------------------------------|--------|---------------------------------------|
A|-----0--2--4--0--2--4--0--2--4----2----|--------|-----0--2--4--0--2--4--0--2--4----2----|
E|---------------------------------------|--------|---------------------------------------|


E|--------|---------------------------------------|--------|-----------------------|
B|--------|---------------------------------------|--------|-----------------------|
G|--------|-----2--4--6--2--4--6--2--4--6----4----|--------|-----------------------|
D|--------|---------------------------------------|--------|-----------------2-----|
A|--------|-----0--2--4--0--2--4--0--2--4----2----|--------|---------4---2---0-----|
E|--------|---------------------------------------|--------|-2---4-----------2-----|


E|--------|--------|--------|--------|--------|--------|--------|-----------------------------------|
B|--------|--------|--------|--------|--------|--------|--------|-----------------------------------|
G|--------|--------|--------|--------|--------|--------|--------|-------2---------------2-----------|
D|--------|--------|--------|--------|--------|--------|--------|-----------2-------2-------2-------|
A|--------|--------|--------|--------|--------|--------|--------|----0----------0---------------0---|
E|--------|--------|--------|--------|--------|--------|--------|-2---------------------------------|


E|-5-----7------------|-----9---7---0---9-------9---8---|-7----------------7----5---|
B|------------7---5---|-5-------------------------------|------7---5----------------|
G|--------------------|---------------------------------|---------------------------|
D|--------------------|---------------------------------|---------------------------|
A|--------------------|---------------------------------|---------------------------|
E|--------------------|---------------------------------|---------------------------|


E|-5---------------|-5-----------2-------7---5----|-5----------------------|-5-----------2---2---5---2---5---|
B|-----5-----------|-----5---2--------------------|-----5----7---------5---|-----5---2-----------------------|
G|-----------------|------------------------------|------------------------|---------------------------------|
D|-----------------|------------------------------|------------------------|---------------------------------|
A|-----------------|------------------------------|------------------------|---------------------------------|
E|-----------------|------------------------------|------------------------|---------------------------------|


E|-2---0-------2-------4-----2----|----4------2--------7-----2----|--------|----4------2--------7-----2--5--2---|
B|---------5----------------------|-------------------------------|--------|------------------------------------|
G|--------------------------------|-------------------------------|--------|------------------------------------|
D|--------------------------------|-------------------------------|--------|------------------------------------|
A|--------------------------------|-------------------------------|--------|------------------------------------|
E|--------------------------------|-------------------------------|--------|------------------------------------|


E|-2------------5--4--2--7--5--4--9------2---|-2---4--4--2--5--5--7--9-----9--7---------0--|
B|-----0--2--2-------------------------------|-----------------------------------9--7------|
G|-------------------------------------------|---------------------------------------------|
D|-------------------------------------------|---------------------------------------------|
A|-------------------------------------------|---------------------------------------------|
E|-------------------------------------------|---------------------------------------------|


E|-2---0---4---5---7---4---5---9---5---7---|-------5-----------2---|-2------|-------5-----------2---|
B|-----------------------------------------|-----------5---2---2---|-2------|-----------5---2-------|
G|-----------------------------------------|-------------------2---|-2------|-----------------------|
D|-----------------------------------------|-----------------------|--------|-----------------------|
A|-----------------------------------------|-----------------------|--------|-----------------------|
E|-----------------------------------------|-----------------------|--------|-----------------------|


E|-5-------------2--------|-------5---2-------5---|-5---2---------5--------|--------|
B|-----5----2-------------|---------------2-------|----------2-------------|--------|
G|------------------------|-----------------------|------------------------|--------|
D|------------------------|-----------------------|------------------------|--------|
A|------------------------|-----------------------|------------------------|--------|
E|------------------------|-----------------------|------------------------|--------|


E|--------|-2--5--------2--5-------------------5---|-5-----------|------------5----|
B|--------|-------2--5--------5--2-------------5---|-5-----------|-5-----7---------|
G|--------|-------------------------4--2-------6---|-6-----------|-----------------|
D|--------|----------------------------------------|-------------|-----------------|
A|--------|----------------------------------------|-------------|-----------------|
E|--------|----------------------------------------|-------------|-----------------|


E|-4--------5----4--------|-7-----5------------|------------10-10-10--9---|------------5----|
B|------5-----------------|-7----------9---5---|-5----------10-10-10--9---|-5-----7----5----|
G|------------------------|--------------------|--------------------------|-----------------|
D|------------------------|--------------------|--------------------------|-----------------|
A|------------------------|--------------------|--------------------------|-----------------|
E|------------------------|--------------------|--------------------------|-----------------|


E|-----7---7--7--7---5---4--4---4--5---|-7-----9--9--9--9---7---5--4---|-2------2--2--2-----5--5--5------5--5--5---|
B|-----7---7--7--7---5---4--4---4--5---|-7-----9--9--9--9---7---5--4---|-2------2--2--2-----5--5--5------5--5--5---|
G|-------------------------------------|-------------------------------|-------------------------------------------|
D|-------------------------------------|-------------------------------|-------------------------------------------|
A|-------------------------------------|-------------------------------|-------------------------------------------|
E|-------------------------------------|-------------------------------|-------------------------------------------|


E|-5--5--5---2--------------------|---------------7----5-----------|-------------2--5--2-------2--5--2---|
B|-5--5--5-------5---2------------|---------2--7-----------7---5---|-7---------------------5-------------|
G|-----------------------4----2---|-2-------2----------------------|-----6---4---------------------------|
D|--------------------------------|--------------------------------|-------------------------------------|
A|--------------------------------|--------------------------------|-------------------------------------|
E|--------------------------------|--------------------------------|-------------------------------------|


E|-----5--7--5-------5--7--5--------|--------|-------------|---------------------------|
B|-7-------------7-------------7----|-7------|-5----5------|-5---------2---5---5---7---|
G|----------------------------------|--------|-------------|---------------------------|
D|----------------------------------|--------|-------------|---------------------------|
A|----------------------------------|--------|-------------|---------------------------|
E|----------------------------------|--------|-------------|---------------------------|


E|-2----5------|------2---0----2---0----|------2---0----2---0----|------2---0----2---0----|
B|-------------|---------------2---0----|------2---0----2---0----|------2---0----2---0----|
G|-------------|------------------------|------------------------|------------------------|
D|-------------|------------------------|------------------------|------------------------|
A|-------------|------------------------|------------------------|------------------------|
E|-------------|------------------------|------------------------|------------------------|


E|------2---0----5---0----|------2---0----2---0----|------2---0--2--0----2---5---|
B|------2---0----5---0----|------2---0----2---0----|-----------------------------|
G|------------------------|------------------------|-----------------------------|
D|------------------------|------------------------|-----------------------------|
A|------------------------|------------------------|-----------------------------|
E|------------------------|------------------------|-----------------------------|


E|-2-----------0---2---5---5----|-5--7------10-9--7--5--7---9---7-------|-------------------------------------|
B|------0--2--------------------|-----------------------------------7---|-5--7---7--5---7---5--7---7--5---7---|
G|------------------------------|---------------------------------------|-------------------------------------|
D|------------------------------|---------------------------------------|-------------------------------------|
A|------------------------------|---------------------------------------|-------------------------------------|
E|------------------------------|---------------------------------------|-------------------------------------|


E|-------------------------------------|-5--2--5------------9----7---|-7---9---7--5--7-------------|
B|-----5--7---7--5---7---5--7---7--5---|-----------7---5-------------|-------------------7---------|
G|-------------------------------------|-----------------------------|-----------------------------|
D|-------------------------------------|-----------------------------|-----------------------------|
A|-------------------------------------|-----------------------------|-----------------------------|
E|-------------------------------------|-----------------------------|-----------------------------|


E|-----9---7--9---10-9---7--5--7-----------|-------------------4---2---|----------0--2---5-----7---|
B|-10-----------------------------7--------|-------------4--2----------|-------0-------------------|
G|-----------------------------------6--4--|-------6--4----------------|---------------------------|
D|-----------------------------------------|---------------------------|---------------------------|
A|-----------------------------------------|---------------------------|---------------------------|
E|-----------------------------------------|---------------------------|---------------------------|


E|------2----5----7----|-5--------9--7--9-------7---9---|-----------------------12--10------|
B|---------------------|--------------------10----------|-----10-12-----12--10----------12--|
G|---------------------|--------------------------------|-9---------11----------------------|
D|---------------------|--------------------------------|-----------------------------------|
A|---------------------|--------------------------------|-----------------------------------|
E|---------------------|--------------------------------|-----------------------------------|


E|-12-10--14----------12-14-------9-----14-|----12----9-----16----14-12--14----|-14-----------7----5----|
B|------------12--14--------12-10----10----|-10----10----12----12--------------|----------5-------------|
G|-----------------------------------------|-----------------------------------|------------------------|
D|-----------------------------------------|-----------------------------------|------------------------|
A|-----------------------------------------|-----------------------------------|------------------------|
E|-----------------------------------------|-----------------------------------|------------------------|


E|-5-----5---2-------5---|-----------5-------7---|-9---------7----------|-9---------7-------------5---|
B|---------------2-------|---------------5-------|-----7--9-------------|-----7--9------------5-------|
G|-----------------------|-----------------------|----------------------|-----------------------------|
D|-----------------------|-----------------------|----------------------|-----------------------------|
A|-----------------------|-----------------------|----------------------|-----------------------------|
E|-----------------------|-----------------------|----------------------|-----------------------------|


E|-5---5-----------|------------5----|-4--------5----4--------|-7-----5----4-------|
B|-----5-----------|-5-----7---------|------5-----------------|----------------5---|
G|-----------------|-----------------|------------------------|--------------------|
D|-----------18----|-----------------|------------------------|--------------------|
A|-----------16----|-----------------|------------------------|--------------------|
E|-----------17----|-----------------|------------------------|--------------------|


E|-------------|------------5----|-4--------5----4--------|-7----7----7---5----4-------|
B|-5-----------|-5-----7---------|------5-----------------|-7----7-----------------5---|
G|-------------|-----------------|------------------------|----------------------------|
D|-------------|-----------------|------------------------|----------------------------|
A|-------------|-----------------|------------------------|----------------------------|
E|-------------|-----------------|------------------------|----------------------------|


E|----------------------|-5----2--------------------|----------7----5-----------|-------------2--5--2-------2--5--2---|
B|-5--------------2--5--|----------5---2------------|-------------------7---5---|-7---------------------5-------------|
G|----------------------|------------------4----2---|-2-------------------------|-----6---4---------------------------|
D|----------------------|---------------------------|---------------------------|-------------------------------------|
A|----------------------|---------------------------|---------------------------|-------------------------------------|
E|----------------------|---------------------------|---------------------------|-------------------------------------|


E|-----5--7--9---9---5-----|-5----5-----5----|-5-----5----5----|-5----5-----5----|
B|-7-----------------------|-----------------|-----------------|-----------------|
G|-------------------------|-----------------|-----------------|-----------------|
D|-------------------------|-----------------|-----------------|-----------------|
A|-------------------------|-----------------|-----------------|-----------------|
E|-------------------------|-----------------|-----------------|-----------------|


E|-5-----5-----|-2-----------|--------|--------|--------|--------|--------|--------|
B|-------------|-2-----------|--------|--------|--------|--------|--------|--------|
G|-------------|-2-----------|--------|--------|--------|--------|--------|--------|
D|-------------|-------------|--------|--------|--------|--------|--------|--------|
A|-------------|-------------|--------|--------|--------|--------|--------|--------|
E|-------------|-------------|--------|--------|--------|--------|--------|--------|


E|--------|--------|--------|--------|--------|--------|--------|--------|--------|
B|--------|--------|--------|--------|--------|--------|--------|--------|--------|
G|--------|--------|--------|--------|--------|--------|--------|--------|--------|
D|--------|--------|--------|--------|--------|--------|--------|--------|--------|
A|--------|--------|--------|--------|--------|--------|--------|--------|--------|
E|--------|--------|--------|--------|--------|--------|--------|--------|--------|


E|--------|--------|--------|--------|--------|--------|--------|
B|--------|--------|--------|--------|--------|--------|--------|
G|--------|--------|--------|--------|--------|--------|--------|
D|--------|--------|--------|--------|--------|--------|--------|
A|--------|--------|--------|--------|--------|--------|--------|
E|--------|--------|--------|--------|--------|--------|--------|





Track 3: Untitled

E|--------|--------|--------|--------|--------|--------|--------|--------|--------|
B|--------|--------|--------|--------|--------|--------|--------|--------|--------|
G|--------|--------|--------|--------|--------|--------|--------|--------|--------|
D|--------|--------|--------|--------|--------|--------|--------|--------|--------|
A|--------|--------|--------|--------|--------|--------|--------|--------|--------|
E|--------|--------|--------|--------|--------|--------|--------|--------|--------|


E|--------|--------|--------|--------|--------|--------|--------|--------|--------|
B|--------|--------|--------|--------|--------|--------|--------|--------|--------|
G|--------|--------|--------|--------|--------|--------|--------|--------|--------|
D|--------|--------|--------|--------|--------|--------|--------|--------|--------|
A|--------|--------|--------|--------|--------|--------|--------|--------|--------|
E|--------|--------|--------|--------|--------|--------|--------|--------|--------|


E|--------|--------|--------|--------|--------|--------|--------|--------|--------|
B|--------|--------|--------|--------|--------|--------|--------|--------|--------|
G|--------|--------|--------|--------|--------|--------|--------|--------|--------|
D|--------|--------|--------|--------|--------|--------|--------|--------|--------|
A|--------|--------|--------|--------|--------|--------|--------|--------|--------|
E|--------|--------|--------|--------|--------|--------|--------|--------|--------|


E|--------|--------|--------|--------|--------|--------|--------|--------|--------|
B|--------|--------|--------|--------|--------|--------|--------|--------|--------|
G|--------|--------|--------|--------|--------|--------|--------|--------|--------|
D|--------|--------|--------|--------|--------|--------|--------|--------|--------|
A|--------|--------|--------|--------|--------|--------|--------|--------|--------|
E|--------|--------|--------|--------|--------|--------|--------|--------|--------|


E|--------|--------|--------|--------|--------|--------|--------|--------|--------|
B|--------|--------|--------|--------|--------|--------|--------|--------|--------|
G|--------|--------|--------|--------|--------|--------|--------|--------|--------|
D|--------|--------|--------|--------|--------|--------|--------|--------|--------|
A|--------|--------|--------|--------|--------|--------|--------|--------|--------|
E|--------|--------|--------|--------|--------|--------|--------|--------|--------|


E|--------|--------|--------|--------|--------|--------|--------|--------|--------|
B|--------|--------|--------|--------|--------|--------|--------|--------|--------|
G|--------|--------|--------|--------|--------|--------|--------|--------|--------|
D|--------|--------|--------|--------|--------|--------|--------|--------|--------|
A|--------|--------|--------|--------|--------|--------|--------|--------|--------|
E|--------|--------|--------|--------|--------|--------|--------|--------|--------|


E|--------|--------|--------|--------|--------|--------|--------|--------|--------|
B|--------|--------|--------|--------|--------|--------|--------|--------|--------|
G|--------|--------|--------|--------|--------|--------|--------|--------|--------|
D|--------|--------|--------|--------|--------|--------|--------|--------|--------|
A|--------|--------|--------|--------|--------|--------|--------|--------|--------|
E|--------|--------|--------|--------|--------|--------|--------|--------|--------|


E|--------|--------|--------|--------|--------|--------|--------|--------|--------|
B|--------|--------|--------|--------|--------|--------|--------|--------|--------|
G|--------|--------|--------|--------|--------|--------|--------|--------|--------|
D|--------|--------|--------|--------|--------|--------|--------|--------|--------|
A|--------|--------|--------|--------|--------|--------|--------|--------|--------|
E|--------|--------|--------|--------|--------|--------|--------|--------|--------|


E|--------|--------|--------|--------|--------|--------|--------|--------|--------|
B|--------|--------|--------|--------|--------|--------|--------|--------|--------|
G|--------|--------|--------|--------|--------|--------|--------|--------|--------|
D|--------|--------|--------|--------|--------|--------|--------|--------|--------|
A|--------|--------|--------|--------|--------|--------|--------|--------|--------|
E|--------|--------|--------|--------|--------|--------|--------|--------|--------|


E|--------|--------|--------|--------|--------|--------|--------|--------|--------|
B|--------|--------|--------|--------|--------|--------|--------|--------|--------|
G|--------|--------|--------|--------|--------|--------|--------|--------|--------|
D|--------|--------|--------|--------|--------|--------|--------|--------|--------|
A|--------|--------|--------|--------|--------|--------|--------|--------|--------|
E|--------|--------|--------|--------|--------|--------|--------|--------|--------|


E|--------|--------|--------|--------|--------|--------|--------|--------|--------|
B|--------|--------|--------|--------|--------|--------|--------|--------|--------|
G|--------|--------|--------|--------|--------|--------|--------|--------|--------|
D|--------|--------|--------|--------|--------|--------|--------|--------|--------|
A|--------|--------|--------|--------|--------|--------|--------|--------|--------|
E|--------|--------|--------|--------|--------|--------|--------|--------|--------|


E|--------|--------|--------|--------|--------|--------|--------|--------|--------|
B|--------|--------|--------|--------|--------|--------|--------|--------|--------|
G|--------|--------|--------|--------|--------|--------|--------|--------|--------|
D|--------|--------|--------|--------|--------|--------|--------|--------|--------|
A|--------|--------|--------|--------|--------|--------|--------|--------|--------|
E|--------|--------|--------|--------|--------|--------|--------|--------|--------|


E|--------|--------|--------|--------|--------|--------|--------|--------|--------|
B|--------|--------|--------|--------|--------|--------|--------|--------|--------|
G|--------|--------|--------|--------|--------|--------|--------|--------|--------|
D|--------|--------|--------|--------|--------|--------|--------|--------|--------|
A|--------|--------|--------|--------|--------|--------|--------|--------|--------|
E|--------|--------|--------|--------|--------|--------|--------|--------|--------|


E|--------|-----------5-----|-5----4----2-----|---------7---5----7---5---4---|------2--------2--0-----|
B|--------|------5----------|-----------------|-----7------------------------|-2-------------------2--|
G|--------|-----------------|-----------------|------------------------------|------------------------|
D|--------|-----------------|-----------------|------------------------------|------------------------|
A|--------|-----------------|-----------------|------------------------------|------------------------|
E|--------|-----------------|-----------------|------------------------------|------------------------|


E|----2--0------------14------2---|-2------14--14-14--17--------|-------------------------------------|
B|-----------0---2--------2-------|-----14----------------------|-------------------------------0--2--|
G|--------------------------------|-----------------------------|-------------------------4--2--------|
D|--------------------------------|------------------------4----|-4-----------------2--4--------------|
A|--------------------------------|-----------------------------|----------4-----5--------------------|
E|--------------------------------|-----------------------------|-------2-----4-----------------------|


E|-------------0--2---0---4-2-5-----0---1---|-4-2-5-----0-----4-2-5-----1---2--4-2-5-----2---|
B|-------0--2--------------------4----------|--------5---------------5----------------5------|
G|-4--2-------------------------------------|------------------------------------------------|
D|------------------------------------------|------------------------------------------------|
A|------------------------------------------|------------------------------------------------|
E|------------------------------------------|------------------------------------------------|


E|-2---17---16---14---17-16-14-|----------14-12----------------------------16-16-12-|
B|-----------------------------|-17-15-14-------12-10---------12-14-15-17-----------|
G|-----------------------------|----------------------10--7-------------------------|
D|-----------------------------|----------------------------------------------------|
A|-----------------------------|----------------------------------------------------|
E|-----------------------------|----------------------------------------------------|


E|-14-16-16-12-14----------------------------------|-----------------------------------------|
B|----------------12-------------------------------|-----------------------------------------|
G|-------------------11----11----------------------|-----------------------------2-----------|
D|----------------------11----12-------------------|---------7-----------------------3-------|
A|-------------------------------12----------------|-16----------9-------2---------------4---|
E|----------------------------------12---12-13-14--|------10---------10------4---------------|


E|---------------------------|---------------------------|------------------|--------|
B|---------------------------|---------------------------|------------------|--------|
G|---------------------------|---------------------------|------------------|--------|
D|-----------16--------4-----|-----------4---------4-----|------------------|--------|
A|--------------16--------4--|--------------4---------4--|------------4-----|--------|
E|-2-------------------------|---------------------------|------4-----------|-2------|





Track 4: bajo

G|--------|--------|----4-------------4-----4-----------4--4-----|-4--------4-----4--4---------6--4-----4--4--4--|
D|--------|--------|---------------------------------------------|-----------------------------------------------|
A|--------|--------|-------2--2----------------2--2--------------|----2--2-----2------------2--------------------|
E|--------|--------|---------------------------------------------|-----------------------------------------------|


G|----4-----4--4--4-----4--------6--4-----8--------|----8-----6--------6-----4-----4--4--------4-------4-|
D|----------------------------------------------9--|-----------------------------------------------------|
A|-------2--2--------------2--2--------------------|-------------4--4-----2--------------0-4-4---0-2-2---|
E|-------------------------------------------------|-7---------------------------------------------------|


G|------------------------|----------------|------------------------|-----------------------|
D|------------------------|----------------|------------------------|-----------------------|
A|-------0----2-------2---|-2--------------|-------0----4-------2---|-2---------2---4---2---|
E|-2----------------------|----------------|-2----------------------|-----------------------|


G|------------------------|----------------|------------------------|----------------|
D|------------------------|----------------|------------------------|----------------|
A|-------0----2-------2---|-2--------------|-------0----4-------2---|-2----------4---|
E|-2----------------------|----------------|-2----------------------|----------------|


G|------------------------|----------------|------------------------|----------------|
D|------------------------|----------------|------------------------|----------------|
A|-------0----2-------2---|-2--------------|-------0----4-------2---|-2----------4---|
E|-2----------------------|----------------|-2----------------------|----------------|


G|------------------------|----------------|-------------|-------------|--------|--------|
D|------------------------|----------------|-------------|-------------|--------|--------|
A|-------0----2-------2---|-2--------------|-4-----3-----|-2-----------|--------|--------|
E|-2----------------------|----------------|-------------|-------------|--------|--------|


G|--------|--------|--------|--------|--------|--------------------|---------------------------|
D|--------|--------|--------|--------|--------|--------------------|------2-----------4--------|
A|--------|--------|--------|--------|--------|--------------------|-2--------2---4------------|
E|--------|--------|--------|--------|--------|------14------14----|-----------------------2---|


G|------------------------|------------------------------|---------------------|-------------|
D|------------------------|------2-----------4-----------|---------------------|-------------|
A|------3----4----3---2---|-2--------2---4---------------|------3----4----3----|-2-----4-----|
E|-2----------------------|----------------------2---2---|-2-------------------|-------------|


G|---------------------|---------------------------|---------------------|---------------------------|
D|---------------------|---------------------------|---------------------|------2-----------4--------|
A|------4----3----2----|-0-------------------------|------3----4----3----|-2--------2---4------------|
E|-2-------------------|------0----4---5---5---4---|-2-------------------|-----------------------2---|


G|------------------------|------------------------------|---------------------|-------------|
D|------------------------|------2-----------4-----------|---------------------|-------------|
A|------3----4----3---2---|-2--------2---4---------------|------3----4----3----|-2-----4-----|
E|-2----------------------|----------------------2---2---|-2-------------------|-------------|


G|---------------------|---------------------------|---------------------|---------------------------|
D|---------------------|---------------------------|---------------------|------2-----------4--------|
A|------4----3----2----|-0-------------------------|------3----4----3----|-2--------2---4------------|
E|-2-------------------|------0----4---5---5---4---|-2-------------------|-----------------------2---|


G|------------------------|---------------------------|---------------------|------------------------------|
D|------------------------|------7---9-------7--------|---------------------|-4------------6---------------|
A|------3----4----3---2---|-5------------7--------7---|------4----5----7----|------4-----------8---6---4---|
E|-2----------------------|---------------------------|-5-------------------|------------------------------|


G|---------------------------------|---------------------------------|-------------|
D|---------------------------------|---------------------------------|-------------|
A|-6---5---4---3-------------------|-----5---9---8---7---------------|-------------|
E|-----------------3---4---5---6---|-7-------------------9---7---5---|-5-----17----|


G|---------------------------------|---------------------------------|---------------------------------|
D|---------------------------------|---------------------------------|---------------------------------|
A|-5-------5-------7-------7-------|-----------------------------7---|-5-------5-------7-------7-------|
E|-----5-------5-------7-------7---|-5---0---5---0---5---0---5-------|-----5-------5-------7-------7---|


G|---------------------------------|---------------------------------|---------------------------------|
D|---------------------------------|---------------------------------|---------------------------------|
A|-----------------------------7---|-5-------5-------7-------7-------|-----------------------------7---|
E|-5---0---5---0---5---0---5-------|-----5-------5-------7-------7---|-5---0---5---0---5---0---5-------|


G|---------------------------------|---------------------------------|---------------------------------|
D|---------------------------------|---------------------------------|---------------------------------|
A|-5-------5-------7-------7-------|-----------------------------7---|-5-------5-------7-------7-------|
E|-----5-------5-------7-------7---|-5---0---5---0---5---0---5-------|-----5-------5-------7-------7---|


G|---------------------------------|---------------------------------|---------------------------------|
D|---------------------------------|---------------------------------|---------------------------------|
A|-----------------------------7---|-5-------5-------7-------7-------|-----------------------------7---|
E|-5---0---5---0---5---0---5-------|-----5-------5-------7-------7---|-5---0---5---0---5---0---5-------|


G|---------------------------------|---------------------------------|---------------------------------|
D|---------------------------------|---------------------------------|---------------------------------|
A|-5---4---2---4---5---4---5---6---|-7---5---4---5-------------------|-----------------5---4---2---4---|
E|---------------------------------|-----------------0---2---3---4---|-5---4---2---4-------------------|


G|---------------------------|--------|------------------------------|---------------------------|
D|-2-------0-----------------|--------|------------------------------|------2-----------4--------|
A|-----2-------0--------4----|--------|------------------------------|-2--------2---4------------|
E|-----------------4---------|-2------|----------1---2---4---5---6---|-----------------------2---|


G|------------------------|------------------------------|---------------------|-------------|
D|------------------------|------2-----------4-----------|---------------------|-------------|
A|------3----4----3---2---|-2--------2---4---------------|------3----4----3----|-2-----4-----|
E|-2----------------------|----------------------2---2---|-2-------------------|-------------|


G|---------------------|---------------------------|---------------------|---------------------------|
D|---------------------|---------------------------|---------------------|------2-----------4--------|
A|------4----3----2----|-0-------------------------|------4----3----4----|-2--------2---4------------|
E|-2-------------------|------0----4---5---5---4---|-2-------------------|-----------------------2---|


G|------------------------|------------------------------|---------------------|-------------|
D|------------------------|------2-----------4-----------|---------------------|-------------|
A|------3----4----3---2---|-2--------2---4---------------|------3----4----3----|-2-----4-----|
E|-2----------------------|----------------------2---2---|-2-------------------|-------------|


G|---------------------|---------------------------|---------------------|---------------------------|
D|---------------------|---------------------------|---------------------|------2-----------4--------|
A|------4----3----2----|-0-------------------------|------4----3----4----|-2--------2---4------------|
E|-2-------------------|------0----4---5---5---4---|-2-------------------|-----------------------2---|


G|------------------------|---------------------------|---------------------|------------------------------|
D|------------------------|------7---9-------7--------|---------------------|-4------------6---------------|
A|------3----4----3---2---|-5------------7--------7---|------4----5----7----|------4-----------8---6---4---|
E|-2----------------------|---------------------------|-5-------------------|------------------------------|


G|---------------------------------|---------------------------------|-----------------------|
D|---------------------------------|---------------------------------|-------4---------------|
A|-6---5---4---3-------------------|-----5---9---8---7---------------|-----------5-------7---|
E|-----------------3---4---5---6---|-7-------------------9---7---5---|-5-------------5-------|


G|---------------------------------|---------------------------------|---------------------------------|
D|---------------------------------|---------------------------------|---------------------------------|
A|-5-------5-------7-------7-------|-----------------------------7---|-5-------5-------7-------7-------|
E|-----5-------5-------7-------7---|-5---0---5---0---5---0---5-------|-----5-------5-------7-------7---|


G|---------------------------------|---------------------------------|---------------------------------|
D|---------------------------------|---------------------------------|---------------------------------|
A|-----------------------------7---|-5-------5-------7-------7-------|-----------------------------7---|
E|-5---0---5---0---5---0---5-------|-----5-------5-------7-------7---|-5---0---5---0---5---0---5-------|


G|---------------------------------|---------------------------------|---------------------------------|
D|---------------------------------|---------------------------------|---------------------------------|
A|-5-------5-------7-------7-------|-----------------------------7---|-5-------5-------7-------7-------|
E|-----5-------5-------7-------7---|-5---0---5---0---5---0---5-------|-----5-------5-------7-------7---|


G|---------------------------------|---------------------------------|---------------------------------|
D|---------------------------------|---------------------------------|---------------------------------|
A|-----------------------------7---|-5-------5-------7-------7-------|-----------------------------7---|
E|-5---0---5---0---5---0---5-------|-----5-------5-------7-------7---|-5---0---5---0---5---0---5-------|


G|---------------------------------|---------------------------------|---------------------------------|
D|---------------------------------|---------------------------------|---------------------------------|
A|-5---4---2---4---5---4---5---6---|-7---5---4---5-------------------|-----------------5---4---2---4---|
E|---------------------------------|-----------------0---2---3---4---|-5---4---2---4-------------------|


G|---------------------------|-----------------14-11-------------|-16----16----18----16-18----------------|
D|-2-------0-----------------|-----------14----------14-11----14-|-------------------------16-18----------|
A|-----2-------0--------4----|-----------------------------14----|-------------------------------16-------|
E|-----------------4---------|-2---------------------------------|-----------------------------------14---|


G|---------------------------------|---------------------------------|---------------------------------|
D|---------------------------------|---------------------2---4-------|---------------------------------|
A|-2---------------4---0-----------|-----0---2---3---4-----------3---|-2---------------4---0-----------|
E|-----0---2---4-----------4---3---|-2-------------------------------|-----0---2---4-----------4---3---|


G|---------------------------------|---------------------------------|---------------------------------|
D|---------------------2---4-------|---------------------------------|---------------------2---4-------|
A|-----0---2---3---4-----------3---|-2---------------4---0-----------|-----0---2---3---4-----------3---|
E|-2-------------------------------|-----0---2---4-----------4---3---|-2-------------------------------|


G|---------------------------------|---------------------------------|---------------------------------|
D|---------------------------------|---------------------2---4-------|---------------------------------|
A|-2---------------4---0-----------|-----0---2---3---4-----------3---|-2---------------4---0-----------|
E|-----0---2---4-----------4---3---|-2-------------------------------|-----0---2---4-----------4---3---|


G|---------------------------------|---------------------------------|---------------------------------|
D|---------------------2---4-------|---------------------------------|---------------------2---4-------|
A|-----0---2---3---4-----------3---|-2---------------4---0-----------|-----0---2---3---4-----------3---|
E|-2-------------------------------|-----0---2---4-----------4---3---|-2-------------------------------|


G|---------------------------------|---------------------------------|---------------------------------|
D|---------------------------------|---------------------2---4-------|---------------------------------|
A|-2---------------4---0-----------|-----0---2---3---4-----------3---|-2---------------4---0-----------|
E|-----0---2---4-----------4---3---|-2-------------------------------|-----0---2---4-----------4---3---|


G|---------------------------------|---------------------------------|---------------------|
D|---------------------2---4-------|---------------------------------|---------------------|
A|-----0---2---3---4-----------3---|-2---------------4---0-----------|------4--------------|
E|-2-------------------------------|-----0---2---4-----------4---3---|-2---------5----0----|


G|---------------------|---------------------|--------|
D|---------------------|---------------------|--------|
A|------7---------5----|------6----4---------|--------|
E|-7---------5---------|-4--------------4----|-2------|





Track 5: parche bajo

G|--------|--------|---------------------------|---------------------------|---------------------------|
D|--------|--------|-4----4---4---4----4---4---|-4----4---4---4----4---4---|-4----4---4---4----4---4---|
A|--------|--------|-0------------0------------|-0------------0------------|-0------------0------------|
E|--------|--------|-0------------0------------|-0------------0------------|-0------------0------------|


G|---------------------------|--------|--------|--------|--------|--------|--------|
D|-4----4---4---4----4---4---|--------|--------|--------|--------|--------|--------|
A|-0------------0------------|--------|--------|--------|--------|--------|--------|
E|-0------------0------------|--------|--------|--------|--------|--------|--------|


G|--------|--------|--------|--------|--------|--------|--------|--------|--------|
D|--------|--------|--------|--------|--------|--------|--------|--------|--------|
A|--------|--------|--------|--------|--------|--------|--------|--------|--------|
E|--------|--------|--------|--------|--------|--------|--------|--------|--------|


G|--------|--------|--------|--------|--------|--------|--------|--------|--------|
D|--------|--------|--------|--------|--------|--------|--------|--------|--------|
A|--------|--------|--------|--------|--------|--------|--------|--------|--------|
E|--------|--------|--------|--------|--------|--------|--------|--------|--------|


G|--------|--------|--------|--------|--------|--------|--------|--------|--------|
D|--------|--------|--------|--------|--------|--------|--------|--------|--------|
A|--------|--------|--------|--------|--------|--------|--------|--------|--------|
E|--------|--------|--------|--------|--------|--------|--------|--------|--------|


G|--------|--------|--------|--------|--------|--------|--------|--------|--------|
D|--------|--------|--------|--------|--------|--------|--------|--------|--------|
A|--------|--------|--------|--------|--------|--------|--------|--------|--------|
E|--------|--------|--------|--------|--------|--------|--------|--------|--------|


G|--------|--------|--------|--------|--------|--------|--------|--------|--------|
D|--------|--------|--------|--------|--------|--------|--------|--------|--------|
A|--------|--------|--------|--------|--------|--------|--------|--------|--------|
E|--------|--------|--------|--------|--------|--------|--------|--------|--------|


G|--------|--------|--------|--------|--------|--------|--------|--------|--------|
D|--------|--------|--------|--------|--------|--------|--------|--------|--------|
A|--------|--------|--------|--------|--------|--------|--------|--------|--------|
E|--------|--------|--------|--------|--------|--------|--------|--------|--------|


G|--------|--------|--------|--------|--------|--------|----------------------------------|
D|--------|--------|--------|--------|--------|--------|-4------------4---------4---------|
A|--------|--------|--------|--------|--------|--------|-4------------4---------4---------|
E|--------|--------|--------|--------|--------|--------|-----2---2-------2------2---2--2--|


G|------------------------------|----------------------------------|------------------------------|
D|-4------------4---------------|-4------------4---------4---------|-4------------4---------------|
A|-4------------4---------------|-4------------4---------4---------|-4------------4---------------|
E|-----2---2--------2-------2---|-----2---2-------2------2---2--2--|-----2---2--------2-------2---|


G|--------------------------------|--------------------------------|------------------------------|
D|-4------------4-----4-----------|-4------------4---4-------------|-4------------4---4-----------|
A|-4------------4-----4-----------|-4------------4---4-------------|-4------------4---4-----------|
E|-----2---2-------2--2---2---2---|-----2---2----2---2------2---2--|-2---2---2--------2-------2---|


G|---------------------------------|----------------------------------|------------------------------|
D|-4---------------4---4---4-------|-4------------4---------4---------|-4------------4---------------|
A|-4---------------4---4---4-------|-4------------4---------4---------|-4------------4---------------|
E|-----2---2----2--2---2-------2---|-----2---2-------2------2---2--2--|-----2---2--------2-------2---|


G|----------------------------------|------------------------------|--------------------------------|
D|-4------------4---------4---------|-4------------4---------------|-4------------4-----4-----------|
A|-4------------4---------4---------|-4------------4---------------|-4------------4-----4-----------|
E|-----2---2-------2------2---2--2--|-----2---2--------2-------2---|-----2---2-------2--2---2---2---|


G|--------------------------------|------------------------------|---------------------------------|
D|-4------------4---4-------------|-4------------4---4-----------|-4---------------4---4---4-------|
A|-4------------4---4-------------|-4------------4---4-----------|-4---------------4---4---4-------|
E|-----2---2----2---2------2---2--|-2---2---2--------2-------2---|-----2---2----2--2---2-------2---|


G|------------------------------|---------------------------------|---------------------------------|
D|-----4---4--------4-------4---|-----4---4----4--4---4-------4---|-----4---4----4--4---4-------4---|
A|------------------------------|---------------------------------|---------------------------------|
E|-2------------2---------------|-2---------------2-------2-------|-2---------------2---------------|


G|------------------------------|------------------------------|------------------------------|
D|-4---4---4--------4-------4---|-----4---4--------4-------4---|-----4---4--------4-------4---|
A|------------------------------|------------------------------|------------------------------|
E|-2------------2-------2-------|-2------------2---------------|-2------------2---2---2-------|


G|------------------------------|---------------------------------|-----------------------------------|
D|------4--4-------4-------4----|----4----4----4--4---4-------4---|-----4---4--4------4---4-------4---|
A|------------------------------|---------------------------------|-2-----------------2---2---2-------|
E|-2------------2---------------|-2-------2-------2---2---2-------|-2-----------------2---2---2-------|


G|-----------------------------------|-----------------------------------|-----------------------------------|
D|-----4---4--4------4---4-------4---|-----4---4--4------4---4-------4---|-----4---4--4------4---4-------4---|
A|-2-----------------2---2---2-------|-2-----------------2---2---2-------|-2-----------------2---2---2-------|
E|-2-----------------2---2---2-------|-2-----------------2---2---2-------|-2-----------------2---2---2-------|


G|-----------------------------------|-----------------------------------|-----------------------------------|
D|-----4---4--4------4---4-------4---|-----4---4--4------4---4-------4---|-----4---4--4------4---4-------4---|
A|-2-----------------2---2---2-------|-2-----------------2---2---2-------|-2-----------------2---2---2-------|
E|-2-----------------2---2---2-------|-2-----------------2---2---2-------|-2-----------------2---2---2-------|


G|-----------------------------------|-----------------------------------|-----------------------------------|
D|-----4---4--4------4---4-------4---|-----4---4--4------4---4-------4---|-----4---4--4------4---4-------4---|
A|-2-----------------2---2---2-------|-2-----------------2---2---2-------|-2-----------------2---2---2-------|
E|-2-----------------2---2---2-------|-2-----------------2---2---2-------|-2-----------------2---2---2-------|


G|-----------------------------------|-----------------------------------|-4----------4----|
D|-----4---4--4------4---4-------4---|-----4---4--4------4---4-------4---|-4----------4----|
A|-2-----------------2---2---2-------|-2-----------------2---2---2-------|-2-----2---------|
E|-2-----------------2---2---2-------|-2-----------------2---2---2-------|-2-----2---------|


G|-4---4----4--------4----|-4----4----4----4----|-4----4----4---4-------4---|-4------|
D|-4---4----4--------4----|-4----4----4----4----|-4----4----4---4-------4---|-4------|
A|-2------------2---------|-2---------2---------|-2---------2-------2-------|--------|
E|-2------------2---------|-2---------2---------|-2---------2-------2-------|--------|


G|-4----4----4----4----|------------------------|------------------------|------------------------|
D|-4----4----4----4----|-4----4---4---4----4----|-4----4---4---4----4----|-4----4---4---4----4----|
A|---------------------|-4------------4----4----|-4------------4----4----|-4------------4----4----|
E|---------------------|------------------------|------------------------|------------------------|


G|------------------------|------------------------|------------------------|------------------------|
D|-4----4---4---4----4----|-4----4---4---4----4----|-4----4---4---4----4----|-4----4---4---4----4----|
A|-4------------4----4----|-4------------4----4----|-4------------4----4----|-4------------4----4----|
E|------------------------|------------------------|------------------------|------------------------|


G|------------------------|------------------------|------------------------|------------------------|
D|-4----4---4---4----4----|-4----4---4---4----4----|-4----4---4---4----4----|-4----4---4---4----4----|
A|-4------------4----4----|-4------------4----4----|-4------------4----4----|-4------------4----4----|
E|------------------------|------------------------|------------------------|------------------------|


G|------------------------|------------------------|------------------------|------------------------|
D|-4----4---4---4----4----|-4----4---4---4----4----|-4----4---4---4----4----|-4----4---4---4----4----|
A|-4------------4----4----|-4------------4----4----|-4------------4----4----|-4------------4----4----|
E|------------------------|------------------------|------------------------|------------------------|


G|------------------------|--------|--------|--------|--------|--------|
D|-4----4---4---4----4----|--------|--------|--------|--------|--------|
A|-4------------4----4----|--------|--------|--------|--------|--------|
E|------------------------|--------|--------|--------|--------|--------|





Track 6: mambo

G|---------------------------|------------------------------------------------------|
D|----------4-------4--------|---------4-----4-----4---------4-----4-----4----4---4-|
A|------4-------4-------4----|------4-----4-----4---------4-----4-----4-----4---4---|
E|---------------------------|------------------------------------------------------|


G|--------|--------|--------|--------|--------|--------|--------|--------|--------|
D|--------|--------|--------|--------|--------|--------|--------|--------|--------|
A|--------|--------|--------|--------|--------|--------|--------|--------|--------|
E|--------|--------|--------|--------|--------|--------|--------|--------|--------|


G|--------|--------|--------|--------|--------|--------|--------|--------|--------|
D|--------|--------|--------|--------|--------|--------|--------|--------|--------|
A|--------|--------|--------|--------|--------|--------|--------|--------|--------|
E|--------|--------|--------|--------|--------|--------|--------|--------|--------|


G|--------|--------|-6--------6---6---6-------6---|-------6---6---6--------|-6--------6---6---6-------6---|
D|--------|--------|-6--------6---6---6-------6---|-------6---6---6--------|-6--------6---6---6-------6---|
A|--------|--------|------------------------------|------------------------|------------------------------|
E|--------|--------|------------------------------|------------------------|------------------------------|


G|-------6---6---6--------|-6--------6---6---6-------6---|-------6---6---6--------|
D|-------6---6---6--------|-6--------6---6---6-------6---|-------6---6---6--------|
A|------------------------|------------------------------|------------------------|
E|------------------------|------------------------------|------------------------|


G|-6--------6---6---6-------6---|-------6---6---6--------|--------|--------|--------|
D|-6--------6---6---6-------6---|-------6---6---6--------|--------|--------|--------|
A|------------------------------|------------------------|--------|--------|--------|
E|------------------------------|------------------------|--------|--------|--------|


G|--------|--------|--------|--------|--------|--------|--------|--------|--------|
D|--------|--------|--------|--------|--------|--------|--------|--------|--------|
A|--------|--------|--------|--------|--------|--------|--------|--------|--------|
E|--------|--------|--------|--------|--------|--------|--------|--------|--------|


G|--------|--------|--------|--------|--------|--------|--------|--------|-----------4--4---4------------4--4---4--|
D|--------|--------|--------|--------|--------|--------|--------|--------|-4--4---4------------4--4---4------------|
A|--------|--------|--------|--------|--------|--------|--------|--------|-----------------------------------------|
E|--------|--------|--------|--------|--------|--------|--------|--------|-----------------------------------------|


G|-----------4--4---4------------4--4---4--|------------4-4--4-4--------4-4--4-|------------4-4--4-4--------4-4--4-|
D|-4--4---4------------4--4---4------------|-4-----4--4----------4-4--4--------|-4-----4--4----------4-4--4--------|
A|-----------------------------------------|-----------------------------------|-----------------------------------|
E|-----------------------------------------|-----------------------------------|-----------------------------------|


G|-------------------------------------|---------------------------------------|-------------------------------------|
D|-4------4---4--4---4---4--4----------|-4------4---4--4---4---4--4-----4------|-4------4---4--4---4---4--4----------|
A|-4---4---------4---4---------4---4---|-4---4---------4---4---------4--4---4--|-4---4---------4---4------4--4---4---|
E|-------------------------------------|---------------------------------------|-------------------------------------|


G|---------------------------------------|-------------------------------------|---------------------------------------|
D|-4------4---4--4-------4--4------------|-4------4---4--4---4---4--4----------|-4------4---4--4---4---4--4-----4------|
A|-4---4-------------4---------4--4---4--|-4---4---------4---4---------4---4---|-4---4---------4---4---------4--4---4--|
E|---------------------------------------|-------------------------------------|---------------------------------------|


G|-------------------------------------|---------------------------------------|-------------------------------------|
D|-4------4---4--4---4---4--4----------|-4------4---4--4-------4--4------------|-4------4---4--4---4---4--4----------|
A|-4---4---------4---4------4--4---4---|-4---4-------------4---------4--4---4--|-4---4---------4---4---------4---4---|
E|-------------------------------------|---------------------------------------|-------------------------------------|


G|---------------------------------------|-------------------------------------|---------------------------------------|
D|-4------4---4--4---4---4--4-----4------|-4------4---4--4---4---4--4----------|-4------4---4--4-------4--4------------|
A|-4---4---------4---4---------4--4---4--|-4---4---------4---4------4--4---4---|-4---4-------------4---------4--4---4--|
E|---------------------------------------|-------------------------------------|---------------------------------------|


G|-4----------4----|-4---4----4--------4----|-4----4----4----4----|-4----4----4---4-------4---|
D|-4----------4----|-4---4----4--------4----|-4----4----4----4----|-4----4----4---4-------4---|
A|-2-----2---------|-2------------2---------|-2---------2---------|-2---------2-------2-------|
E|-2-----2---------|-2------------2---------|-2---------2---------|-2---------2-------2-------|


G|-4------|---------4--4------4--4---4--4-----4--|--------|--------|--------|--------|
D|-4------|---------4--4------4--4---4--4-----4--|--------|--------|--------|--------|
A|--------|--------------------------------------|--------|--------|--------|--------|
E|--------|----------------2---------2-----2-----|--------|--------|--------|--------|


G|--------|--------|--------|--------|--------|--------|--------|--------|--------|
D|--------|--------|--------|--------|--------|--------|--------|--------|--------|
A|--------|--------|--------|--------|--------|--------|--------|--------|--------|
E|--------|--------|--------|--------|--------|--------|--------|--------|--------|


G|--------|--------|--------|--------|--------|--------|--------|-----------4--4---4------------4--4---4--|
D|--------|--------|--------|--------|--------|--------|--------|-4--4---4------------4--4---4------------|
A|--------|--------|--------|--------|--------|--------|--------|-----------------------------------------|
E|--------|--------|--------|--------|--------|--------|--------|-----------------------------------------|


G|-----------4--4---4------------4--4---4--|------------4-4--4-4--------4-4--4-|------------4-4--4-4--------4-4--4-|
D|-4--4---4------------4--4---4------------|-4-----4--4----------4-4--4--------|-4-----4--4----------4-4--4--------|
A|-----------------------------------------|-----------------------------------|-----------------------------------|
E|-----------------------------------------|-----------------------------------|-----------------------------------|


G|-------------------------------------|---------------------------------------|-------------------------------------|
D|-4------4---4--4---4---4--4----------|-4------4---4--4---4---4--4-----4------|-4------4---4--4---4---4--4----------|
A|-4---4---------4---4---------4---4---|-4---4---------4---4---------4--4---4--|-4---4---------4---4------4--4---4---|
E|-------------------------------------|---------------------------------------|-------------------------------------|


G|---------------------------------------|-------------------------------------|---------------------------------------|
D|-4------4---4--4-------4--4------------|-4------4---4--4---4---4--4----------|-4------4---4--4---4---4--4-----4------|
A|-4---4-------------4---------4--4---4--|-4---4---------4---4---------4---4---|-4---4---------4---4---------4--4---4--|
E|---------------------------------------|-------------------------------------|---------------------------------------|


G|-------------------------------------|---------------------------------------|-------------------------------------|
D|-4------4---4--4---4---4--4----------|-4------4---4--4-------4--4------------|-4------4---4--4---4---4--4----------|
A|-4---4---------4---4------4--4---4---|-4---4-------------4---------4--4---4--|-4---4---------4---4---------4---4---|
E|-------------------------------------|---------------------------------------|-------------------------------------|


G|---------------------------------------|-------------------------------------|---------------------------------------|
D|-4------4---4--4---4---4--4-----4------|-4------4---4--4---4---4--4----------|-4------4---4--4-------4--4------------|
A|-4---4---------4---4---------4--4---4--|-4---4---------4---4------4--4---4---|-4---4-------------4---------4--4---4--|
E|---------------------------------------|-------------------------------------|---------------------------------------|


G|--------|--------|--------|--------|--------|-4--4--4-----------4--4--4------------------------4--4--4-----------|
D|--------|--------|--------|--------|--------|----------4--4--4-----------4--4--4------4--4--4-----------4--4--4--|
A|--------|--------|--------|--------|--------|--------------------------------------------------------------------|
E|--------|--------|--------|--------|--------|--------------------------------------------------------------------|


G|--------------------------------------------|-4-------4-------4-----4-----4--4-------|
D|--------4--4--4--4--4----------4--4---4--4--|-----4-------4------4-----4---------4---|
A|-4---------------------4---4----------------|----------------------------------------|
E|--------------------------------------------|----------------------------------------|


G|-4-------4-----4-----4----------------------|-4-------4-------4-----4-----4--4-------|
D|-----4------4-----4-----4---4--4-----4--4---|-----4-------4------4-----4---------4---|
A|--------------------------------------------|----------------------------------------|
E|--------------------------------------------|----------------------------------------|


G|--------------------------------------------|-4-------4-------4-----4-----4--4-------|
D|--------4--4--4--4--4----------4--4---4--4--|-----4-------4------4-----4---------4---|
A|-4---------------------4---4----------------|----------------------------------------|
E|--------------------------------------------|----------------------------------------|


G|-4-------4-----4-----4----------------------|-4-------4-------4-----4-----4--4-------|
D|-----4------4-----4-----4---4--4-----4--4---|-----4-------4------4-----4---------4---|
A|--------------------------------------------|----------------------------------------|
E|--------------------------------------------|----------------------------------------|


G|--------------------------------------------|-4-------4-------4-----4-----4--4-------|
D|--------4--4--4--4--4----------4--4---4--4--|-----4-------4------4-----4---------4---|
A|-4---------------------4---4----------------|----------------------------------------|
E|--------------------------------------------|----------------------------------------|


G|-4-------4-----4-----4----------------------|-4-------4-------4-----4-----4--4-------|
D|-----4------4-----4-----4---4--4-----4--4---|-----4-------4------4-----4---------4---|
A|--------------------------------------------|----------------------------------------|
E|--------------------------------------------|----------------------------------------|


G|--------------------------------------------|-4-------4-------4-----4-----4--4-------|
D|--------4--4--4--4--4----------4--4---4--4--|-----4-------4------4-----4---------4---|
A|-4---------------------4---4----------------|----------------------------------------|
E|--------------------------------------------|----------------------------------------|


G|-4-------4-----4-----4----------------------|-4-------4-------4-----4-----4--4-------|
D|-----4------4-----4-----4---4--4-----4--4---|-----4-------4------4-----4---------4---|
A|--------------------------------------------|----------------------------------------|
E|--------------------------------------------|----------------------------------------|


G|--------|--------|--------|--------|--------|
D|--------|--------|--------|--------|--------|
A|--------|--------|--------|--------|--------|
E|--------|--------|--------|--------|--------|





Track 7: bajo

G|--------|--------|--------|--------|--------|--------|---------------------------|
D|--------|--------|--------|--------|--------|--------|-4----4---4---4----4---4---|
A|--------|--------|--------|--------|--------|--------|---------------------------|
E|--------|--------|--------|--------|--------|--------|---------------------------|


G|---------------------------|---------------------------|---------------------------|
D|-4----4---4---4----4---4---|-4----4---4---4----4---4---|-4----4---4---4----4---4---|
A|---------------------------|---------------------------|---------------------------|
E|---------------------------|---------------------------|---------------------------|


G|---------------------------|---------------------------|---------------------------|
D|-4----4---4---4----4---4---|-4----4---4---4----4---4---|-4----4---4---4----4---4---|
A|---------------------------|---------------------------|---------------------------|
E|---------------------------|---------------------------|---------------------------|


G|---------------------------|---------------------------|---------------------------|
D|-4----4---4---4----4---4---|-4----4---4---4----4---4---|-4----4---4---4----4---4---|
A|---------------------------|---------------------------|---------------------------|
E|---------------------------|---------------------------|---------------------------|


G|---------------------------|---------------------------|---------------------------|
D|-4----4---4---4----4---4---|-4----4---4---4----4-------|-4----4---4---4----4---4---|
A|---------------------------|---------------------------|---------------------------|
E|---------------------------|---------------------------|---------------------------|


G|---------------------------|---------------------------------------------------------|
D|-4----4---4---4----4---4---|-4--4--4--4--4--4--4--4--4-4-4-4-4-4-4-4-4-4-4-4-4-4-4-4-|
A|---------------------------|---------------------------------------------------------|
E|---------------------------|---------------------------------------------------------|


G|--------------------|-----------------------|------------------------------|------------------------------|
D|-4------------------|-----------------------|-----4------------------------|-----4---4--------------------|
A|----------------4---|-----------------------|-----4------------------------|-----4------------------------|
E|--------------------|-----------2-------2---|-----2---2--------2-------2---|-----2---2--------2-------2---|


G|------------------------------|------------------------------|------------------------------|
D|-----4---4--------------------|-----4---4--------------------|-----4---4--------------------|
A|-----4------------------------|-----4------------------------|-----4------------------------|
E|-----2---2--------2-------2---|-----2---2--------2-------2---|-----2---2--------2-------2---|


G|------------------------------|---------------------------------|----------------------------------|
D|-----4---4--------------------|-----4---4----4--4---4-------4---|-4------------4---------4---------|
A|-----4------------------------|-----4---4----4------4-------4---|-4------------4---------4---------|
E|-----2---2--------2-------2---|---------------------------------|-----2---2-------2------2---2--2--|


G|------------------------------|----------------------------------|------------------------------|
D|-4------------4---------------|-4------------4---------4---------|-4------------4---------------|
A|-4------------4---------------|-4------------4---------4---------|-4------------4---------------|
E|-----2---2--------2-------2---|-----2---2-------2------2---2--2--|-----2---2--------2-------2---|


G|--------------------------------|--------------------------------|------------------------------|
D|-4------------4-----4-----------|-4------------4---4-------------|-4------------4---4-----------|
A|-4------------4-----4-----------|-4------------4---4-------------|-4------------4---4-----------|
E|-----2---2-------2--2---2---2---|-----2---2----2---2------2---2--|-2---2---2--------2-------2---|


G|---------------------------------|----------------------------------|------------------------------|
D|-4---------------4---4---4-------|-4------------4---------4---------|-4------------4---------------|
A|-4---------------4---4---4-------|-4------------4---------4---------|-4------------4---------------|
E|-----2---2----2--2---2-------2---|-----2---2-------2------2---2--2--|-----2---2--------2-------2---|


G|----------------------------------|------------------------------|--------------------------------|
D|-4------------4---------4---------|-4------------4---------------|-4------------4-----4-----------|
A|-4------------4---------4---------|-4------------4---------------|-4------------4-----4-----------|
E|-----2---2-------2------2---2--2--|-----2---2--------2-------2---|-----2---2-------2--2---2---2---|


G|--------------------------------|------------------------------|---------------------------------|
D|-4------------4---4-------------|-4------------4---4-----------|-4---------------4---4---4-------|
A|-4------------4---4-------------|-4------------4---4-----------|-4---------------4---4---4-------|
E|-----2---2----2---2------2---2--|-2---2---2--------2-------2---|-----2---2----2--2---2-------2---|


G|---------------------------------|-----------------------------------|------------------------------|
D|-4---------------4---4---4-------|-4---------------4-----------------|-4------------4---4-----------|
A|-4---------------4---4-----------|-4---------------4-----------------|-4------------4---4-----------|
E|-----2---2----2--2---2-------2---|-----2---2---2------2--2-------2---|-----2---2--------2-------2---|


G|------------------------------|------------------------------|-----------------------------------|
D|-4------------4---4-----------|-4------------4---4-----------|-4---------------4-----------------|
A|-4------------4---4-----------|-4------------4---4-----------|-4---------------4-----------------|
E|-----2---2--------2-------2---|-----2---2--------2-------2---|-----2---2---2------2--2-------2---|


G|---------------------------------|---------------------------------|-----------------------------------|
D|-4---------------4---4---4-------|----4----4----4--4---4-------4---|-----4---4--4------4---4-------4---|
A|-4---------------4---4---4-------|---------------------------------|-2-----------------2---2---2-------|
E|-----2---2----2--2---2-------2---|-2-------2-------2---2---2-------|-2-----------------2---2---2-------|


G|-----------------------------------|-----------------------------------|-----------------------------------|
D|-----4---4--4------4---4-------4---|-----4---4--4------4---4-------4---|-----4---4--4------4---4-------4---|
A|-2-----------------2---2---2-------|-2-----------------2---2---2-------|-2-----------------2---2---2-------|
E|-2-----------------2---2---2-------|-2-----------------2---2---2-------|-2-----------------2---2---2-------|


G|-----------------------------------|-----------------------------------|-----------------------------------|
D|-----4---4--4------4---4-------4---|-----4---4--4------4---4-------4---|-----4---4--4------4---4-------4---|
A|-2-----------------2---2---2-------|-2-----------------2---2---2-------|-2-----------------2---2---2-------|
E|-2-----------------2---2---2-------|-2-----------------2---2---2-------|-2-----------------2---2---2-------|


G|-----------------------------------|-----------------------------------|-----------------------------------|
D|-----4---4--4------4---4-------4---|-----4---4--4------4---4-------4---|-----4---4--4------4---4-------4---|
A|-2-----------------2---2---2-------|-2-----------------2---2---2-------|-2-----------------2---2---2-------|
E|-2-----------------2---2---2-------|-2-----------------2---2---2-------|-2-----------------2---2---2-------|


G|-----------------------------------|-----------------------------------|--------|
D|-----4---4--4------4---4-------4---|-----4---4--4------4---4-------4---|--------|
A|-2-----------------2---2---2-------|-2-----------------2---2---2-------|--------|
E|-2-----------------2---2---2-------|-2-----------------2---2---2-------|--------|


G|--------|--------|--------|--------|--------|--------|--------|--------|--------|
D|--------|--------|--------|--------|--------|--------|--------|--------|--------|
A|--------|--------|--------|--------|--------|--------|--------|--------|--------|
E|--------|--------|--------|--------|--------|--------|--------|--------|--------|


G|--------|--------|--------|--------|--------|--------|--------|--------|--------|
D|--------|--------|--------|--------|--------|--------|--------|--------|--------|
A|--------|--------|--------|--------|--------|--------|--------|--------|--------|
E|--------|--------|--------|--------|--------|--------|--------|--------|--------|


G|--------|--------|--------|--------|--------|--------|--------|--------|--------|
D|--------|--------|--------|--------|--------|--------|--------|--------|--------|
A|--------|--------|--------|--------|--------|--------|--------|--------|--------|
E|--------|--------|--------|--------|--------|--------|--------|--------|--------|


G|--------|--------|--------|--------|--------|--------|--------|--------|--------|
D|--------|--------|--------|--------|--------|--------|--------|--------|--------|
A|--------|--------|--------|--------|--------|--------|--------|--------|--------|
E|--------|--------|--------|--------|--------|--------|--------|--------|--------|


G|--------|--------|--------|--------|--------|--------|--------|--------|--------|
D|--------|--------|--------|--------|--------|--------|--------|--------|--------|
A|--------|--------|--------|--------|--------|--------|--------|--------|--------|
E|--------|--------|--------|--------|--------|--------|--------|--------|--------|


G|--------|--------|--------|--------|--------|--------|--------|--------|--------|
D|--------|--------|--------|--------|--------|--------|--------|--------|--------|
A|--------|--------|--------|--------|--------|--------|--------|--------|--------|
E|--------|--------|--------|--------|--------|--------|--------|--------|--------|


G|--------|--------|--------|--------|--------|--------|--------|--------|--------|
D|--------|--------|--------|--------|--------|--------|--------|--------|--------|
A|--------|--------|--------|--------|--------|--------|--------|--------|--------|
E|--------|--------|--------|--------|--------|--------|--------|--------|--------|


G|--------|--------|--------|--------|--------|
D|--------|--------|--------|--------|--------|
A|--------|--------|--------|--------|--------|
E|--------|--------|--------|--------|--------|





Track 8: bajo

G|--------|--------|--------|--------|--------|--------|--------|--------|---------------------------------|
D|--------|--------|--------|--------|--------|--------|--------|--------|-------4--4--4------4--4--4------|
A|--------|--------|--------|--------|--------|--------|--------|--------|---------------------------------|
E|--------|--------|--------|--------|--------|--------|--------|--------|---------------------------------|


G|---------------------------------------------------------------|---------------------------------------------|
D|-4--4--4---------------4--4--4-----------4--4--4---------------|-4--4-------4---4--4---4--4--4------16-16-16-|
A|----------4--4--4---------------4--4--4-----------4--4--4------|---------------------------------------------|
E|---------------------------------------------------------------|---------------------------------------------|


G|---------------------------------------|-------------------------------------|-------------------------------------------------|
D|-4--4-------4---4-----4--4---4--4---4--|-4--4-------4---4------4------4---4--|-4--4------4--4---4-----16-16-16-----16-16-16-4--|
A|---------------------------------------|-------------------------------------|-------------------------------------------------|
E|---------------------------------------|-------------------------------------|-------------------------------------------------|


G|-------------------------------------|---------------------------------------|-------------------------------------|
D|-4--4-------4---4-----4-------4---4--|-4--4------4--4---4-----4-------4---4--|-4--4-------4---4-----4-------4---4--|
A|-------------------------------------|---------------------------------------|-------------------------------------|
E|-------------------------------------|---------------------------------------|-------------------------------------|


G|-----------------------------------------------|-----------------------------------------|
D|-4--4-------4--4--4--4-----4-------4--4--4--4--|-4---4-----4---4--4-----4------4--4--4---|
A|-----------------------------------------------|-----------------------------------------|
E|-----------------------------------------------|-----------------------------------------|


G|---------------------------------------|--------|--------|--------|--------|--------|
D|-4--4------4---4--4-----4-------4---4--|--------|--------|--------|--------|--------|
A|---------------------------------------|--------|--------|--------|--------|--------|
E|---------------------------------------|--------|--------|--------|--------|--------|


G|--------|--------|--------|--------|--------|--------|--------|--------|--------|
D|--------|--------|--------|--------|--------|--------|--------|--------|--------|
A|--------|--------|--------|--------|--------|--------|--------|--------|--------|
E|--------|--------|--------|--------|--------|--------|--------|--------|--------|


G|--------|--------|--------|--------|--------|--------|--------|--------|--------|
D|--------|--------|--------|--------|--------|--------|--------|--------|--------|
A|--------|--------|--------|--------|--------|--------|--------|--------|--------|
E|--------|--------|--------|--------|--------|--------|--------|--------|--------|


G|--------|--------|--------|--------|--------|--------|--------|--------|--------|
D|--------|--------|--------|--------|--------|--------|--------|--------|--------|
A|--------|--------|--------|--------|--------|--------|--------|--------|--------|
E|--------|--------|--------|--------|--------|--------|--------|--------|--------|


G|--------|--------|--------|--------|--------|--------|--------|--------|--------|
D|--------|--------|--------|--------|--------|--------|--------|--------|--------|
A|--------|--------|--------|--------|--------|--------|--------|--------|--------|
E|--------|--------|--------|--------|--------|--------|--------|--------|--------|


G|--------|--------|--------|--------|--------|--------|--------|--------|--------|
D|--------|--------|--------|--------|--------|--------|--------|--------|--------|
A|--------|--------|--------|--------|--------|--------|--------|--------|--------|
E|--------|--------|--------|--------|--------|--------|--------|--------|--------|


G|--------|--------|--------|--------|--------|--------|--------|--------|--------|
D|--------|--------|--------|--------|--------|--------|--------|--------|--------|
A|--------|--------|--------|--------|--------|--------|--------|--------|--------|
E|--------|--------|--------|--------|--------|--------|--------|--------|--------|


G|--------|--------|--------|--------|--------|--------|--------|--------|--------|
D|--------|--------|--------|--------|--------|--------|--------|--------|--------|
A|--------|--------|--------|--------|--------|--------|--------|--------|--------|
E|--------|--------|--------|--------|--------|--------|--------|--------|--------|


G|--------|--------|--------|--------|--------|--------|--------|--------|--------|
D|--------|--------|--------|--------|--------|--------|--------|--------|--------|
A|--------|--------|--------|--------|--------|--------|--------|--------|--------|
E|--------|--------|--------|--------|--------|--------|--------|--------|--------|


G|--------|--------|--------|--------|--------|--------|--------|--------|--------|
D|--------|--------|--------|--------|--------|--------|--------|--------|--------|
A|--------|--------|--------|--------|--------|--------|--------|--------|--------|
E|--------|--------|--------|--------|--------|--------|--------|--------|--------|


G|--------|--------|--------|--------|--------|--------|--------|--------|--------|
D|--------|--------|--------|--------|--------|--------|--------|--------|--------|
A|--------|--------|--------|--------|--------|--------|--------|--------|--------|
E|--------|--------|--------|--------|--------|--------|--------|--------|--------|


G|--------|--------|--------|--------|--------|--------|--------|--------|--------|
D|--------|--------|--------|--------|--------|--------|--------|--------|--------|
A|--------|--------|--------|--------|--------|--------|--------|--------|--------|
E|--------|--------|--------|--------|--------|--------|--------|--------|--------|


G|--------|--------|--------|--------|--------|--------|--------|--------|--------|
D|--------|--------|--------|--------|--------|--------|--------|--------|--------|
A|--------|--------|--------|--------|--------|--------|--------|--------|--------|
E|--------|--------|--------|--------|--------|--------|--------|--------|--------|


G|--------|--------|
D|--------|--------|
A|--------|--------|
E|--------|--------|





Track 9: pitiu

G|--------|--------|--------|--------|--------|--------|--------|--------|--------|
D|--------|--------|--------|--------|--------|--------|--------|--------|--------|
A|--------|--------|--------|--------|--------|--------|--------|--------|--------|
E|--------|--------|--------|--------|--------|--------|--------|--------|--------|


G|--------|--------|--------|--------|--------|--------|--------|--------|--------|
D|--------|--------|--------|--------|--------|--------|--------|--------|--------|
A|--------|--------|--------|--------|--------|--------|--------|--------|--------|
E|--------|--------|--------|--------|--------|--------|--------|--------|--------|


G|--------|--------|--------|-6-----------|--------|--------|--------|--------|--------|
D|--------|--------|--------|-6-----------|--------|--------|--------|--------|--------|
A|--------|--------|--------|-6-----------|--------|--------|--------|--------|--------|
E|--------|--------|--------|-6-----------|--------|--------|--------|--------|--------|


G|--------|--------|--------|-18---18--18--18---18--18--|-18---18--18--18---18--6---|
D|--------|--------|--------|-6----6---6---6----6---6---|-6----6---6---6----6---6---|
A|--------|--------|--------|-0----0---0---0----0---0---|-0----0---0---0----0---6---|
E|--------|--------|--------|-0----0---0---0----0---0---|-0----0---0---0----0---6---|


G|-18---18--18--18---18--18--|-18---18--18--18---18--6---|-18---18--18--18---18--18--|
D|-6----6---6---6----6---6---|-6----6---6---6----6---6---|-6----6---6---6----6---6---|
A|-0----0---0---0----0---0---|-0----0---0---0----0---6---|-0----0---0---0----0---0---|
E|-0----0---0---0----0---0---|-0----0---0---0----0---6---|-0----0---0---0----0---0---|


G|-18---18--18--18---18--18--|-18---18--18--18---18--18--|-18---18--18--18---18--6---|
D|-6----6---6---6----6---6---|-6----6---6---6----6---6---|-6----6---6---6----6---6---|
A|-0----0---0---0----0---6---|-0----0---0---0----0---0---|-0----0---0---0----0---6---|
E|-0----0---0---0----0---6---|-0----0---0---0----0---0---|-0----0---0---0----0---6---|


G|-18---18--18--18---18--18--|-18---18--18--18---18--6---|-18---18--18--18---18--18--|
D|-6----6---6---6----6---6---|-6----6---6---6----6---6---|-6----6---6---6----6---6---|
A|-0----0---0---0----0---0---|-0----0---0---0----0---6---|-0----0---0---0----0---0---|
E|-0----0---0---0----0---0---|-0----0---0---0----0---6---|-0----0---0---0----0---0---|


G|-18---18--18--18---18--6---|-18---18--18--18---18--18--|-18---18--18--18---18--18--|
D|-6----6---6---6----6---6---|-6----6---6---6----6---6---|-6----6---6---6----6---6---|
A|-0----0---0---0----0---6---|-0----0---0---0----0---0---|-0----0---0---0----0---6---|
E|-0----0---0---0----0---6---|-0----0---0---0----0---0---|-0----0---0---0----0---6---|


G|-18---18--18--18---18--18--|-18---18--18--18---18--6---|-----18--18--18---18--18---|
D|-6----6---6---6----6---6---|-6----6---6---6----6---6---|-----6---18--18---6---6----|
A|-0----0---0---0----0---0---|-0----0---0---0----0---6---|-----0---0---0----0---0----|
E|-0----0---0---0----0---0---|-0----0---0---0----0---6---|-----0---0---0----0---0----|


G|-----18--18------18---6---6---|------18--18-------18--18--|------18--18-------18--6---|
D|-----6---6-------18---6---6---|------6---6--------6---18--|------6---6--------6---18--|
A|-----0---0-------0----6---6---|------0---0--------0---0---|------0---0--------0---6---|
E|-----0---0-------0----6---6---|------0---0--------0---0---|------0---0--------0---6---|


G|--------|--------|--------|--------|--------|--------|--------|--------|--------|
D|--------|--------|--------|--------|--------|--------|--------|--------|--------|
A|--------|--------|--------|--------|--------|--------|--------|--------|--------|
E|--------|--------|--------|--------|--------|--------|--------|--------|--------|


G|--------|--------|--------|--------|--------|--------|--------|-0------|-0------|
D|--------|--------|--------|--------|--------|--------|--------|-0------|-0------|
A|--------|--------|--------|--------|--------|--------|--------|-0------|-0------|
E|--------|--------|--------|--------|--------|--------|--------|-0------|-0------|


G|-0------|-0----0----0-----|-0------|-------6----6----|--------|--------|--------|
D|-0------|-0----0----0-----|-0------|-------6----6----|--------|--------|--------|
A|-0------|-0----0----0-----|-0------|-------6----6----|--------|--------|--------|
E|-0------|-0----0----0-----|-0------|-------6----6----|--------|--------|--------|


G|--------|--------|--------|--------|--------|--------|--------|--------|--------|
D|--------|--------|--------|--------|--------|--------|--------|--------|--------|
A|--------|--------|--------|--------|--------|--------|--------|--------|--------|
E|--------|--------|--------|--------|--------|--------|--------|--------|--------|


G|--------|--------|--------|--------|--------|--------|--------|--------|--------|
D|--------|--------|--------|--------|--------|--------|--------|--------|--------|
A|--------|--------|--------|--------|--------|--------|--------|--------|--------|
E|--------|--------|--------|--------|--------|--------|--------|--------|--------|


G|--------|--------|--------|--------|--------|--------|--------|--------|--------|
D|--------|--------|--------|--------|--------|--------|--------|--------|--------|
A|--------|--------|--------|--------|--------|--------|--------|--------|--------|
E|--------|--------|--------|--------|--------|--------|--------|--------|--------|


G|--------|--------|--------|--------|--------|--------|-0------|-0------|-0------|
D|--------|--------|--------|--------|--------|--------|-0------|-0------|-0------|
A|--------|--------|--------|--------|--------|--------|-0------|-0------|-0------|
E|--------|--------|--------|--------|--------|--------|-0------|-0------|-0------|


G|-0----0----0-----|-0-----0---0---0---0---|--------|--------|--------|--------|--------|
D|-0----0----0-----|-0-----0---0---0---0---|--------|--------|--------|--------|--------|
A|-0----0----0-----|-0-----0---0---0---0---|--------|--------|--------|--------|--------|
E|-0----0----0-----|-0-----0---0---0---0---|--------|--------|--------|--------|--------|


G|--------|--------|--------|--------|--------|--------|--------|--------|--------|
D|--------|--------|--------|--------|--------|--------|--------|--------|--------|
A|--------|--------|--------|--------|--------|--------|--------|--------|--------|
E|--------|--------|--------|--------|--------|--------|--------|--------|--------|


G|--------|--------|--------|--------|--------|--------|--------|--------|
D|--------|--------|--------|--------|--------|--------|--------|--------|
A|--------|--------|--------|--------|--------|--------|--------|--------|
E|--------|--------|--------|--------|--------|--------|--------|--------|





Track 10: bajo

G|--------|--------|--------|--------|--------|--------|--------|--------|--------|
D|--------|--------|--------|--------|--------|--------|--------|--------|--------|
A|--------|--------|--------|--------|--------|--------|--------|--------|--------|
E|--------|--------|--------|--------|--------|--------|--------|--------|--------|


G|--------|--------|--------|--------|--------|--------|--------|--------|--------|
D|--------|--------|--------|--------|--------|--------|--------|--------|--------|
A|--------|--------|--------|--------|--------|--------|--------|--------|--------|
E|--------|--------|--------|--------|--------|--------|--------|--------|--------|


G|--------|--------|--------|--------|--------|--------|--------|--------|--------|
D|--------|--------|--------|--------|--------|--------|--------|--------|--------|
A|--------|--------|--------|--------|--------|--------|--------|--------|--------|
E|--------|--------|--------|--------|--------|--------|--------|--------|--------|


G|--------|--------|--------|--------|--------|--------|--------|--------|--------|
D|--------|--------|--------|--------|--------|--------|--------|--------|--------|
A|--------|--------|--------|--------|--------|--------|--------|--------|--------|
E|--------|--------|--------|--------|--------|--------|--------|--------|--------|


G|--------|--------|--------|--------|--------|--------|--------|--------|--------|
D|--------|--------|--------|--------|--------|--------|--------|--------|--------|
A|--------|--------|--------|--------|--------|--------|--------|--------|--------|
E|--------|--------|--------|--------|--------|--------|--------|--------|--------|


G|--------|--------|--------|--------|--------|--------|--------|--------|--------|
D|--------|--------|--------|--------|--------|--------|--------|--------|--------|
A|--------|--------|--------|--------|--------|--------|--------|--------|--------|
E|--------|--------|--------|--------|--------|--------|--------|--------|--------|


G|--------|--------|--------|--------|--------|--------|--------|--------|--------|
D|--------|--------|--------|--------|--------|--------|--------|--------|--------|
A|--------|--------|--------|--------|--------|--------|--------|--------|--------|
E|--------|--------|--------|--------|--------|--------|--------|--------|--------|


G|--------|--------|--------|--------|--------|--------|--------|--------|--------|
D|--------|--------|--------|--------|--------|--------|--------|--------|--------|
A|--------|--------|--------|--------|--------|--------|--------|--------|--------|
E|--------|--------|--------|--------|--------|--------|--------|--------|--------|


G|------18--18-------18--18--|-18---18--18--18---18--6---|-18---18--18--18---18--18--|
D|------6---6--------6---6---|-6----6---6---6----6---6---|-6----6---6---6----6---6---|
A|------0---0--------0---0---|-0----0---0---0----0---6---|-0----0---0---0----0---0---|
E|------0---0--------0---0---|-0----0---0---0----0---6---|-0----0---0---0----0---0---|


G|-18---18--18--18---18--6---|-18---18--18--18---18--18--|-18---18--18--18------18--6---|
D|-6----6---6---6----6---6---|-6----6---6---6----6---6---|-6----6---6---6-------6---6---|
A|-0----0---0---0----0---6---|-0----0---0---0----0---0---|-0----0---0---0-------0---6---|
E|-0----0---0---0----0---6---|-0----0---0---0----0---0---|-0----0---0---0---2---0---6---|


G|-18---18--18--18---18--18--|-18---18--18--18------18--6---|------18--18-------18--18--|
D|-6----6---6---6----6---6---|-6----6---6---6-------6---6---|------6---6--------6---6---|
A|-0----0---0---0----0---0---|-0----0---0---0-------0---6---|------0---0--------0---0---|
E|-0----0---0---0----0---0---|-0----0---0---0---2---0---6---|------0---0--------0---0---|


G|-18---18--18--18---18--6---|-18---18--18--18---18--18--|-18---18--18--18---18--6---|
D|-6----6---6---6----6---6---|-6----6---6---6----6---6---|-6----6---6---6----6---6---|
A|-0----0---0---0----0---6---|-0----0---0---0----0---0---|-0----0---0---0----0---6---|
E|-0----0---0---0----0---6---|-0----0---0---0----0---0---|-0----0---0---0----0---6---|


G|-18---18--18--18---18--18--|-18---18--18--18------18--6---|-18---18--18--18---18--18--|
D|-6----6---6---6----6---6---|-6----6---6---6-------6---6---|-6----6---6---6----6---6---|
A|-0----0---0---0----0---0---|-0----0---0---0-------0---6---|-0----0---0---0----0---0---|
E|-0----0---0---0----0---0---|-0----0---0---0---2---0---6---|-0----0---0---0----0---0---|


G|-18---18--18--18------18--6---|-6----6---6---6----6---6---|-6----6---6---6----6---6---|
D|-6----6---6---6-------6---6---|-6----6---6---6----6---6---|-6----6---6---6----6---6---|
A|-0----0---0---0-------0---6---|---------------------------|---------------------------|
E|-0----0---0---0---2---0---6---|---------------------------|---------------------------|


G|-6----6---6---6----6---6---|-6----6---6---6----6---6---|--------|--------|--------|
D|-6----6---6---6----6---6---|-6----6---6---6----6---6---|--------|--------|--------|
A|---------------------------|---------------------------|--------|--------|--------|
E|---------------------------|---------------------------|--------|--------|--------|


G|--------|--------|--------|--------|--------|--------|--------|--------|--------|
D|--------|--------|--------|--------|--------|--------|--------|--------|--------|
A|--------|--------|--------|--------|--------|--------|--------|--------|--------|
E|--------|--------|--------|--------|--------|--------|--------|--------|--------|


G|--------|--------|--------|--------|--------|--------|--------|--------|--------|
D|--------|--------|--------|--------|--------|--------|--------|--------|--------|
A|--------|--------|--------|--------|--------|--------|--------|--------|--------|
E|--------|--------|--------|--------|--------|--------|--------|--------|--------|


G|--------|--------|--------|--------|--------|--------|--------|--------|--------|
D|--------|--------|--------|--------|--------|--------|--------|--------|--------|
A|--------|--------|--------|--------|--------|--------|--------|--------|--------|
E|--------|--------|--------|--------|--------|--------|--------|--------|--------|


G|--------|--------|--------|--------|--------|--------|--------|--------|--------|
D|--------|--------|--------|--------|--------|--------|--------|--------|--------|
A|--------|--------|--------|--------|--------|--------|--------|--------|--------|
E|--------|--------|--------|--------|--------|--------|--------|--------|--------|


G|--------|--------|--------|--------|
D|--------|--------|--------|--------|
A|--------|--------|--------|--------|
E|--------|--------|--------|--------|