Site menu:

    

Browse: 0-9 A B C D E F G H I J K L N O P Q R S T U V W X Y Z

22wah - la cosa mas linda:



Title: La Cosa Mas Linda
Artist: 
Album: 
Author: 22Wah


Track 1: Marimba

E|--------|--------------3---3--------|----------3---3-----------3---|-3-------------------8--------|
B|--------|------5---3----------------|------3-----------5---3-------|-----5---3-------5------------|
G|--------|---------------------------|------------------------------|-------------4----------------|
D|--------|---------------------------|------------------------------|------------------------------|
A|--------|---------------------------|------------------------------|------------------------------|
E|--------|---------------------------|------------------------------|------------------------------|


E|-----7------------12---7---|-----7------------14---12-15--|-15-------12------15--15--8---|
B|-5--------5---9------------|-5--------5---9---------------|-----15-------12--------------|
G|---------------------------|------------------------------|------------------------------|
D|---------------------------|------------------------------|------------------------------|
A|---------------------------|------------------------------|------------------------------|
E|---------------------------|------------------------------|------------------------------|


E|-9---10--8---7---5---3---3----|----------3------------3---|-3-------------------7--------|
B|------------------------------|------3--------5---3-------|-----5---3-------5------------|
G|------------------------------|---------------------------|-------------4----------------|
D|------------------------------|---------------------------|------------------------------|
A|------------------------------|---------------------------|------------------------------|
E|------------------------------|---------------------------|------------------------------|


E|-7-------7----5------5------5---|-3----5---1----1---0---0---|-----3-------3----4-------3---|
B|-----7------------5-----5-------|---------------------------|-3-------3--------4---3---3---|
G|--------------------------------|---------------------------|------------------4-------3---|
D|--------------------------------|---------------------------|------------------------------|
A|--------------------------------|---------------------------|------------------------------|
E|--------------------------------|---------------------------|------------------------------|


E|-3-----------5-------7--------|----------3------------3---|--------|--------|--------|
B|-----5---3-------5------------|------3--------5---3-------|--------|--------|--------|
G|------------------------------|---------------------------|--------|--------|--------|
D|------------------------------|---------------------------|--------|--------|--------|
A|------------------------------|---------------------------|--------|--------|--------|
E|------------------------------|---------------------------|--------|--------|--------|


E|--------|--------|--------|--------|--------|--------|--------|--------|--------|
B|--------|--------|--------|--------|--------|--------|--------|--------|--------|
G|--------|--------|--------|--------|--------|--------|--------|--------|--------|
D|--------|--------|--------|--------|--------|--------|--------|--------|--------|
A|--------|--------|--------|--------|--------|--------|--------|--------|--------|
E|--------|--------|--------|--------|--------|--------|--------|--------|--------|


E|--------|--------|--------|--------|--------|--------|--------|--------|--------|
B|--------|--------|--------|--------|--------|--------|--------|--------|--------|
G|--------|--------|--------|--------|--------|--------|--------|--------|--------|
D|--------|--------|--------|--------|--------|--------|--------|--------|--------|
A|--------|--------|--------|--------|--------|--------|--------|--------|--------|
E|--------|--------|--------|--------|--------|--------|--------|--------|--------|


E|--------|--------|--------|--------|--------|--------|--------|--------|--------|
B|--------|--------|--------|--------|--------|--------|--------|--------|--------|
G|--------|--------|--------|--------|--------|--------|--------|--------|--------|
D|--------|--------|--------|--------|--------|--------|--------|--------|--------|
A|--------|--------|--------|--------|--------|--------|--------|--------|--------|
E|--------|--------|--------|--------|--------|--------|--------|--------|--------|


E|--------|--------|--------|--------|--------|--------|--------|--------|--------|
B|--------|--------|--------|--------|--------|--------|--------|--------|--------|
G|--------|--------|--------|--------|--------|--------|--------|--------|--------|
D|--------|--------|--------|--------|--------|--------|--------|--------|--------|
A|--------|--------|--------|--------|--------|--------|--------|--------|--------|
E|--------|--------|--------|--------|--------|--------|--------|--------|--------|


E|--------|--------|--------|--------|--------|--------|--------|--------|--------|
B|--------|--------|--------|--------|--------|--------|--------|--------|--------|
G|--------|--------|--------|--------|--------|--------|--------|--------|--------|
D|--------|--------|--------|--------|--------|--------|--------|--------|--------|
A|--------|--------|--------|--------|--------|--------|--------|--------|--------|
E|--------|--------|--------|--------|--------|--------|--------|--------|--------|


E|--------|--------|--------|--------|--------|--------|--------|--------|--------|
B|--------|--------|--------|--------|--------|--------|--------|--------|--------|
G|--------|--------|--------|--------|--------|--------|--------|--------|--------|
D|--------|--------|--------|--------|--------|--------|--------|--------|--------|
A|--------|--------|--------|--------|--------|--------|--------|--------|--------|
E|--------|--------|--------|--------|--------|--------|--------|--------|--------|


E|--------|--------|--------|--------|--------|--------|--------|--------|-------------|
B|--------|--------|--------|--------|--------|--------|--------|--------|-------------|
G|--------|--------|--------|--------|--------|--------|--------|--------|-------------|
D|--------|--------|--------|--------|--------|--------|--------|--------|-------------|
A|--------|--------|--------|--------|--------|--------|--------|--------|-------------|
E|--------|--------|--------|--------|--------|--------|--------|--------|-------------|


E|-------------|--------|
B|-------------|--------|
G|-------------|--------|
D|-------------|--------|
A|-------------|--------|
E|-------------|--------|





Track 2: Guitar 

E|------------------------|---------------------------|------------------------|---------------------------|
B|------------------------|---------------------------|------------------------|---------------------------|
G|-4-----4---4--------7---|-4-----4---4-----------7---|-4-----4---4--------7---|-4-----4---4-----------7---|
D|-3-----3---3----7-------|-3-----3---3-------7-------|-3-----3---3----7-------|-3-----3---3-------7-------|
A|-------5------------5---|-------5-------7-------5---|-------5------------5---|-------5-------7-------5---|
E|-3---------3----5-------|-3---------3---3---5-------|-3---------3----5-------|-3---------3---3---5-------|


E|-----------0---------------|--------|-----------0---------------|-------------------------------|
B|-----------0---------------|--------|-----------0---------------|-------------------------------|
G|-2-----2-------2---4---5---|--------|-2-----2-------2---4---5---|---------------------------7---|
D|-1-----1-------------------|--------|-1-----1-------------------|-10---10-9----9--7----7--------|
A|-------3-------0---2---3---|--------|-------3-------0---2---3---|---------------------------5---|
E|-1---------0---------------|--------|-1---------0---------------|-8----8--7----7--5----5--------|


E|------------------------|---------------------------|--------------------|------------------------|
B|------------------------|---------------------------|--------------------|------------------------|
G|-4-----4---4--------7---|-4-----4---4-----------7---|-9-----7--------7---|-4-----2----0---3---5---|
D|-3-----3---3----7-------|-3-----3---3-------7-------|-9-----7----7-------|-3-----2----0---0---3---|
A|-------5------------5---|-------5-------7-----------|----------------5---|------------------------|
E|-3---------3----5-------|-3---------3---3---5---7---|-8-----7----5-------|-3-----1----0---0---1---|


E|------------------------|---------------------------|------------------------|-----------------------3---|
B|------------------------|---------------------------|------------------------|-----------------------3---|
G|-4-----4---4--------7---|-4-----4---4-----------7---|-4-----4---4--------7---|-4-----4---4-----------4---|
D|-3-----3---3----7-------|-3-----3---3-------7-------|-3-----3---3----7-------|-3-----3---3-------7---5---|
A|-------5------------5---|-------5-------7-------5---|-------5------------5---|-------5-------7-------5---|
E|-3---------3----5-------|-3---------3---3---5-------|-3---------3----5-------|-3---------3---3---5---3---|


E|-3------|-3------|--------|--------|--------|--------|--------|--------|--------|
B|-3------|-3------|--------|--------|--------|--------|--------|--------|--------|
G|-4------|-4------|--------|--------|--------|--------|--------|--------|--------|
D|-5------|-5------|--------|--------|--------|--------|--------|--------|--------|
A|-5------|-5------|--------|--------|--------|--------|--------|--------|--------|
E|-3------|-3------|--------|--------|--------|--------|--------|--------|--------|


E|--------|--------|--------|--------|--------|--------|--------|--------|--------|
B|--------|--------|--------|--------|--------|--------|--------|--------|--------|
G|--------|--------|--------|--------|--------|--------|--------|--------|--------|
D|--------|--------|--------|--------|--------|--------|--------|--------|--------|
A|--------|--------|--------|--------|--------|--------|--------|--------|--------|
E|--------|--------|--------|--------|--------|--------|--------|--------|--------|


E|--------|--------|--------|--------|--------|--------|--------|--------|--------|
B|--------|--------|--------|--------|--------|--------|--------|--------|--------|
G|--------|--------|--------|--------|--------|--------|--------|--------|--------|
D|--------|--------|--------|--------|--------|--------|--------|--------|--------|
A|--------|--------|--------|--------|--------|--------|--------|--------|--------|
E|--------|--------|--------|--------|--------|--------|--------|--------|--------|


E|--------|--------|--------|--------|--------|--------|--------|--------|--------|
B|--------|--------|--------|--------|--------|--------|--------|--------|--------|
G|--------|--------|--------|--------|--------|--------|--------|--------|--------|
D|--------|--------|--------|--------|--------|--------|--------|--------|--------|
A|--------|--------|--------|--------|--------|--------|--------|--------|--------|
E|--------|--------|--------|--------|--------|--------|--------|--------|--------|


E|--------|--------|--------|--------|--------|--------|--------|--------|--------|
B|--------|--------|--------|--------|--------|--------|--------|--------|--------|
G|--------|--------|--------|--------|--------|--------|--------|--------|--------|
D|--------|--------|--------|--------|--------|--------|--------|--------|--------|
A|--------|--------|--------|--------|--------|--------|--------|--------|--------|
E|--------|--------|--------|--------|--------|--------|--------|--------|--------|


E|--------|--------|--------|--------|--------|--------|--------|--------|--------|
B|--------|--------|--------|--------|--------|--------|--------|--------|--------|
G|--------|--------|--------|--------|--------|--------|--------|--------|--------|
D|--------|--------|--------|--------|--------|--------|--------|--------|--------|
A|--------|--------|--------|--------|--------|--------|--------|--------|--------|
E|--------|--------|--------|--------|--------|--------|--------|--------|--------|


E|--------|--------|--------|--------|--------|--------|--------|--------|--------|
B|--------|--------|--------|--------|--------|--------|--------|--------|--------|
G|--------|--------|--------|--------|--------|--------|--------|--------|--------|
D|--------|--------|--------|--------|--------|--------|--------|--------|--------|
A|--------|--------|--------|--------|--------|--------|--------|--------|--------|
E|--------|--------|--------|--------|--------|--------|--------|--------|--------|


E|--------|--------|--------|--------|
B|--------|--------|--------|--------|
G|--------|--------|--------|--------|
D|--------|--------|--------|--------|
A|--------|--------|--------|--------|
E|--------|--------|--------|--------|





Track 3: Interferences

E|--------|--------|--------|--------|--------|--------|--------|--------|--------|
B|--------|--------|--------|--------|--------|--------|--------|--------|--------|
G|--------|--------|--------|--------|--------|--------|--------|--------|--------|
D|--------|--------|--------|--------|--------|--------|--------|--------|--------|
A|--------|--------|--------|--------|--------|--------|--------|--------|--------|
E|--------|--------|--------|--------|--------|--------|--------|--------|--------|


E|--------|--------|--------|-3----3-----7--9--7---|-3-----7--9--7---7--9--7---|-3-----------12--|
B|--------|--------|--------|-3----3-----7--9--7---|-3-----7--9--7---7--9--7---|-3-----------12--|
G|--------|--------|--------|-4----4-----7--9--7---|-4-----7--9--7---7--9--7---|-4-----------12--|
D|--------|--------|--------|-5----5-----7--9--7---|-5-----7--9--7---7--9--7---|-5-----------12--|
A|--------|--------|--------|-5----5-----7--9--7---|-5-----7--9--7---7--9--7---|-5-----------12--|
E|--------|--------|--------|-3----3-----7--9--7---|-3-----7--9--7---7--9--7---|-3-----------12--|


E|-3----3-----7--9--7---|-5----7----9---7--9--7---7--9--7---|-3---------4---5----|
B|-3----3-----7--9--7---|-5----7----9---7--9--7---7--9--7---|-3---------4---5----|
G|-4----4-----7--9--7---|-5----7----9---7--9--7---7--9--7---|-4---------4---5----|
D|-5----5-----7--9--7---|-5----7----9---7--9--7---7--9--7---|-5---------4---5----|
A|-5----5-----7--9--7---|-5----7----9---7--9--7---7--9--7---|-5------------------|
E|-3----3-----7--9--7---|-5----7----9---7--9--7---7--9--7---|-3------------------|


E|--------|--------|--------|--------|--------|--------|--------|--------|--------|
B|--------|--------|--------|--------|--------|--------|--------|--------|--------|
G|--------|--------|--------|--------|--------|--------|--------|--------|--------|
D|--------|--------|--------|--------|--------|--------|--------|--------|--------|
A|--------|--------|--------|--------|--------|--------|--------|--------|--------|
E|--------|--------|--------|--------|--------|--------|--------|--------|--------|


E|--------|--------|--------|--------|--------|--------|--------|--------|--------|
B|--------|--------|--------|--------|--------|--------|--------|--------|--------|
G|--------|--------|--------|--------|--------|--------|--------|--------|--------|
D|--------|--------|--------|--------|--------|--------|--------|--------|--------|
A|--------|--------|--------|--------|--------|--------|--------|--------|--------|
E|--------|--------|--------|--------|--------|--------|--------|--------|--------|


E|--------|--------|--------|--------|--------|--------|--------|--------|--------|
B|--------|--------|--------|--------|--------|--------|--------|--------|--------|
G|--------|--------|--------|--------|--------|--------|--------|--------|--------|
D|--------|--------|--------|--------|--------|--------|--------|--------|--------|
A|--------|--------|--------|--------|--------|--------|--------|--------|--------|
E|--------|--------|--------|--------|--------|--------|--------|--------|--------|


E|--------|--------|--------|--------|--------|--------|--------|--------|--------|
B|--------|--------|--------|--------|--------|--------|--------|--------|--------|
G|--------|--------|--------|--------|--------|--------|--------|--------|--------|
D|--------|--------|--------|--------|--------|--------|--------|--------|--------|
A|--------|--------|--------|--------|--------|--------|--------|--------|--------|
E|--------|--------|--------|--------|--------|--------|--------|--------|--------|


E|--------|--------|--------|--------|--------|--------|--------|--------|--------|
B|--------|--------|--------|--------|--------|--------|--------|--------|--------|
G|--------|--------|--------|--------|--------|--------|--------|--------|--------|
D|--------|--------|--------|--------|--------|--------|--------|--------|--------|
A|--------|--------|--------|--------|--------|--------|--------|--------|--------|
E|--------|--------|--------|--------|--------|--------|--------|--------|--------|


E|--------|--------|--------|--------|--------|--------|--------|--------|--------|
B|--------|--------|--------|--------|--------|--------|--------|--------|--------|
G|--------|--------|--------|--------|--------|--------|--------|--------|--------|
D|--------|--------|--------|--------|--------|--------|--------|--------|--------|
A|--------|--------|--------|--------|--------|--------|--------|--------|--------|
E|--------|--------|--------|--------|--------|--------|--------|--------|--------|


E|--------|--------|--------|--------|--------|--------|--------|--------|--------|
B|--------|--------|--------|--------|--------|--------|--------|--------|--------|
G|--------|--------|--------|--------|--------|--------|--------|--------|--------|
D|--------|--------|--------|--------|--------|--------|--------|--------|--------|
A|--------|--------|--------|--------|--------|--------|--------|--------|--------|
E|--------|--------|--------|--------|--------|--------|--------|--------|--------|


E|--------|--------|
B|--------|--------|
G|--------|--------|
D|--------|--------|
A|--------|--------|
E|--------|--------|





Track 4: Bass

G|--------|--------|--------|--------|--------|--------|--------|--------|--------|
D|--------|--------|--------|--------|--------|--------|--------|--------|--------|
A|--------|--------|--------|--------|--------|--------|--------|--------|--------|
E|--------|--------|--------|--------|--------|--------|--------|--------|--------|


G|--------|--------|--------|--------|--------|--------|--------|--------|---------------------|
D|--------|--------|--------|--------|--------|--------|--------|--------|-------5---------5---|
A|--------|--------|--------|--------|--------|--------|--------|--------|---------------------|
E|--------|--------|--------|--------|--------|--------|--------|--------|-3-----3---3-----3---|


G|---------------------|---------------------|-----------12--9-----------|------------------------|
D|-------5---------5---|---------------------|-------------------12--9---|-9----------------------|
A|---------------------|-------5-------------|-------3-------------------|-------5----------------|
E|-3-----3---3-----3---|-3---------3-----2---|-1---------0-------0---1---|-3---------3------------|


G|-----------14--12----------|------------------------|-----10-----------------------|
D|-------------------14--12--|-12---------------------|-----10---------------12--9---|
A|-------3-------------------|-------5----------------|-------------3----------------|
E|-----------0-------0---1---|-3---------3--------2---|-1-------1-------0----0---1---|


G|------------------------|-----------14--12----------|----------12---------12----12----9--|
D|-9----------------------|-------------------14--12--|-12---12------12--------12----------|
A|-------5----------------|-------3-------------------|----------5-------------------------|
E|-3---------3--------2---|-1---------0-------0---1---|-3------------3---------------2-----|


G|-10--------9--------9-----|-12------12-----------12-----14--12--|-10------------------------|
D|-10--------9-----------12-|----12------12-----12----14----------|------10------9----7-------|
A|-------3------------------|---------------5---------------------|----------3----------------|
E|-1---------0----0---1-----|-3-----------------3-------------2---|-1------------0----0---1---|


G|------------------------------|-----7---5-----------------------|-----------------------------5--|
D|-5------------5-----------5---|-5-----------5---5---3-----------|-3------------3-----------3--3--|
A|------7---5-------7---5-------|-------------------------5---3---|------5---3-------5---3---------|
E|------------------------------|---------------------------------|--------------------------------|


G|----5------------------0-----------|-----------------------------5--|---------------------------------------|
D|-3--3--------------2-------2---3---|-5------------5-----------5--5--|-5-------------5--5--5--5--3-----------|
A|-------5--5------------------------|------7---5-------7---5---------|-----5---7--7------------------5---3---|
E|---------------5-------------------|--------------------------------|---------------------------------------|


G|-----------------------------5--|----5------------------0-----------|--------------------------------|
D|-3------------------------3--3--|-3--3--------------2-------2---3---|-5------------5-------5---6--7--|
A|------5---3-------5---3---------|-------5--5------------------------|------7---5-------7-------------|
E|--------------5-----------------|---------------5-------------------|--------------------------------|


G|------9-----9--7-------------------------|--------------------------------|---------------------------------19------|
D|-7----------------9--7---------9---------|--------------3-----------------|-----------3--3--------4--4------19------|
A|------------------------9--7------12--12-|----------5----------3----------|-------------------------------------5---|
E|-----------------------------------------|-10---3----------1------1---0---|-0---1--1--------2--2--------------------|


G|--------9---------------------------5--|----5------5-------------4-----------|------7-----7------5------5----------|
D|----5-----------------5----------5--5--|-5--5---5--5--5---------------7--5---|-3--------------------3----------3---|
A|-----------7---5----------7--5---------|-----------------7---5---------------|---------------3-------------3-------|
E|---------------------------------------|-------------------------------------|-------------------------------------|


G|-----------------------------|------------------------7--0---------|---------------------------0-------|
D|-3------------0----3---3--3--|-3-------7--7------5-----------2--3--|-3-----------------------------2---|
A|-----5-----------------------|---------------5---------------------|------5--3----------5--3-----------|
E|----------5------------------|-------------------------------------|-------------3---3-----------------|


G|---------------9--9------------|--------7-------------------------|-----5---5---------------12-------|
D|-3--------5----------7--7------|-----------5----------------------|---------------5---------10-------|
A|------5--------------------7---|-8------------5----------8---9----|------------5---------10------3---|
E|-------------------------------|-----------------7-------7---8----|-----3---3-----3---8--------------|


G|-----------------------------------|--------------------------|--------------------------------|
D|-3---1-------3---0---2---4--4--7---|-9-------------9----10-9--|-7--5--7------------------------|
A|---------3-------------------------|-------9---11-------------|------------9---7---------------|
E|-----------------------------------|--------------------------|--------------------8---7---5---|


G|----------9---9-------9---12--|-12----16----12-12-14--16---12-14-12----------|-12---12----16-14-12----------|
D|-5----9-----------12----------|-------------------------------------16-14-12-|-12---12-------------16-14-12-|
A|------------------------------|----------------------------------------------|------------------------------|
E|-3----7---8-------12--8---0---|-0--0--0--0--0--0--0---0----0--0--0--0--0--0--|------0-----0--0--0--0--0--0--|


G|--------------------11--------|------12--12---------16--12--|-12--------------------------|
D|-14-12-10-14-12-12--0-----12--|-12----------12-12---16--12--|-12---14------------------17-|
A|--------------------0---------|---------------------0-------|-12---14---14--12------14----|
E|-0--0--0--0--0--0-------------|-----------------------------|------0----14--12---15-------|


G|--------------------16------------------------|-------------------------------------------|
D|-14-------14-171417----19-19--17-----------19-|-15----15----14----------------------------|
A|----17-14-------------------------19----19----|----19----17----15--------12---------------|
E|-------------------------------------19-------|-------------------17-15-----15-12--17-15--|


G|-21--24-24-24-20----24-20----24-22-20-------------|----------------------21-------------------0---0---0---|
D|-----------------24-------24----------22-21-------|-------------------------22-------22-------------------|
A|--------------------------------------------24-22-|-24-22-21-------------------24-------24----------------|
E|--------------------------------------------------|----------24-22-19-17----------22-------22-0---0---0---|


G|----------------------19-------------------0---0---0---|-------------------------------------------12------|
D|-------------------------20-------20-------------------|-------------------16----------14----------12--12--|
A|-22-21-19-------------------22-------22----------------|-21-19-17--------------17----------15--------------|
E|----------22-19-17-15----------20-------20-0---0---0---|----------19-17-15---------19----------17----------|


G|-11-9---7--------------0---0---------------|-----4---------------------------|-----------------------------------|
D|-----------5-----------0---0-----------5---|-5-------5---------------0-------|----2------------------------------|
A|-9-------------9---7-----------7---5-------|-------------2---3---4-------3---|-3------2--0-------2---0-----------|
E|---------------------------7---------------|-2---------------2---------------|-0-------------0---0-------4---3---|


G|-------------------------7-----7--|-7----------7-------7--------------|--------7--5-----------------------|
D|-----3---2---1---3----------------|------5------------------------5---|-5-------------5---5---3-----------|
A|-----5---3------------------------|-0-------------5-------7---5-------|---------------------------5---3---|
E|-3--------------------------------|-----------------------0-----------|-----------------------------------|


G|------------------------------|---------------------0-----------|------------------------------|
D|-3------------3-----------3---|-3---------------2-------2---3---|-5------------5-----------5---|
A|------5---3-------5---3-------|-----5--3------------2-----------|------7---5-------7---5-------|
E|------------------------------|-------------5-----------0---1---|------------------------------|


G|-----7---5-----------------------|------------------------------|---------------------0-------------|
D|-5-----------5---5---3-----------|-3------------3-----------3---|-3---------------2-----------------|
A|-------------------------5---3---|------5---3-------5---3-------|-----5--3--------------------------|
E|---------------------------------|------------------------------|-------------5-----------5--7---10-|


G|-----------------------------------|----------------|------5------|--------|
D|-----------16----------14----------|----------------|------5------|--------|
A|---------------17----------15------|----------------|-------------|--------|
E|-12---15-----------19----------17--|-17--16--3------|------3------|--------|





Track 5: Drum set 1

G|--------|--------|--------|--------|--------|--------|--------|--------|--------|
D|--------|--------|--------|--------|--------|--------|--------|--------|--------|
A|--------|--------|--------|--------|--------|--------|--------|--------|--------|
E|--------|--------|--------|--------|--------|--------|--------|--------|--------|


G|--------|--------|--------|--------|--------|--------|--------|--------|--------|
D|--------|--------|--------|--------|--------|--------|--------|--------|--------|
A|--------|--------|--------|--------|--------|--------|--------|--------|--------|
E|--------|--------|--------|--------|--------|--------|--------|--------|--------|


G|--------|----------6--6------------|-6--------6--6------------|----------6--6------------|
D|--------|----------6--6------------|-6--------6--6------------|----------6--6------------|
A|--------|--------------------------|--------------------------|--------------------------|
E|--------|--------------------------|--------------------------|--------------------------|


G|-6--------6--6---------6--|----------6--6------------|-6--------6--6------------|
D|-6--------6--6---------6--|----------6--6------------|-6--------6--6------------|
A|--------------------------|--------------------------|--------------------------|
E|--------------------------|--------------------------|--------------------------|


G|----------6--6------------|-6--------6--6-------6--6----|-6--------6--6------------|
D|----------6--6------------|-6--------6--6-------6--6----|-6--------6--6------------|
A|--------------------------|-----------------------------|--------------------------|
E|--------------------------|-----------------------------|--------------------------|


G|-6--------6--6------------|-6--------6--6------------|-6--------6--6---------6--|
D|-6--------6--6------------|-6--------6--6------------|-6--------6--6---------6--|
A|--------------------------|--------------------------|--------------------------|
E|--------------------------|--------------------------|--------------------------|


G|-6-----------6--6---------------|-6-----------6--6------------|-6-----------6--6---------------|
D|-6-----------6--6---------------|-6-----------6--6------------|-6-----------6--6---------------|
A|------2-----------------2---2---|------2-----------------2----|------2-----------------2---2---|
E|------2-----------------2---2---|------2-----------------2----|------2-----------------2---2---|


G|-6--------------6--6----------------6--|-6-----------6--6---------------|-6-----------6--6------------|
D|-6--------------6--6----------------6--|-6-----------6--6---------------|-6-----------6--6------------|
A|-----2---2-------------2-----2---------|------2-----------------2---2---|------2-----------------2----|
E|-----2---2-------------2-----2---------|------2-----------------2---2---|------2-----------------2----|


G|-6-----------6--6---------------|-6--------------6--6----------------6--|-6-----------6--6---------------|
D|-6-----------6--6---------------|-6--------------6--6----------------6--|-6-----------6--6---------------|
A|------2-----------------2---2---|-----2---2-------------2-----2---------|------2-----------------2---2---|
E|------2-----------------2---2---|-----2---2-------------2-----2---------|------2-----------------2---2---|


G|-6-----------6--6------------|-6-----------6--6---------------|-6--------------6--6----------------6--|
D|-6-----------6--6------------|-6-----------6--6---------------|-6--------------6--6----------------6--|
A|------2-----------------2----|------2-----------------2---2---|-----2---2-------------2-----2---------|
E|------2-----------------2----|------2-----------------2---2---|-----2---2-------------2-----2---------|


G|-6-----------6--6---------------|-6-----------6--6------------|-6-----------6--6---------------|
D|-6-----------6--6---------------|-6-----------6--6------------|-6-----------6--6---------------|
A|------2-----------------2---2---|------2-----------------2----|------2-----------------2---2---|
E|------2-----------------2---2---|------2-----------------2----|------2-----------------2---2---|


G|-6--------------6--6----------------6--|-6--------6--6--------6--6-----------6--------6--|
D|-6--------------6--6----------------6--|-6--------6--6--------6--6-----------6--------6--|
A|-----2---2-------------2-----2---------|-------------------------------------------------|
E|-----2---2-------------2-----2---------|----2--2--2-----2--2--------2--2--------2--2--2--|


G|-6--------6--6--------6--6--------6--6-----6--6--|-6--------6--6--------6--6-----------6--------6--|
D|-6--------6--6--------6--6--------6--6-----6--6--|-6--------6--6--------6--6-----------6--------6--|
A|-------------------------------------------------|-------------------------------------------------|
E|----2--2--2-----2--2--------2--2--------2--2--2--|----2--2--2-----2--2--------2--2--------2--2--2--|


G|-6--------6--6--------6--6--------6--6-----6--6--|-6--------6--6--------6--6-----------6--------6--|
D|-6--------6--6--------6--6--------6--6-----6--6--|-6--------6--6--------6--6-----------6--------6--|
A|-------------------------------------------------|-------------------------------------------------|
E|----2--2--2-----2--2--------2--2--------2--2--2--|----2--2--2-----2--2--------2--2--------2--2--2--|


G|-6--------6--6--------6--6--------6--6-----6--6--|-6--------6--6--------6--6-----------6--------6--|
D|-6--------6--6--------6--6--------6--6-----6--6--|-6--------6--6--------6--6-----------6--------6--|
A|-------------------------------------------------|-------------------------------------------------|
E|----2--2--2-----2--2--------2--2--------2--2--2--|----2--2--2-----2--2--------2--2--------2--2--2--|


G|-6--------6--6--------6--6--------6--6-----6--6--|-6--------6--6--------6--6-----------6--------6--|
D|-6--------6--6--------6--6--------6--6-----6--6--|-6--------6--6--------6--6-----------6--------6--|
A|-------------------------------------------------|-------------------------------------------------|
E|----2--2--2-----2--2--------2--2--------2--2--2--|----2--2--2-----2--2--------2--2--------2--2--2--|


G|-6--------6--6--------6--6--------6--6-----6--6--|-6--------6--6--------6--6-----------6--------6--|
D|-6--------6--6--------6--6--------6--6-----6--6--|-6--------6--6--------6--6-----------6--------6--|
A|-------------------------------------------------|-------------------------------------------------|
E|----2--2--2-----2--2--------2--2--------2--2--2--|----2--2--2-----2--2--------2--2--------2--2--2--|


G|-6--------6--6--------6--6--------6--6-----6--6--|-6--------6--6--------6--6-----------6--------6--|
D|-6--------6--6--------6--6--------6--6-----6--6--|-6--------6--6--------6--6-----------6--------6--|
A|-------------------------------------------------|-------------------------------------------------|
E|----2--2--2-----2--2--------2--2--------2--2--2--|----2--2--2-----2--2--------2--2--------2--2--2--|


G|-6--------6--6--------6--6--------6--6-----6--6---6--|-6--6--6---6-----6--------6--6-----------6-----6--6---6--|
D|-6--------6--6--------6--6--------6--6-----6--6---6--|-6---------6-----6--------6--6-----------6-----6--6---6--|
A|----------------------------------------2-------2----|--------------2-----------------------------2------------|
E|----2--2--2-----2--2--------2--2--------2-------2----|----2----2----2-----2--2--------2--2--------2-------2----|


G|-6--6--6---6-----6--------6--6--------6--6-----6--6--|-6--------6--6--------6--6-----------6--------6--|
D|-6---------6-----6--------6--6--------6--6-----6--6--|-6--------6--6--------6--6-----------6--------6--|
A|--------------2--------------------------------------|-------------------------------------------------|
E|----2----2----2-----2--2--------2--2--------2--2--2--|----2--2--2-----2--2--------2--2--------2--2--2--|


G|-6--6--6---6--------------6--6-----------6-----6--6---6--|-6--6--6---6--------------6--6-----------6-----6--6---6--|
D|-6---------6--------------6--6-----------6-----6--6---6--|-6---------6--------------6--6-----------6-----6--6---6--|
A|--------------2-----------------------------2------------|--------------2-----------------------------2------------|
E|----2----2----2-----2--2--------2--2--------2-------2----|----2----2----2-----2--2--------2--2--------2-------2----|


G|-6--------6--6--------6--6-----------6--------6--|-6------------------6--6---------------|
D|-6--------6--6--------6--6-----------6--------6--|-6------------------6--6---------------|
A|-------------------------------------------------|----------2------2-------------2---2---|
E|----2--2--2-----2--2--------2--2--------2--2--2--|----2--2--2---2--2-------------2---2---|


G|-6-----------6--6------------|-6-----------6--6---------------|-6--------------6--6----------------6--|
D|-6-----------6--6------------|-6-----------6--6---------------|-6--------------6--6----------------6--|
A|------2-----------------2----|------2-----------------2---2---|-----2---2-------------2-----2---------|
E|------2-----------------2----|------2-----------------2---2---|-----2---2-------------2-----2---------|


G|-6------6--6------6--6---------------|-6-----------6--6------------|-6-----------6--6---------------|
D|-6------6--6------6--6---------------|-6-----------6--6------------|-6-----------6--6---------------|
A|-----------2-----------------2---2---|------2-----------------2----|------2-----------------2---2---|
E|-----------2-----------------2---2---|------2-----------------2----|------2-----------------2---2---|


G|-6--------------6--6----------------6--|-6-----------6--6---------------|-6-----------6--6------------|
D|-6--------------6--6----------------6--|-6-----------6--6---------------|-6-----------6--6------------|
A|-----2---2-------------2-----2---------|------2-----------------2---2---|------2-----------------2----|
E|-----2---2-------------2-----2---------|------2-----------------2---2---|------2-----------------2----|


G|-6-----------6--6---------------|-6--------------6--6----------------6--|-6----6-----6----|
D|-6-----------6--6---------------|-6--------------6--6----------------6--|-6----6-----6----|
A|------2-----------------2---2---|-----2---2-------------2-----2---------|-----------------|
E|------2-----------------2---2---|-----2---2-------------2-----2---------|-2----2-----2----|


G|-------------|-------------|--------|
D|-------------|-------------|--------|
A|-------------|-------------|--------|
E|-------------|-------------|--------|





Track 6: Drum set 2

G|--------|--------|--------|--------|--------|--------|--------|--------|--------|
D|--------|--------|--------|--------|--------|--------|--------|--------|--------|
A|--------|--------|--------|--------|--------|--------|--------|--------|--------|
E|--------|--------|--------|--------|--------|--------|--------|--------|--------|


G|--------|--------|--------|--------|--------|--------|--------|--------|--------|
D|--------|--------|--------|--------|--------|--------|--------|--------|--------|
A|--------|--------|--------|--------|--------|--------|--------|--------|--------|
E|--------|--------|--------|--------|--------|--------|--------|--------|--------|


G|--------|--------|------------5---|-5-----------|--------|------------4---|-4-----------|
D|--------|--------|------------5---|-5-----------|--------|------------4---|-4-----------|
A|--------|--------|------------5---|-5-----------|--------|----------------|-------------|
E|--------|--------|------------5---|-5-----------|--------|----------------|-------------|


G|-4----4------4----4------4--------|-4----4------4----4-------4--4--|-4----4------4----4------4--------|
D|-4----4------4----4------4--------|-4----4------4----4-------4--4--|-4----4------4----4------4--------|
A|----------------------4-----------|--------------------------------|----------------------4-----------|
E|----------------------4-----------|--------------------------------|----------------------4-----------|


G|-4----4--------4-------4------4--------|-4----4--------4-------4------4--------|
D|-4----4--------4-------4------4--------|-4----4--------4-------4------4--------|
A|---------4-----------------4-----------|---------4-----------------4-----------|
E|---------4-----------------4-----------|---------4-----------------4-----------|


G|-4----4--------4-------4---------4--4--|-4----4------4----4------4--------|-4----4--------4-------4------4---4--|
D|-4----4--------4-------4---------4--4--|-4----4------4----4------4--------|-4----4--------4-------4------4---4--|
A|-4-------4---------4-------4-----------|----------------------4-----------|---------4-----------------4---------|
E|-4-------4---------4-------4-----------|----------------------4-----------|---------4-----------------4---------|


G|-4----4--------4-------4------4-----4--|-4----4--------4-------4---------4--4--|
D|-4----4--------4-------4------4-----4--|-4----4--------4-------4---------4--4--|
A|---------4-----------------4-----------|-4-------4---------4-------4-----------|
E|---------4-----------------4-----------|-4-------4---------4-------4-----------|


G|-4----4------4----4------4--------|-4----4--------4-------4------4---4--|-4----4--------4-------4------4-----4--|
D|-4----4------4----4------4--------|-4----4--------4-------4------4---4--|-4----4--------4-------4------4-----4--|
A|----------------------4-----------|---------4-----------------4---------|---------4-----------------4-----------|
E|----------------------4-----------|---------4-----------------4---------|---------4-----------------4-----------|


G|-4----4--------4-------4---------4--4--|-4----4------4----4------4--------|-4----4--------4-------4------4---4--|
D|-4----4--------4-------4---------4--4--|-4----4------4----4------4--------|-4----4--------4-------4------4---4--|
A|-4-------4---------4-------4-----------|----------------------4-----------|---------4-----------------4---------|
E|-4-------4---------4-------4-----------|----------------------4-----------|---------4-----------------4---------|


G|-4----4--------4-------4------4-----4--|-4----4--------4-------4---------4--4--|
D|-4----4--------4-------4------4-----4--|-4----4--------4-------4---------4--4--|
A|---------4-----------------4-----------|-4-------4---------4-------4-----------|
E|---------4-----------------4-----------|-4-------4---------4-------4-----------|


G|-4----4------4----4------4--------|-4----4--------4-------4------4---4--|-4----4--------4-------4------4-----4--|
D|-4----4------4----4------4--------|-4----4--------4-------4------4---4--|-4----4--------4-------4------4-----4--|
A|----------------------4-----------|---------4-----------------4---------|---------4-----------------4-----------|
E|----------------------4-----------|---------4-----------------4---------|---------4-----------------4-----------|


G|-4----4--------4-------4---------4--4--|-4----4------4----4------4--------|-4----4------4----4-------4--4--|
D|-4----4--------4-------4---------4--4--|-4----4------4----4------4--------|-4----4------4----4-------4--4--|
A|-4-------4---------4-------4-----------|----------------------4-----------|--------------------------------|
E|-4-------4---------4-------4-----------|----------------------4-----------|--------------------------------|


G|-4----4------4----4------4--------|-4----4------4----4-------4--4--|-4----4------4----4------4--------|
D|-4----4------4----4------4--------|-4----4------4----4-------4--4--|-4----4------4----4------4--------|
A|----------------------4-----------|--------------------------------|----------------------4-----------|
E|----------------------4-----------|--------------------------------|----------------------4-----------|


G|-4----4------4----4-------4--4--|-4----4------4----4------4--------|-4----4------4----4-------4--4--|
D|-4----4------4----4-------4--4--|-4----4------4----4------4--------|-4----4------4----4-------4--4--|
A|--------------------------------|----------------------4-----------|--------------------------------|
E|--------------------------------|----------------------4-----------|--------------------------------|


G|-4------4--------4---------4------4--------|-4----4------4-------4------4-----4--|
D|-4------4--------4---------4------4--------|-4----4------4-------4------4-----4--|
A|-----4--------4-----4--4-------4-----4-----|-4-----------4---4----------4--4-----|
E|-----4--------4-----4--4-------4-----4-----|-4-----------4---4----------4--4-----|


G|-4----4------4----4------4--------|-4----4------4----4-------4--4--|-4----4------4----4------4--------|
D|-4----4------4----4------4--------|-4----4------4----4-------4--4--|-4----4------4----4------4--------|
A|----------------------4-----------|--------------------------------|----------------------4-----------|
E|----------------------4-----------|--------------------------------|----------------------4-----------|


G|-4----4------4----4-------4--4--|-4----4------4----4------4--------|-4----4------4------------4---------4---------|
D|-4----4------4----4-------4--4--|-4----4------4----4------4--------|-4----4------4------------4---------4---------|
A|--------------------------------|----------------------4-----------|-----------------4--4--4--4---4-----4--4---4--|
E|--------------------------------|----------------------4-----------|-----------------4--4--4--4---4-----4--4---4--|


G|-4------4------------4-----------4----------4--------|-4----4------4----4-------4--4--|
D|-4------4------------4-----------4----------4--------|-4----4------4----4-------4--4--|
A|-----4-----4--4---4------4--4--4---4-----4-----------|--------------------------------|
E|-----4-----4--4---4------4--4--4---4-----4-----------|--------------------------------|


G|-4----4------4----4-------4--4--|-4----------4----------4---------4-------4--4--|
D|-4----4------4----4-------4--4--|-4----------4----------4---------4-------4--4--|
A|--------------------------------|----4--4--4---4--------4--4---4-------------4--|
E|--------------------------------|----4--4--4---4--------4--4---4-------------4--|


G|-4------4--------4-------4------4--------|-4----4--------4-------4------4---4--|
D|-4------4--------4-------4------4--------|-4----4--------4-------4------4---4--|
A|-----4-----4-----4-----------4-----------|---------4-----------------4---------|
E|-----4-----4-----4-----------4-----------|---------4-----------------4---------|


G|-4----4--------4-------4------4-----4--|-4----4--------4-------4---------4--4--|
D|-4----4--------4-------4------4-----4--|-4----4--------4-------4---------4--4--|
A|---------4-----------------4-----------|-4-------4---------4-------4-----------|
E|---------4-----------------4-----------|-4-------4---------4-------4-----------|


G|-4----4------4----4------4--------|-4----4------4----4-------4--4--|-4----4------4----4------4--------|
D|-4----4------4----4------4--------|-4----4------4----4-------4--4--|-4----4------4----4------4--------|
A|----------------------4-----------|--------------------------------|----------------------4-----------|
E|----------------------4-----------|--------------------------------|----------------------4-----------|


G|-4----4------4----4-------4--4--|-4----4------4----4------4--------|-4----4------4----4-------4--4--|
D|-4----4------4----4-------4--4--|-4----4------4----4------4--------|-4----4------4----4-------4--4--|
A|--------------------------------|----------------------4-----------|--------------------------------|
E|--------------------------------|----------------------4-----------|--------------------------------|


G|-4----4------4----4------4--------|-4----4------4----4-------4--4--|-4----4------4----4------4--------|
D|-4----4------4----4------4--------|-4----4------4----4-------4--4--|-4----4------4----4------4--------|
A|----------------------4-----------|--------------------------------|----------------------4-----------|
E|----------------------4-----------|--------------------------------|----------------------4-----------|


G|-4------4---------|-5-5-5-5-5-5-5-5-5--5--5--5--5--5--5--5--5--5--5--5--|-5--5--5--5--5--5--5--5--5--5--5--5-------|
D|-4------4---------|-5-5-5-5-5-5-5-5-5--5--5--5--5--5--5--5--5--5--5--5--|-5--5--5--5--5--5--5--5--5--5--5--5-------|
A|-----4------------|-----------------------------------------------------|------------------------------------------|
E|-----4------------|-----------------------------------------------------|------------------------------------------|