Site menu:

    

Browse: 0-9 A B C D E F G H I J K L N O P Q R S T U V W X Y Z

12 stones - far away:



Title: Far Away
Artist: 
Album: Potter's Field
Author: Paul McCoy, Eric Weaver, Greg Trammell, Aaron Gainer, Kevin Door


Track 1: Guitar 1

D|-------------------------------------|-------------------------------------|-----------------------------------|
A|-------------------------------------|-------------------------------------|-----------------------------------|
F|-------------------------------------|-------------------------------------|-----------------------------------|
C|-7--9---9---9--7---9---7---5--5---5--|----5--5---2---2---7--9---9---9--7---|-9---7---5--5---5---5--5---7---7---|
G|-7--9---9---9--7---9---7---5--5---5--|----5--5---2---2---7--9---9---9--7---|-9---7---5--5---5---5--5---7---7---|
C|-7--9---9---9--7---9---7---5--5---5--|----5--5---2---2---7--9---9---9--7---|-9---7---5--5---5---5--5---7---7---|


D|-------------------------------------|-------------------------------------|-----------------------------------|
A|-------------------------------------|-------------------------------------|-----------------------------------|
F|-------------------------------------|-------------------------------------|-----------------------------------|
C|-7--9---9---9--7---9---7---2--2---2--|----2--2---5---5---7--9---9---9--7---|-9---7---5--5---5---5--5---4---4---|
G|-7--9---9---9--7---9---7---2--2---2--|----2--2---5---5---7--9---9---9--7---|-9---7---5--5---5---5--5---4---4---|
C|-7--9---9---9--7---9---7---2--2---2--|----2--2---5---5---7--9---9---9--7---|-9---7---5--5---5---5--5---4---4---|


D|---------------------------|-----------------------|----------------|---------------------------|
A|---------------------------|-----------------------|----------------|---------------------------|
F|---------------------------|-----------------------|----------------|---------------------------|
C|-7--9---9------------------|-------7--9---9--------|----------------|-7--9---9------------------|
G|-7--9---9------------------|-------7--9---9--------|----------------|-7--9---9------------------|
C|-7--9---9------------------|-------7--9---9--------|----------------|-7--9---9------------------|


D|-----------------------|----------------|---------------------------|-----------------------|
A|-----------------------|----------------|---------------------------|-----------------------|
F|-----------------------|----------------|---------------------------|-----------------------|
C|-------7--9---9--------|----------------|-7--9---9------------------|-------7--9---9--------|
G|-------7--9---9--------|----------------|-7--9---9------------------|-------7--9---9--------|
C|-------7--9---9--------|----------------|-7--9---9------------------|-------7--9---9--------|


D|----------------|---------------------------|---------------------------|-------------------------------------|
A|----------------|---------------------------|---------------------------|-------------------------------------|
F|----------------|---------------------------|---------------------------|-------------------------------------|
C|----------------|-7--9---9------------------|-------7--9---9---9--9--12-|----12--12-12-7---7---7--7---5---4---|
G|----------------|-7--9---9------------------|-------7--9---9---9--9--12-|----12--12-12-7---7---7--7---5---4---|
C|----------------|-7--9---9------------------|-------7--9---9---9--9--12-|----12--12-12-7---7---7--7---5---4---|


D|-------------------------------------|-------------------------------------|-----------------------------------|
A|-------------------------------------|-------------------------------------|-----------------------------------|
F|-------------------------------------|-------------------------------------|-----------------------------------|
C|-7--9---9---9--7---9---7---5--5---5--|----5--5---2---2---7--9---9---9--7---|-9---7---5--5---5---5--5---7---7---|
G|-7--9---9---9--7---9---7---5--5---5--|----5--5---2---2---7--9---9---9--7---|-9---7---5--5---5---5--5---7---7---|
C|-7--9---9---9--7---9---7---5--5---5--|----5--5---2---2---7--9---9---9--7---|-9---7---5--5---5---5--5---7---7---|


D|-------------------------------------|-------------------------------------|-----------------------------------|
A|-------------------------------------|-------------------------------------|-----------------------------------|
F|-------------------------------------|-------------------------------------|-----------------------------------|
C|-7--9---9---9--7---9---7---2--2---2--|----2--2---5---5---7--9---9---9--7---|-9---7---5--5---5---5--5---4---4---|
G|-7--9---9---9--7---9---7---2--2---2--|----2--2---5---5---7--9---9---9--7---|-9---7---5--5---5---5--5---4---4---|
C|-7--9---9---9--7---9---7---2--2---2--|----2--2---5---5---7--9---9---9--7---|-9---7---5--5---5---5--5---4---4---|


D|---------------------------|-----------------------|----------------|-------------------------------------|
A|---------------------------|-----------------------|----------------|-------------------------------------|
F|---------------------------|-----------------------|----------------|-------------------------------------|
C|-7--9---9------------------|-------7--9---9--------|----------------|-7--9---9---9--9---0---0---5--7---7--|
G|-7--9---9------------------|-------7--9---9--------|----------------|-7--9---9---9--9---0---0---5--7---7--|
C|-7--9---9------------------|-------7--9---9--------|----------------|-7--9---9---9--9---0---0---5--7---7--|


D|-------------------------------------|-----------------------------------|-------------------------------------|
A|-------------------------------------|-----------------------------------|-------------------------------------|
F|-------------------------------------|-----------------------------------|-------------------------------------|
C|----7--7---2---2---7--9---9---9--9---|-0---0---5--7---7---7--7---2---2---|-7--9---9---9--9---0---0---5--7---7--|
G|----7--7---2---2---7--9---9---9--9---|-0---0---5--7---7---7--7---2---2---|-7--9---9---9--9---0---0---5--7---7--|
C|----7--7---2---2---7--9---9---9--9---|-0---0---5--7---7---7--7---2---2---|-7--9---9---9--9---0---0---5--7---7--|


D|-------------------------------------|-----------------------------------|-------------------------------------------|
A|-------------------------------------|-----------------------------------|-------------------------------------------|
F|-------------------------------------|-----------------------------------|-------------------------------------------|
C|----7--7---2---2---7--9---9---9--9---|-0---0---5--7---7---7--7---2---2---|-7--8--9--9---9--9--7--0---0---5--6--7--7--|
G|----7--7---2---2---7--9---9---9--9---|-0---0---5--7---7---7--7---2---2---|-7--8--9--9---9--9--7--0---0---5--6--7--7--|
C|----7--7---2---2---7--9---9---9--9---|-0---0---5--7---7---7--7---2---2---|-7--8--9--9---9--9--7--0---0---5--6--7--7--|


D|-------------------------------------------|-----------------------------------------|
A|-------------------------------------------|-----------------------------------------|
F|-------------------------------------------|-----------------------------------------|
C|----7--7--5--2---2---7--8--9--9---9--9--7--|-0---0---5--6--7--7---7--7--5--2---2--2--|
G|----7--7--5--2---2---7--8--9--9---9--9--7--|-0---0---5--6--7--7---7--7--5--2---2--2--|
C|----7--7--5--2---2---7--8--9--9---9--9--7--|-0---0---5--6--7--7---7--7--5--2---2--2--|


D|-------------------------------------------|-------------------------------------------|
A|-------------------------------------------|-------------------------------------------|
F|-------------------------------------------|-------------------------------------------|
C|-7--8--9--9---9--9--7--0---0---5--6--7--7--|----7--7--5--2---2---7--8--9--9---9--9--7--|
G|-7--8--9--9---9--9--7--0---0---5--6--7--7--|----7--7--5--2---2---7--8--9--9---9--9--7--|
C|-7--8--9--9---9--9--7--0---0---5--6--7--7--|----7--7--5--2---2---7--8--9--9---9--9--7--|


D|-------------------------------------------|-------------------------------------|
A|-------------------------------------------|-------------------------------------|
F|-------------------------------------------|-------------------------------------|
C|-0---0---5--6--7--7---7--7--5--9--9--9--9--|-7--9---9---9--7---9---7---5--5---5--|
G|-0---0---5--6--7--7---7--7--5--7--7--7--7--|-7--9---9---9--7---9---7---5--5---5--|
C|-0---0---5--6--7--7---7--7--5--7--7--7--7--|-7--9---9---9--7---9---7---5--5---5--|


D|-------------------------------------|-----------------------------------|-------------------------------------|
A|-------------------------------------|-----------------------------------|-------------------------------------|
F|-------------------------------------|-----------------------------------|-------------------------------------|
C|----5--5---2---2---7--9---9---9--7---|-9---7---5--5---5---5--5---7---7---|-7--9---9---9--7---9---7---2--2---2--|
G|----5--5---2---2---7--9---9---9--7---|-9---7---5--5---5---5--5---7---7---|-7--9---9---9--7---9---7---2--2---2--|
C|----5--5---2---2---7--9---9---9--7---|-9---7---5--5---5---5--5---7---7---|-7--9---9---9--7---9---7---2--2---2--|


D|-------------------------------------|-----------------------------------|-------------------------------------------------|
A|-------------------------------------|-----------------------------------|-------------------------------------------------|
F|-------------------------------------|-----------------------------------|-------------------------------------------------|
C|----2--2---5---5---7--9---9---9--7---|-9---7---5--5---5---5--5---4---4---|-------------------------------------------------|
G|----2--2---5---5---7--9---9---9--7---|-9---7---5--5---5---5--5---4---4---|-0--2--2--2--2--2--3--2--0--2--0--2--0--2--2--2--|
C|----2--2---5---5---7--9---9---9--7---|-9---7---5--5---5---5--5---4---4---|-------------------------------------------------|


D|-------------------------------------------------|-------------------------------------------------|
A|-------------------------------------------------|-------------------------------------------------|
F|-------------------------------------------------|-------------------------------------------------|
C|-------------------------------------------------|-------------------------------------------------|
G|-2--2--3--2--0--2--0--2--0--2--2--2--2--2--3--2--|-0--2--0--2--0--2--2--2--2--2--3--2--0--2--0--2--|
C|-------------------------------------------------|-------------------------------------------------|


D|-------------------------------------------------|-------------------------------------------------|
A|-------------------------------------------------|-------------------------------------------------|
F|-------------------------------------------------|-------------------------------------------------|
C|-7--9--9--9--9--9--10-9--7--9--7--9--7--9--9--9--|-9--9--10-9--7--9--7--9--7--9--9--9--9--9--10-9--|
G|-7--9--9--9--9--9--10-9--7--9--7--9--7--9--9--9--|-9--9--10-9--7--9--7--9--7--9--9--9--9--9--10-9--|
C|-7--9--9--9--9--9--10-9--7--9--7--9--7--9--9--9--|-9--9--10-9--7--9--7--9--7--9--9--9--9--9--10-9--|


D|-------------------------------------------------|---------------------------------|
A|-------------------------------------------------|---------------------------------|
F|-------------------------------------------------|---------------------------------|
C|-7--9--7--9--7--9--9--9--9--9--10-9--7--9--7--9--|-5----5---5--5----5---5--2----2--|
G|-7--9--7--9--7--9--9--9--9--9--10-9--7--9--7--9--|-5----5---5--5----5---5--2----2--|
C|-7--9--7--9--7--9--9--9--9--9--10-9--7--9--7--9--|-5----5---5--5----5---5--2----2--|


D|-----------------------------------|-----------------------------------|---------------------------------|
A|-----------------------------------|-----------------------------------|---------------------------------|
F|-------------------4----4---4--4---|----4---4--------------------------|---------------------------------|
C|----2--2----2---2--4----4---4--4---|----4---4--4----4---4--4---4---4---|-5----5---5--5----5---5--7----7--|
G|----2--2----2---2--2----2---2--2---|----2---2--4----4---4--4---4---4---|-5----5---5--5----5---5--7----7--|
C|----2--2----2---2------------------|-----------4----4---4--4---4---4---|-5----5---5--5----5---5--7----7--|


D|-----------------------------------|-----------------------------------|---------------------------------|
A|-----------------------------------|-----------------------------------|---------------------------------|
F|-------------------4----4---4--4---|----4---4--4----4---4--4-----------|---------------------------------|
C|----7--7----7---7--2----2---2--2---|----2---2--2----2---2--2---4---4---|-5----5---5--5----5---5--2----2--|
G|----7--7----7---7--2----2---2--2---|----2---2--2----2---2--2---4---4---|-5----5---5--5----5---5--2----2--|
C|----7--7----7---7--2----2---2--2---|----2---2--2----2---2--2---4---4---|-5----5---5--5----5---5--2----2--|


D|-----------------------------------|-----------------------------------|---------------------------------|
A|-----------------------------------|-----------------------------------|---------------------------------|
F|-------------------4----4---4--4---|----4---4--------------------------|---------------------------------|
C|----2--2----2---2--4----4---4--4---|----4---4--4----4---4--4---4---4---|-5----5---5--5----5---5--7---7---|
G|----2--2----2---2--2----2---2--2---|----2---2--4----4---4--4---4---4---|-5----5---5--5----5---5--7---7---|
C|----2--2----2---2------------------|-----------4----4---4--4---4---4---|-5----5---5--5----5---5--7---7---|


D|-----------------------------------------|-----------------------------------|-------------------------------------|
A|-----------------------------------------|-----------------------------------|-------------------------------------|
F|-----------------------------------------|-----------------------------------|-------------------------------------|
C|-7---9--9--9--9--9--9--7--9---9---9--7---|-9---7---5--5---5---5--5---2---2---|-7--9---9---9--7---9---7---5--5---5--|
G|-7---------------------7--9---9---9--7---|-9---7---5--5---5---5--5---2---2---|-7--9---9---9--7---9---7---5--5---5--|
C|-7---------------------7--9---9---9--7---|-9---7---5--5---5---5--5---2---2---|-7--9---9---9--7---9---7---5--5---5--|


D|-------------------------------------|-----------------------------------|-------------------------------------|
A|-------------------------------------|-----------------------------------|-------------------------------------|
F|-------------------------------------|-----------------------------------|-------------------------------------|
C|----5--5---7---7---7--9---9---9--7---|-9---7---2--2---2---2--2---5---5---|-7--9---9---9--7---9---7---5--5---5--|
G|----5--5---7---7---7--9---9---9--7---|-9---7---2--2---2---2--2---5---5---|-7--9---9---9--7---9---7---5--5---5--|
C|----5--5---7---7---7--9---9---9--7---|-9---7---2--2---2---2--2---5---5---|-7--9---9---9--7---9---7---5--5---5--|


D|-------------------------------------|-----------------------------------|-------------------------------------|
A|-------------------------------------|-----------------------------------|-------------------------------------|
F|-------------------------------------|-----------------------------------|-------------------------------------|
C|----5--5---4---4---7--9---9---9--7---|-9---7---5--5---5---5--5---2---2---|-7--9---9---9--7---9---7---5--5---5--|
G|----5--5---4---4---7--9---9---9--7---|-9---7---5--5---5---5--5---2---2---|-7--9---9---9--7---9---7---5--5---5--|
C|----5--5---4---4---7--9---9---9--7---|-9---7---5--5---5---5--5---2---2---|-7--9---9---9--7---9---7---5--5---5--|


D|-------------------------------------|-----------------------------------|-------------------------------------|
A|-------------------------------------|-----------------------------------|-------------------------------------|
F|-------------------------------------|-----------------------------------|-------------------------------------|
C|----5--5---7---7---7--9---9---9--7---|-9---7---2--2---2---2--2---5---5---|-7--9---9---9--7---9---7---5--5---5--|
G|----5--5---7---7---7--9---9---9--7---|-9---7---2--2---2---2--2---5---5---|-7--9---9---9--7---9---7---5--5---5--|
C|----5--5---7---7---7--9---9---9--7---|-9---7---2--2---2---2--2---5---5---|-7--9---9---9--7---9---7---5--5---5--|


D|-------------------------------------------|-------------------------------------------------|
A|-------------------------------------------|-------------------------------------------------|
F|-------------------------------------------|-------------------------------------------------|
C|----5--5---4---4---7--9--9--9--9--9--7--9--|-9--9--9--9--7--9--9--9--9--9--10-9--7--9--7--9--|
G|----5--5---4---4---7--9--9--9--9--9--7--9--|-9--9--9--9--7--9--9--9--9--9--10-9--7--9--7--9--|
C|----5--5---4---4---7--9--9--9--9--9--7--9--|-9--9--9--9--7--9--9--9--9--9--10-9--7--9--7--9--|


D|-------------------------------------------------|-------------------------------------------------|
A|-------------------------------------------------|-------------------------------------------------|
F|-------------------------------------------------|-------------------------------------------------|
C|-7--9--9--9--9--9--7--9--9--9--9--9--7--9--9--9--|-9--9--10-9--7--9--7--9--7--9--9--9--9--9--10-9--|
G|-7--9--9--9--9--9--7--9--9--9--9--9--7--9--9--9--|-9--9--10-9--7--9--7--9--7--9--9--9--9--9--10-9--|
C|-7--9--9--9--9--9--7--9--9--9--9--9--7--9--9--9--|-9--9--10-9--7--9--7--9--7--9--9--9--9--9--10-9--|


D|-------------------------------------------------|-------------------------------------------------|
A|-------------------------------------------------|-------------------------------------------------|
F|-------------------------------------------------|-------------------------------------------------|
C|-7--9--7--9--7--9--9--9--9--9--10-9--7--9--7--9--|-7--9--9--9--9--9--10-9--7--9--7--9--7--9--9--9--|
G|-7--9--7--9--7--9--9--9--9--9--10-9--7--9--7--9--|-7--9--9--9--9--9--10-9--7--9--7--9--7--9--9--9--|
C|-7--9--7--9--7--9--9--9--9--9--10-9--7--9--7--9--|-7--9--9--9--9--9--10-9--7--9--7--9--7--9--9--9--|


D|-----------------------------------|
A|-----------------------------------|
F|-----------------------------------|
C|-9--9--10-9--7--9--7--9------------|
G|-9--9--10-9--7--9--7--9--2---------|
C|-9--9--10-9--7--9--7--9------------|





Track 2: Guitar 2

D|--------|--------|--------|-------------------------------------|-------------------------------------|
A|--------|--------|--------|-------------------------------------|-------------------------------------|
F|--------|--------|--------|---------------------------9--9---9--|----9--9---7---7---------------------|
C|--------|--------|--------|-7--9---9---9--7---9---7---9--9---9--|----9--9---7---7---7--9---9---9--7---|
G|--------|--------|--------|-7--9---9---9--7---9---7---7--7---7--|----7--7---5---5---7--9---9---9--7---|
C|--------|--------|--------|-7--9---9---9--7---9---7-------------|-------------------7--9---9---9--7---|


D|-----------------------------------|-------------|-------------|-------------|-------------|
A|-----------------------------------|-------------|-------------|-------------|-------------|
F|-----------------------------------|-------------|-------------|-------------|-------------|
C|-9---7---5--5---5---5--5---4---4---|-------------|-------------|-------------|-------------|
G|-9---7---5--5---5---5--5---4---4---|-------------|-------------|-------------|-------------|
C|-9---7---5--5---5---5--5---4---4---|-------------|-------------|-------------|-------------|


D|-------------|---------------------------------|----------------------------------|
A|-------------|---------------------------------|----------------------------------|
F|-------------|---------------9--9--9--9--9--9--|----------7--7---7---7--6--6---6--|
C|-------------|---------------------------------|----------------------------------|
G|-------------|---------------------------------|----------------------------------|
C|-------------|---------------------------------|----------------------------------|


D|------------------------------------|---------------------------------------|----------------------------------|
A|------------------------------------|-------------------------5---5--2--5---|----------------------------------|
F|----6--6--2---2---2-----------7--7--|----7---7--6--6---6---6----------------|----------7--7---7---7--6--6---6--|
C|------------------------------------|---------------------------------------|----------------------------------|
G|------------------------------------|---------------------------------------|----------------------------------|
C|------------------------------------|---------------------------------------|----------------------------------|


D|------------------------------------|-------------------------------------------|
A|------------------------------------|-------------------------5--5--5--5--5--5--|
F|----6--6--2---2---2-----------7--7--|----7---7--6--6---6---6--------------------|
C|------------------------------------|-------------------------------------------|
G|------------------------------------|-------------------------------------------|
C|------------------------------------|-------------------------------------------|


D|--------|--------|--------|--------|--------|--------|----------------------------------|
A|--------|--------|--------|--------|--------|--------|----------------------------------|
F|--------|--------|--------|--------|--------|--------|----------7--7---7---7--6--6---6--|
C|--------|--------|--------|--------|--------|--------|----------------------------------|
G|--------|--------|--------|--------|--------|--------|----------------------------------|
C|--------|--------|--------|--------|--------|--------|----------------------------------|


D|------------------------------------|-------------------------------------------|
A|------------------------------------|-------------------------6--6--6--6--6--6--|
F|----6--6--2---2---2-----------7--7--|----7---7--6--6---6---6--------------------|
C|------------------------------------|-------------------------------------------|
G|------------------------------------|-------------------------------------------|
C|------------------------------------|-------------------------------------------|


D|--------|--------|--------|--------|--------|--------|--------|--------|--------|
A|--------|--------|--------|--------|--------|--------|--------|--------|--------|
F|--------|--------|--------|--------|--------|--------|--------|--------|--------|
C|--------|--------|--------|--------|--------|--------|--------|--------|--------|
G|--------|--------|--------|--------|--------|--------|--------|--------|--------|
C|--------|--------|--------|--------|--------|--------|--------|--------|--------|


D|--------|--------|--------|--------|--------|--------|--------|--------|--------|
A|--------|--------|--------|--------|--------|--------|--------|--------|--------|
F|--------|--------|--------|--------|--------|--------|--------|--------|--------|
C|--------|--------|--------|--------|--------|--------|--------|--------|--------|
G|--------|--------|--------|--------|--------|--------|--------|--------|--------|
C|--------|--------|--------|--------|--------|--------|--------|--------|--------|


D|--------|--------|--------|-----------------------------------------|-----------------------------------------|
A|--------|--------|--------|-12--12-12--12-12--12-12-12-12-----------|-----------------------------------------|
F|--------|--------|--------|-----------------------------------------|-----------------------11--11-11--11-11--|
C|--------|--------|--------|-------------------------------12--12-12-|----12-12--12-12-12-12-------------------|
G|--------|--------|--------|-----------------------------------------|-----------------------------------------|
C|--------|--------|--------|-----------------------------------------|-----------------------------------------|


D|---------------------------------------|--------|--------|--------|--------|--------|
A|---------------------------------------|--------|--------|--------|--------|--------|
F|-11-11-11-11---------------------------|--------|--------|--------|--------|--------|
C|-------------9---9--9---9--9---9---9---|--------|--------|--------|--------|--------|
G|---------------------------------------|--------|--------|--------|--------|--------|
C|---------------------------------------|--------|--------|--------|--------|--------|


D|--------|--------|--------|--------|--------|--------|--------|--------|--------|
A|--------|--------|--------|--------|--------|--------|--------|--------|--------|
F|--------|--------|--------|--------|--------|--------|--------|--------|--------|
C|--------|--------|--------|--------|--------|--------|--------|--------|--------|
G|--------|--------|--------|--------|--------|--------|--------|--------|--------|
C|--------|--------|--------|--------|--------|--------|--------|--------|--------|


D|--------|--------|--------|--------|--------|--------|--------|--------|--------|
A|--------|--------|--------|--------|--------|--------|--------|--------|--------|
F|--------|--------|--------|--------|--------|--------|--------|--------|--------|
C|--------|--------|--------|--------|--------|--------|--------|--------|--------|
G|--------|--------|--------|--------|--------|--------|--------|--------|--------|
C|--------|--------|--------|--------|--------|--------|--------|--------|--------|


D|--------|--------|-------------------------|-------------------------------------------|
A|--------|--------|-------12--12-12--12-12--|-12-12-12-12-------------------------------|
F|--------|--------|-------------------------|-------------------------------------------|
C|--------|--------|-------------------------|-------------12--12-12--12-12--12-12-12-12-|
G|--------|--------|-------------------------|-------------------------------------------|
C|--------|--------|-------------------------|-------------------------------------------|


D|-----------------------------------------|-------------------------|
A|-----------------------------------------|-------------------------|
F|-11--11-11--11-11--11-11-11-11-----------|-------------------------|
C|-------------------------------9---9--9--|----9--9---9---9---------|
G|-----------------------------------------|-------------------------|
C|-----------------------------------------|-------------------------|





Track 3: Chorus High Notes

E|--------|--------|--------|--------|--------|--------|--------|--------|--------|
B|--------|--------|--------|--------|--------|--------|--------|--------|--------|
G|--------|--------|--------|--------|--------|--------|--------|--------|--------|
D|--------|--------|--------|--------|--------|--------|--------|--------|--------|
A|--------|--------|--------|--------|--------|--------|--------|--------|--------|
E|--------|--------|--------|--------|--------|--------|--------|--------|--------|


E|--------|--------|--------|--------|--------|--------|--------|--------|--------|
B|--------|--------|--------|--------|--------|--------|--------|--------|--------|
G|--------|--------|--------|--------|--------|--------|--------|--------|--------|
D|--------|--------|--------|--------|--------|--------|--------|--------|--------|
A|--------|--------|--------|--------|--------|--------|--------|--------|--------|
E|--------|--------|--------|--------|--------|--------|--------|--------|--------|


E|-------------------------------------|-------------------------------------|-----------------------------------|
B|---------------------------8--8---8--|----8--8---8---8---------------------|---------8--8---8---8--8---8---8---|
G|-9--9---9---9--9---9---9-------------|-------------------9--9---9---9--9---|-9---9-----------------------------|
D|-------------------------------------|-------------------------------------|-----------------------------------|
A|-------------------------------------|-------------------------------------|-----------------------------------|
E|-------------------------------------|-------------------------------------|-----------------------------------|


E|--------|--------|--------|--------|--------|--------|--------|--------|--------|
B|--------|--------|--------|--------|--------|--------|--------|--------|--------|
G|--------|--------|--------|--------|--------|--------|--------|--------|--------|
D|--------|--------|--------|--------|--------|--------|--------|--------|--------|
A|--------|--------|--------|--------|--------|--------|--------|--------|--------|
E|--------|--------|--------|--------|--------|--------|--------|--------|--------|


E|--------|--------|--------|--------|--------|--------|--------|--------|--------|
B|--------|--------|--------|--------|--------|--------|--------|--------|--------|
G|--------|--------|--------|--------|--------|--------|--------|--------|--------|
D|--------|--------|--------|--------|--------|--------|--------|--------|--------|
A|--------|--------|--------|--------|--------|--------|--------|--------|--------|
E|--------|--------|--------|--------|--------|--------|--------|--------|--------|


E|-------------------------------------|-------------------------------------|-----------------------------------|
B|---------------------------8--8---8--|----8--8---8---8---------------------|---------8--8---8---8--8---8---8---|
G|-9--9---9---9--9---9---9-------------|-------------------9--9---9---9--9---|-9---9-----------------------------|
D|-------------------------------------|-------------------------------------|-----------------------------------|
A|-------------------------------------|-------------------------------------|-----------------------------------|
E|-------------------------------------|-------------------------------------|-----------------------------------|


E|--------|--------|--------|--------|--------|--------|--------|--------|--------|
B|--------|--------|--------|--------|--------|--------|--------|--------|--------|
G|--------|--------|--------|--------|--------|--------|--------|--------|--------|
D|--------|--------|--------|--------|--------|--------|--------|--------|--------|
A|--------|--------|--------|--------|--------|--------|--------|--------|--------|
E|--------|--------|--------|--------|--------|--------|--------|--------|--------|


E|--------|--------|--------|--------|--------|--------|--------|--------|--------|
B|--------|--------|--------|--------|--------|--------|--------|--------|--------|
G|--------|--------|--------|--------|--------|--------|--------|--------|--------|
D|--------|--------|--------|--------|--------|--------|--------|--------|--------|
A|--------|--------|--------|--------|--------|--------|--------|--------|--------|
E|--------|--------|--------|--------|--------|--------|--------|--------|--------|


E|--------|-------------------------|-----------------------------------|-------------------------------------|
B|--------|-------------------------|---------8--8---8---8--8---8---8---|---------------------------8--8---8--|
G|--------|-------9--9---9---9--9---|-9---9-----------------------------|-9--9---9---9--9---9---9-------------|
D|--------|-------------------------|-----------------------------------|-------------------------------------|
A|--------|-------------------------|-----------------------------------|-------------------------------------|
E|--------|-------------------------|-----------------------------------|-------------------------------------|


E|-------------------------------------|-----------------------------------|-------------------------------------|
B|----8--8---8---8---------------------|---------8--8---8---8--8---8---8---|-------------------------------------|
G|-------------------9--9---9---9--9---|-9---9-----------------------------|-9--9---9---9--9---9---9---10-10--10-|
D|-------------------------------------|-----------------------------------|-------------------------------------|
A|-------------------------------------|-----------------------------------|-------------------------------------|
E|-------------------------------------|-----------------------------------|-------------------------------------|


E|-------------------------------------|-----------------------------------|-------------------------------------|
B|-------------------------------------|---------8--8---8---8--8---8---8---|---------------------------8--8---8--|
G|----10-9---9---9---9--9---9---9--9---|-9---9-----------------------------|-9--9---9---9--9---9---9-------------|
D|-------------------------------------|-----------------------------------|-------------------------------------|
A|-------------------------------------|-----------------------------------|-------------------------------------|
E|-------------------------------------|-----------------------------------|-------------------------------------|


E|-------------------------------------|-----------------------------------|-------------------------------------|
B|----8--8---8---8---------------------|---------8--8---8---8--8---8---8---|-------------------------------------|
G|-------------------9--9---9---9--9---|-9---9-----------------------------|-9--9---9---9--9---9---9---10-10--10-|
D|-------------------------------------|-----------------------------------|-------------------------------------|
A|-------------------------------------|-----------------------------------|-------------------------------------|
E|-------------------------------------|-----------------------------------|-------------------------------------|


E|-------------------------|--------|--------|--------|--------|--------|--------|
B|-------------------------|--------|--------|--------|--------|--------|--------|
G|----10-9---9---9---------|--------|--------|--------|--------|--------|--------|
D|-------------------------|--------|--------|--------|--------|--------|--------|
A|-------------------------|--------|--------|--------|--------|--------|--------|
E|-------------------------|--------|--------|--------|--------|--------|--------|





Track 4: Guitar 1

D|--------|--------|--------|--------|--------|--------|--------|--------|--------|
A|--------|--------|--------|--------|--------|--------|--------|--------|--------|
F|--------|--------|--------|--------|--------|--------|--------|--------|--------|
C|--------|--------|--------|--------|--------|--------|--------|--------|--------|
G|--------|--------|--------|--------|--------|--------|--------|--------|--------|
C|--------|--------|--------|--------|--------|--------|--------|--------|--------|


D|--------|--------|--------|--------|--------|--------|--------|--------|--------|
A|--------|--------|--------|--------|--------|--------|--------|--------|--------|
F|--------|--------|--------|--------|--------|--------|--------|--------|--------|
C|--------|--------|--------|--------|--------|--------|--------|--------|--------|
G|--------|--------|--------|--------|--------|--------|--------|--------|--------|
C|--------|--------|--------|--------|--------|--------|--------|--------|--------|


D|--------|--------|--------|-------------------------------------|-------------------------------------|
A|--------|--------|--------|---------------------------8--8---8--|----8--8---8---8---------------------|
F|--------|--------|--------|-9--9---9---9--9---9---9-------------|-------------------9--9---9---9--9---|
C|--------|--------|--------|-------------------------------------|-------------------------------------|
G|--------|--------|--------|-------------------------------------|-------------------------------------|
C|--------|--------|--------|-------------------------------------|-------------------------------------|


D|-----------------------------------|--------|--------|--------|--------|--------|
A|-----------------------------------|--------|--------|--------|--------|--------|
F|-9---9---10-10--10--10-9---9---9---|--------|--------|--------|--------|--------|
C|-----------------------------------|--------|--------|--------|--------|--------|
G|-----------------------------------|--------|--------|--------|--------|--------|
C|-----------------------------------|--------|--------|--------|--------|--------|


D|--------|--------|--------|--------|--------|--------|--------|--------|--------|
A|--------|--------|--------|--------|--------|--------|--------|--------|--------|
F|--------|--------|--------|--------|--------|--------|--------|--------|--------|
C|--------|--------|--------|--------|--------|--------|--------|--------|--------|
G|--------|--------|--------|--------|--------|--------|--------|--------|--------|
C|--------|--------|--------|--------|--------|--------|--------|--------|--------|


D|--------|--------|--------|--------|--------|--------|--------|--------|--------|
A|--------|--------|--------|--------|--------|--------|--------|--------|--------|
F|--------|--------|--------|--------|--------|--------|--------|--------|--------|
C|--------|--------|--------|--------|--------|--------|--------|--------|--------|
G|--------|--------|--------|--------|--------|--------|--------|--------|--------|
C|--------|--------|--------|--------|--------|--------|--------|--------|--------|


D|--------|--------|--------|--------|--------|--------|--------|--------|--------|
A|--------|--------|--------|--------|--------|--------|--------|--------|--------|
F|--------|--------|--------|--------|--------|--------|--------|--------|--------|
C|--------|--------|--------|--------|--------|--------|--------|--------|--------|
G|--------|--------|--------|--------|--------|--------|--------|--------|--------|
C|--------|--------|--------|--------|--------|--------|--------|--------|--------|


D|--------|--------|--------|--------|--------|--------|--------|--------|--------|
A|--------|--------|--------|--------|--------|--------|--------|--------|--------|
F|--------|--------|--------|--------|--------|--------|--------|--------|--------|
C|--------|--------|--------|--------|--------|--------|--------|--------|--------|
G|--------|--------|--------|--------|--------|--------|--------|--------|--------|
C|--------|--------|--------|--------|--------|--------|--------|--------|--------|


D|--------|--------|--------|--------|--------|--------|--------|--------|--------|
A|--------|--------|--------|--------|--------|--------|--------|--------|--------|
F|--------|--------|--------|--------|--------|--------|--------|--------|--------|
C|--------|--------|--------|--------|--------|--------|--------|--------|--------|
G|--------|--------|--------|--------|--------|--------|--------|--------|--------|
C|--------|--------|--------|--------|--------|--------|--------|--------|--------|


D|--------|--------|--------|--------|--------|--------|
A|--------|--------|--------|--------|--------|--------|
F|--------|--------|--------|--------|--------|--------|
C|--------|--------|--------|--------|--------|--------|
G|--------|--------|--------|--------|--------|--------|
C|--------|--------|--------|--------|--------|--------|





Track 5: Guitar 1

D|--------|--------|--------|--------|--------|--------|--------|--------|--------|
A|--------|--------|--------|--------|--------|--------|--------|--------|--------|
F|--------|--------|--------|--------|--------|--------|--------|--------|--------|
C|--------|--------|--------|--------|--------|--------|--------|--------|--------|
G|--------|--------|--------|--------|--------|--------|--------|--------|--------|
C|--------|--------|--------|--------|--------|--------|--------|--------|--------|


D|--------|--------|--------|--------|--------|--------|--------|--------|--------|
A|--------|--------|--------|--------|--------|--------|--------|--------|--------|
F|--------|--------|--------|--------|--------|--------|--------|--------|--------|
C|--------|--------|--------|--------|--------|--------|--------|--------|--------|
G|--------|--------|--------|--------|--------|--------|--------|--------|--------|
C|--------|--------|--------|--------|--------|--------|--------|--------|--------|


D|--------|--------|--------|--------|--------|--------|--------|--------|--------|
A|--------|--------|--------|--------|--------|--------|--------|--------|--------|
F|--------|--------|--------|--------|--------|--------|--------|--------|--------|
C|--------|--------|--------|--------|--------|--------|--------|--------|--------|
G|--------|--------|--------|--------|--------|--------|--------|--------|--------|
C|--------|--------|--------|--------|--------|--------|--------|--------|--------|


D|--------|--------|--------|--------|--------|--------|--------|--------|--------|
A|--------|--------|--------|--------|--------|--------|--------|--------|--------|
F|--------|--------|--------|--------|--------|--------|--------|--------|--------|
C|--------|--------|--------|--------|--------|--------|--------|--------|--------|
G|--------|--------|--------|--------|--------|--------|--------|--------|--------|
C|--------|--------|--------|--------|--------|--------|--------|--------|--------|


D|--------|--------|--------|--------|--------|--------|-------------------------------------|
A|--------|--------|--------|--------|--------|--------|---------------------------8--8---8--|
F|--------|--------|--------|--------|--------|--------|-9--9---9---9--9---9---9-------------|
C|--------|--------|--------|--------|--------|--------|-------------------------------------|
G|--------|--------|--------|--------|--------|--------|-------------------------------------|
C|--------|--------|--------|--------|--------|--------|-------------------------------------|


D|-------------------------------------|-----------------------------------|--------|
A|----8--8---8---8---------------------|-----------------------------------|--------|
F|-------------------9--9---9---9--9---|-9---9---10-10--10--10-9---9---9---|--------|
C|-------------------------------------|-----------------------------------|--------|
G|-------------------------------------|-----------------------------------|--------|
C|-------------------------------------|-----------------------------------|--------|


D|--------|--------|--------|--------|--------|--------|--------|--------|--------|
A|--------|--------|--------|--------|--------|--------|--------|--------|--------|
F|--------|--------|--------|--------|--------|--------|--------|--------|--------|
C|--------|--------|--------|--------|--------|--------|--------|--------|--------|
G|--------|--------|--------|--------|--------|--------|--------|--------|--------|
C|--------|--------|--------|--------|--------|--------|--------|--------|--------|


D|--------|--------|--------|--------|--------|--------|--------|--------|--------|
A|--------|--------|--------|--------|--------|--------|--------|--------|--------|
F|--------|--------|--------|--------|--------|--------|--------|--------|--------|
C|--------|--------|--------|--------|--------|--------|--------|--------|--------|
G|--------|--------|--------|--------|--------|--------|--------|--------|--------|
C|--------|--------|--------|--------|--------|--------|--------|--------|--------|


D|--------|--------|--------|--------|--------|--------|--------|--------|--------|
A|--------|--------|--------|--------|--------|--------|--------|--------|--------|
F|--------|--------|--------|--------|--------|--------|--------|--------|--------|
C|--------|--------|--------|--------|--------|--------|--------|--------|--------|
G|--------|--------|--------|--------|--------|--------|--------|--------|--------|
C|--------|--------|--------|--------|--------|--------|--------|--------|--------|


D|--------|--------|--------|--------|--------|--------|--------|
A|--------|--------|--------|--------|--------|--------|--------|
F|--------|--------|--------|--------|--------|--------|--------|
C|--------|--------|--------|--------|--------|--------|--------|
G|--------|--------|--------|--------|--------|--------|--------|
C|--------|--------|--------|--------|--------|--------|--------|





Track 6: Untitled

F|-------------------------------------|-------------------------------------|-----------------------------------|
C|-------------------------------------|-------------------------------------|-----------------------------------|
G|-------------------------------------|-------------------------------------|-----------------------------------|
C|-7--9---9---9--7---9---7---5--5---5--|----5--5---2---2---7--9---9---9--7---|-9---7---5--5---5---5--5---7---7---|


F|-------------------------------------|-------------------------------------|-----------------------------------|
C|-------------------------------------|-------------------------------------|-----------------------------------|
G|-------------------------------------|-------------------------------------|-----------------------------------|
C|-7--9---9---9--7---9---7---2--2---2--|----2--2---5---5---7--9---9---9--7---|-9---7---5--5---5---5--5---4---4---|


F|---------------------------------------|---------------------------------------|
C|---------------------------------------|---------------------------------------|
G|------------------5---5---5--5---------|------------------------------------5--|
C|-7--9---9---9--9----------------7---7--|-7--7--7---5---4---7--9---9---9--9-----|


F|---------------------------------------|---------------------------------------|
C|---------------------------------------|---------------------------------------|
G|----5---5--5-------------------7---7---|------------------5---5---5--5---------|
C|--------------7---7--7--7--7-----------|-7--9---9---9--9----------------7---7--|


F|---------------------------------------|---------------------------------------|
C|---------------------------------------|---------------------------------------|
G|------------------------------------5--|----5---5--5-------------------7---7---|
C|-7--7--7---5---4---7--9---9---9--9-----|--------------7---7--7--7--7-----------|


F|---------------------------------------|---------------------------------------|
C|---------------------------------------|---------------------------------------|
G|------------------5---5---5--5---------|------------------------------------5--|
C|-7--9---9---9--9----------------7---7--|-7--7--7---5---4---7--9---9---9--9-----|


F|---------------------------------------|---------------------------------------|
C|---------------------------------------|---------------------------------------|
G|----5---5--5-------------------7---7---|------------------5---5---5--5---------|
C|--------------7---7--7--7--7-----------|-7--9---9---9--9----------------7---7--|


F|---------------------------------------|---------------------------------------|
C|---------------------------------------|---------------------------------------|
G|------------------------------------5--|----5---5--5---------------------------|
C|-7--7--7---5---4---7--9---9---9--9-----|--------------7---7--7--7--7---5---4---|


F|-------------------------------------|-------------------------------------|-----------------------------------|
C|-------------------------------------|-------------------------------------|-----------------------------------|
G|-------------------------------------|-------------------------------------|-----------------------------------|
C|-7--9---9---9--7---9---7---5--5---5--|----5--5---2---2---7--9---9---9--7---|-9---7---5--5---5---5--5---7---7---|


F|-------------------------------------|-------------------------------------|-----------------------------------|
C|-------------------------------------|-------------------------------------|-----------------------------------|
G|-------------------------------------|-------------------------------------|-----------------------------------|
C|-7--9---9---9--7---9---7---2--2---2--|----2--2---5---5---7--9---9---9--7---|-9---7---5--5---5---5--5---4---4---|


F|---------------------------------------|---------------------------------------|
C|---------------------------------------|---------------------------------------|
G|------------------5---5---5--5---------|------------------------------------5--|
C|-7--9---9---9--9----------------7---7--|-7--7--7---5---4---7--9---9---9--9-----|


F|---------------------------------------|-------------------------------------|-------------------------------------|
C|---------------------------------------|-------------------------------------|-------------------------------------|
G|----5---5--5-------------------7---7---|-------------------------------------|-------------------------------------|
C|--------------7---7--7--7--7-----------|-7--9---9---9--9---0---0---5--7---7--|----7--7---2---2---7--9---9---9--9---|


F|-----------------------------------|-------------------------------------|-------------------------------------|
C|-----------------------------------|-------------------------------------|-------------------------------------|
G|-----------------------------------|-------------------------------------|-------------------------------------|
C|-0---0---5--7---7---7--7---2---2---|-7--9---9---9--9---0---0---5--7---7--|----7--7---2---2---7--9---9---9--9---|


F|-----------------------------------|-------------------------------------------|
C|-----------------------------------|-------------------------------------------|
G|-----------------------------------|-------------------------------------------|
C|-0---0---5--7---7---7--7---2---2---|-7--8--9--9---9--9--7--0---0---5--6--7--7--|


F|-------------------------------------------|---------------------------------------|
C|-------------------------------------------|---------------------------------------|
G|-------------------------------------------|---------------------------------------|
C|----7--7--5--2---2---7--8--9--9---9--9--7--|-0---0---5--6--7--7---7--7--5--2---2---|


F|-------------------------------------------|-------------------------------------------|
C|-------------------------------------------|-------------------------------------------|
G|-------------------------------------------|-------------------------------------------|
C|-7--8--9--9---9--9--7--0---0---5--6--7--7--|----7--7--5--2---2---7--8--9--9---9--9--7--|


F|---------------------------------------|-------------------------------------|-------------------------------------|
C|---------------------------------------|-------------------------------------|-------------------------------------|
G|---------------------------------------|-------------------------------------|-------------------------------------|
C|-0---0---5--6--7--7---7--7--5--9---9---|-7--9---9---9--7---9---7---5--5---5--|----5--5---2---2---7--9---9---9--7---|


F|-----------------------------------|-------------------------------------|-------------------------------------|
C|-----------------------------------|-------------------------------------|-------------------------------------|
G|-----------------------------------|-------------------------------------|-------------------------------------|
C|-9---7---5--5---5---5--5---7---7---|-7--9---9---9--7---9---7---2--2---2--|----2--2---5---5---7--9---9---9--7---|


F|-----------------------------------|--------|--------|--------|-------------------------------------------|
C|-----------------------------------|--------|--------|--------|-------------------------------------------|
G|-----------------------------------|--------|--------|--------|-0--2---2---2--3--2--0--2--0--2--0--2---2--|
C|-9---7---5--5---5---5--5---4---4---|--------|--------|--------|-------------------------------------------|


F|---------------------------------------------|---------------------------------------------|
C|---------------------------------------------|---------------------------------------------|
G|----2--3--2--0--2--0--2--0--2---2---2--3--2--|-0--2--0--2--0--2---2---2--3--2--0--2--0--2--|
C|---------------------------------------------|---------------------------------------------|


F|---------------------------------|-----------------------------------|-----------------------------------|
C|---------------------------------|-----------------------------------|-----------------------------------|
G|---------------------------------|-------------------2----2---2--2---|----2---2--------------------------|
C|-5----5---5--5----5---5--2----2--|----2--2----2---2------------------|-----------4----4---4--4---4---4---|


F|---------------------------------|-----------------------------------|-----------------------------------|
C|---------------------------------|-----------------------------------|-----------------------------------|
G|---------------------------------|-----------------------------------|-----------------------------------|
C|-5----5---5--5----5---5--7----7--|----7--7----7---7--2----2---2--2---|----2---2--2----2---2--2---4---4---|


F|---------------------------------|-----------------------------------|-----------------------------------|
C|---------------------------------|-----------------------------------|-----------------------------------|
G|---------------------------------|-------------------2----2---2--2---|----2---2--------------------------|
C|-5----5---5--5----5---5--2----2--|----2--2----2---2------------------|-----------4----4---4--4---4---4---|


F|---------------------------------|--------------------------------|-----------------------------------|
C|---------------------------------|--------------------------------|-----------------------------------|
G|---------------------------------|--------------------------------|-----------------------------------|
C|-5----5---5--5----5---5--7---7---|-7------------7--9---9---9--7---|-9---7---5--5---5---5--5---2---2---|


F|-------------------------------------|-------------------------------------|-----------------------------------|
C|-------------------------------------|-------------------------------------|-----------------------------------|
G|-------------------------------------|-------------------------------------|-----------------------------------|
C|-7--9---9---9--7---9---7---5--5---5--|----5--5---7---7---7--9---9---9--7---|-9---7---2--2---2---2--2---5---5---|


F|-------------------------------------|-------------------------------------|-----------------------------------|
C|-------------------------------------|-------------------------------------|-----------------------------------|
G|-------------------------------------|-------------------------------------|-----------------------------------|
C|-7--9---9---9--7---9---7---5--5---5--|----5--5---4---4---7--9---9---9--7---|-9---7---5--5---5---5--5---2---2---|


F|-------------------------------------|-------------------------------------|-----------------------------------|
C|-------------------------------------|-------------------------------------|-----------------------------------|
G|-------------------------------------|-------------------------------------|-----------------------------------|
C|-7--9---9---9--7---9---7---5--5---5--|----5--5---7---7---7--9---9---9--7---|-9---7---2--2---2---2--2---5---5---|


F|-------------------------------------|---------------------------------------|-------------------------------------------|
C|-------------------------------------|---------------------------------------|-------------------------------------------|
G|-------------------------------------|-------------------0--2---2---2--0--2--|----2---2--0--2---2---2--3--2--0--2--0--2--|
C|-7--9---9---9--7---9---7---5--5---5--|----5--5---4---4-----------------------|-------------------------------------------|


F|---------------------------------------|---------------------------------------------|
C|---------------------------------------|---------------------------------------------|
G|-0--2---2---2--0--2---2---2--0--2---2--|----2--3--2--0--2--0--2--0--2---2---2--3--2--|
C|---------------------------------------|---------------------------------------------|


F|---------------------------------------------|-------------------------------------------|
C|---------------------------------------------|-------------------------------------------|
G|-0--2--0--2--0--2---2---2--3--2--0--2--0--2--|-0--2---2---2--3--2--0--2--0--2--0--2---2--|
C|---------------------------------------------|-------------------------------------------|


F|-----------------------------------|
C|-----------------------------------|
G|----2--3--2--0--2--0--2--2---------|
C|-----------------------------------|